  0
SECTION
  2
HEADER
  9
$ACADVER
  1
AC1015
  9
$ACADMAINTVER
 70
    10
  9
$DWGCODEPAGE
  3
ANSI_932
  9
$INSBASE
 10
49.27399499999999
 20
40.538438
 30
0.0
  9
$EXTMIN
 10
1.966356807639158
 20
0.7522902022492417
 30
-0.0015258207003583
  9
$EXTMAX
 10
201.4404110380219
 20
321.0641795320718
 30
0.0000000349246037
  9
$LIMMIN
 10
0.0
 20
0.0
  9
$LIMMAX
 10
420.0
 20
594.0
  9
$ORTHOMODE
 70
     0
  9
$REGENMODE
 70
     1
  9
$FILLMODE
 70
     1
  9
$QTEXTMODE
 70
     0
  9
$MIRRTEXT
 70
     1
  9
$LTSCALE
 40
0.5
  9
$ATTMODE
 70
     1
  9
$TEXTSIZE
 40
0.0
  9
$TRACEWID
 40
0.05
  9
$TEXTSTYLE
  7
STANDARD
  9
$CLAYER
  8
0
  9
$CELTYPE
  6
CONTINUOUS
  9
$CECOLOR
 62
   256
  9
$CELTSCALE
 40
1.0
  9
$DISPSILH
 70
     0
  9
$DIMSCALE
 40
2.0
  9
$DIMASZ
 40
4.0
  9
$DIMEXO
 40
2.0
  9
$DIMDLI
 40
10.0
  9
$DIMRND
 40
0.0
  9
$DIMDLE
 40
0.0
  9
$DIMEXE
 40
2.0
  9
$DIMTP
 40
0.0
  9
$DIMTM
 40
0.0
  9
$DIMTXT
 40
4.0
  9
$DIMCEN
 40
0.09
  9
$DIMTSZ
 40
0.0
  9
$DIMTOL
 70
     0
  9
$DIMLIM
 70
     0
  9
$DIMTIH
 70
     0
  9
$DIMTOH
 70
     0
  9
$DIMSE1
 70
     0
  9
$DIMSE2
 70
     0
  9
$DIMTAD
 70
     3
  9
$DIMZIN
 70
     0
  9
$DIMBLK
  1

  9
$DIMASO
 70
     1
  9
$DIMSHO
 70
     1
  9
$DIMPOST
  1

  9
$DIMAPOST
  1

  9
$DIMALT
 70
     0
  9
$DIMALTD
 70
     2
  9
$DIMALTF
 40
25.4
  9
$DIMLFAC
 40
1.0
  9
$DIMTOFL
 70
     1
  9
$DIMTVP
 40
0.7
  9
$DIMTIX
 70
     0
  9
$DIMSOXD
 70
     0
  9
$DIMSAH
 70
     0
  9
$DIMBLK1
  1

  9
$DIMBLK2
  1

  9
$DIMSTYLE
  2
STANDARD
  9
$DIMCLRD
 70
     0
  9
$DIMCLRE
 70
     0
  9
$DIMCLRT
 70
     0
  9
$DIMTFAC
 40
0.5
  9
$DIMGAP
 40
0.0
  9
$DIMJUST
 70
     0
  9
$DIMSD1
 70
     0
  9
$DIMSD2
 70
     0
  9
$DIMTOLJ
 70
     1
  9
$DIMTZIN
 70
     0
  9
$DIMALTZ
 70
     0
  9
$DIMALTTZ
 70
     0
  9
$DIMUPT
 70
     0
  9
$DIMDEC
 70
     2
  9
$DIMTDEC
 70
     4
  9
$DIMALTU
 70
     2
  9
$DIMALTTD
 70
     2
  9
$DIMTXSTY
  7
STANDARD
  9
$DIMAUNIT
 70
     0
  9
$DIMADEC
 70
     0
  9
$DIMALTRND
 40
0.0
  9
$DIMAZIN
 70
     0
  9
$DIMDSEP
 70
     0
  9
$DIMATFIT
 70
     3
  9
$DIMFRAC
 70
     0
  9
$DIMLDRBLK
  1

  9
$DIMLUNIT
 70
     2
  9
$DIMLWD
 70
     0
  9
$DIMLWE
 70
     0
  9
$DIMTMOVE
 70
     0
  9
$LUNITS
 70
     2
  9
$LUPREC
 70
     4
  9
$SKETCHINC
 40
0.1
  9
$FILLETRAD
 40
0.0
  9
$AUNITS
 70
     0
  9
$AUPREC
 70
     0
  9
$MENU
  1
acad
  9
$ELEVATION
 40
0.0
  9
$PELEVATION
 40
0.0
  9
$THICKNESS
 40
0.0
  9
$LIMCHECK
 70
     0
  9
$CHAMFERA
 40
0.0
  9
$CHAMFERB
 40
0.0
  9
$CHAMFERC
 40
0.0
  9
$CHAMFERD
 40
0.0
  9
$SKPOLY
 70
     0
  9
$TDCREATE
 40
2453630.817060185
  9
$TDUCREATE
 40
2453630.442060185
  9
$TDUPDATE
 40
2454636.399554398
  9
$TDUUPDATE
 40
2454636.024554398
  9
$TDINDWG
 40
0.1032653241
  9
$TDUSRTIMER
 40
0.1032631597
  9
$USRTIMER
 70
     1
  9
$ANGBASE
 50
0.0
  9
$ANGDIR
 70
     0
  9
$PDMODE
 70
     0
  9
$PDSIZE
 40
0.0
  9
$PLINEWID
 40
0.0
  9
$SPLFRAME
 70
     0
  9
$SPLINETYPE
 70
     6
  9
$SPLINESEGS
 70
     8
  9
$HANDSEED
  5
183
  9
$SURFTAB1
 70
     6
  9
$SURFTAB2
 70
     6
  9
$SURFTYPE
 70
     6
  9
$SURFU
 70
     6
  9
$SURFV
 70
     6
  9
$UCSBASE
  2

  9
$UCSNAME
  2

  9
$UCSORG
 10
0.0
 20
0.0
 30
0.0
  9
$UCSXDIR
 10
1.0
 20
0.0
 30
0.0
  9
$UCSYDIR
 10
0.0
 20
1.0
 30
0.0
  9
$UCSORTHOREF
  2

  9
$UCSORTHOVIEW
 70
     0
  9
$UCSORGTOP
 10
0.0
 20
0.0
 30
0.0
  9
$UCSORGBOTTOM
 10
0.0
 20
0.0
 30
0.0
  9
$UCSORGLEFT
 10
0.0
 20
0.0
 30
0.0
  9
$UCSORGRIGHT
 10
0.0
 20
0.0
 30
0.0
  9
$UCSORGFRONT
 10
0.0
 20
0.0
 30
0.0
  9
$UCSORGBACK
 10
0.0
 20
0.0
 30
0.0
  9
$PUCSBASE
  2

  9
$PUCSNAME
  2

  9
$PUCSORG
 10
0.0
 20
0.0
 30
0.0
  9
$PUCSXDIR
 10
1.0
 20
0.0
 30
0.0
  9
$PUCSYDIR
 10
0.0
 20
1.0
 30
0.0
  9
$PUCSORTHOREF
  2

  9
$PUCSORTHOVIEW
 70
     0
  9
$PUCSORGTOP
 10
0.0
 20
0.0
 30
0.0
  9
$PUCSORGBOTTOM
 10
0.0
 20
0.0
 30
0.0
  9
$PUCSORGLEFT
 10
0.0
 20
0.0
 30
0.0
  9
$PUCSORGRIGHT
 10
0.0
 20
0.0
 30
0.0
  9
$PUCSORGFRONT
 10
0.0
 20
0.0
 30
0.0
  9
$PUCSORGBACK
 10
0.0
 20
0.0
 30
0.0
  9
$USERI1
 70
     0
  9
$USERI2
 70
     0
  9
$USERI3
 70
     0
  9
$USERI4
 70
     0
  9
$USERI5
 70
     0
  9
$USERR1
 40
0.0
  9
$USERR2
 40
0.0
  9
$USERR3
 40
0.0
  9
$USERR4
 40
0.0
  9
$USERR5
 40
0.0
  9
$WORLDVIEW
 70
     1
  9
$SHADEDGE
 70
     3
  9
$SHADEDIF
 70
    70
  9
$TILEMODE
 70
     1
  9
$MAXACTVP
 70
    16
  9
$PINSBASE
 10
0.0
 20
0.0
 30
0.0
  9
$PLIMCHECK
 70
     0
  9
$PEXTMIN
 10
0.0
 20
0.0
 30
0.0
  9
$PEXTMAX
 10
210.0
 20
297.0
 30
0.0
  9
$PLIMMIN
 10
0.0
 20
0.0
  9
$PLIMMAX
 10
210.0
 20
297.0
  9
$UNITMODE
 70
     0
  9
$VISRETAIN
 70
     0
  9
$PLINEGEN
 70
     1
  9
$PSLTSCALE
 70
     0
  9
$TREEDEPTH
 70
  3020
  9
$CMLSTYLE
  2
STANDARD
  9
$CMLJUST
 70
     0
  9
$CMLSCALE
 40
1.0
  9
$PROXYGRAPHICS
 70
     0
  9
$MEASUREMENT
 70
     0
  9
$CELWEIGHT
370
     0
  9
$ENDCAPS
280
     0
  9
$JOINSTYLE
280
     0
  9
$LWDISPLAY
290
     0
  9
$INSUNITS
 70
     0
  9
$HYPERLINKBASE
  1

  9
$STYLESHEET
  1
monochrome.ctb
  9
$XEDIT
290
     1
  9
$CEPSNTYPE
380
     0
  9
$PSTYLEMODE
290
     1
  9
$FINGERPRINTGUID
  2

  9
$VERSIONGUID
  2
{5640FA61-25E7-4965-85FD-746372F2FC27}
  9
$EXTNAMES
290
     1
  9
$PSVPSCALE
 40
0.0
  9
$OLESTARTUP
290
     0
  0
ENDSEC
  0
SECTION
  2
CLASSES
  0
CLASS
  1
LWPOLYLINE
  2
AcDbPolyline
  3
AutoCAD 2000
 90
    32768
280
     0
281
     1
  0
CLASS
  1
IMAGE
  2
AcDbRasterImage
  3
ISM
 90
    32895
280
     0
281
     1
  0
CLASS
  1
OLE2FRAME
  2
AcDbOle2Frame
  3
AutoCAD 2000
 90
    32768
280
     0
281
     1
  0
CLASS
  1
HATCH
  2
AcDbHatch
  3
AutoCAD 2000
 90
    32768
280
     0
281
     1
  0
CLASS
  1
DICTIONARYVAR
  2
AcDbDictionaryVar
  3
AutoCAD 2000
 90
        0
280
     0
281
     0
  0
CLASS
  1
RASTERVARIABLES
  2
AcDbRasterVariables
  3
ISM
 90
    32768
280
     0
281
     0
  0
CLASS
  1
IMAGEDEF
  2
AcDbRasterImageDef
  3
ISM
 90
    32768
280
     0
281
     0
  0
CLASS
  1
IMAGEDEF_REACTOR
  2
AcDbRasterImageDefReactor
  3
ISM
 90
    32769
280
     0
281
     0
  0
CLASS
  1
IDBUFFER
  2
AcDbIdBuffer
  3
AutoCAD 2000
 90
    32768
280
     0
281
     0
  0
CLASS
  1
SPATIAL_FILTER
  2
AcDbSpatialFilter
  3
AutoCAD 2000
 90
    32768
280
     0
281
     0
  0
CLASS
  1
XRECORD
  2
AcDbXrecord
  3
AutoCAD 2000
 90
    32768
280
     0
281
     0
  0
CLASS
  1
SORTENTSTABLE
  2
AcDbSortentsTable
  3
AutoCAD 2000
 90
    32768
280
     0
281
     0
  0
CLASS
  1
LAYER_INDEX
  2
AcDbLayerIndex
  3
AutoCAD 2000
 90
    32768
280
     0
281
     0
  0
CLASS
  1
SPATIAL_INDEX
  2
AcDbSpatialIndex
  3
AutoCAD 2000
 90
    32768
280
     0
281
     0
  0
CLASS
  1
OBJECT_PTR
  2
CAseDLPNTableRecord
  3
"ASE-LPNTableRecord"
 90
    32769
280
     0
281
     0
  0
CLASS
  1
LAYOUT
  2
AcDbLayout
  3
AutoCAD 2000
 90
        0
280
     0
281
     0
  0
CLASS
  1
PLOTSETTINGS
  2
AcDbPlotSettings
  3
AutoCAD 2000
 90
    32768
280
     0
281
     0
  0
CLASS
  1
ACDBDICTIONARYWDFLT
  2
AcDbDictionaryWithDefault
  3
AutoCAD 2000
 90
        0
280
     0
281
     0
  0
CLASS
  1
ACDBPLACEHOLDER
  2
AcDbPlaceHolder
  3
AutoCAD 2000
 90
        0
280
     0
281
     0
  0
CLASS
  1
VBA_PROJECT
  2
AcDbVbaProject
  3
acadvba
 90
    32768
280
     0
281
     0
  0
CLASS
  1
WIPEOUT
  2
AcDbWipeout
  3
WipeOut|AutoCAD Express Tool|expresstools@autodesk.com
 90
    32895
280
     0
281
     1
  0
CLASS
  1
WIPEOUTVARIABLES
  2
AcDbWipeoutVariables
  3
WipeOut|AutoCAD Express Tool|expresstools@autodesk.com
 90
        0
280
     0
281
     0
  0
CLASS
  1
RTEXT
  2
RText
  3
RText|AutoCAD Express Tool|expresstools@autodesk.com
 90
    32768
280
     0
281
     1
  0
CLASS
  1
ARCALIGNEDTEXT
  2
AcDbArcAlignedText
  3
ATEXT|AutoCAD Express Tool|expresstools@autodesk.com
 90
    32768
280
     0
281
     1
  0
CLASS
  1
ACAD_PROXY_OBJECT_WRAPPER
  2
AcDbProxyObjectWrapper
  3
AutoCAD 2000
 90
    32768
280
     0
281
     0
  0
CLASS
  1
LONG_TRANSACTION
  2
AcDbLongTransaction
  3
AutoCAD 2000
 90
    32768
280
     0
281
     0
  0
CLASS
  1
LWPOLYLINE
  2
AcDbPolyline
  3
AutoCAD 2000
 90
    32768
280
     0
281
     1
  0
CLASS
  1
HATCH
  2
AcDbHatch
  3
AutoCAD 2000
 90
    32768
280
     0
281
     1
  0
CLASS
  1
XRECORD
  2
AcDbXrecord
  3
AutoCAD 2000
 90
    32768
280
     0
281
     0
  0
ENDSEC
  0
SECTION
  2
TABLES
  0
TABLE
  2
VPORT
  5
7
330
0
100
AcDbSymbolTable
 70
     6
  0
VPORT
  5
161
330
7
100
AcDbSymbolTableRecord
100
AcDbViewportTableRecord
  2
*Active
 70
     0
 10
0.0
 20
0.0
 11
1.0
 21
1.0
 12
105.8532350011401
 22
162.1621124033238
 13
0.0
 23
0.0
 14
1.0
 24
1.0
 15
0.0
 25
0.0
 16
0.0
 26
0.0
 36
1.0
 17
0.0
 27
0.0
 37
0.0
 40
334.0763073870525
 41
1.385041551246537
 42
50.0
 43
0.0
 44
0.0
 50
0.0
 51
0.0
 71
     0
 72
   100
 73
     1
 74
     1
 75
     0
 76
     0
 77
     0
 78
     0
281
     0
 65
     1
110
0.0
120
0.0
130
0.0
111
1.0
121
0.0
131
0.0
112
0.0
122
1.0
132
0.0
 79
     0
146
0.0
  0
ENDTAB
  0
TABLE
  2
LTYPE
  5
4
330
0
100
AcDbSymbolTable
 70
     7
  0
LTYPE
  5
11
330
4
100
AcDbSymbolTableRecord
100
AcDbLinetypeTableRecord
  2
BYBLOCK
 70
     0
  3

 72
    65
 73
     0
 40
0.0
  0
LTYPE
  5
12
330
4
100
AcDbSymbolTableRecord
100
AcDbLinetypeTableRecord
  2
BYLAYER
 70
     0
  3

 72
    65
 73
     0
 40
0.0
  0
LTYPE
  5
13
330
4
100
AcDbSymbolTableRecord
100
AcDbLinetypeTableRecord
  2
CONTINUOUS
 70
     0
  3
Solid line
 72
    65
 73
     0
 40
0.0
  0
ENDTAB
  0
TABLE
  2
LAYER
  5
2
330
0
100
AcDbSymbolTable
 70
    26
  0
LAYER
  5
14
330
2
100
AcDbSymbolTableRecord
100
AcDbLayerTableRecord
  2
0
 70
     0
 62
     7
  6
CONTINUOUS
370
    -3
390
1D
  0
LAYER
  5
41
330
2
100
AcDbSymbolTableRecord
100
AcDbLayerTableRecord
  2
23
 70
     0
 62
     3
  6
CONTINUOUS
370
    -3
390
1D
  0
LAYER
  5
42
330
2
100
AcDbSymbolTableRecord
100
AcDbLayerTableRecord
  2
200
 70
     0
 62
     1
  6
CONTINUOUS
370
    -3
390
1D
  0
LAYER
  5
150
330
2
100
AcDbSymbolTableRecord
100
AcDbLayerTableRecord
  2
Defpoints
 70
     0
 62
     7
  6
CONTINUOUS
290
     0
370
    -3
390
1D
  0
ENDTAB
  0
TABLE
  2
STYLE
  5
3
330
0
100
AcDbSymbolTable
 70
     2
  0
STYLE
  5
17
330
3
100
AcDbSymbolTableRecord
100
AcDbTextStyleTableRecord
  2
STANDARD
 70
     0
 40
0.0
 41
1.0
 50
0.0
 71
     0
 42
0.0
  3
simplex.shx
  4
bigfont.shx
  0
ENDTAB
  0
TABLE
  2
VIEW
  5
5
330
0
100
AcDbSymbolTable
 70
     0
  0
ENDTAB
  0
TABLE
  2
UCS
  5
6
330
0
100
AcDbSymbolTable
 70
     0
  0
ENDTAB
  0
TABLE
  2
APPID
  5
8
330
0
100
AcDbSymbolTable
 70
     1
  0
APPID
  5
16
330
8
100
AcDbSymbolTableRecord
100
AcDbRegAppTableRecord
  2
ACAD
 70
     0
  0
ENDTAB
  0
TABLE
  2
DIMSTYLE
  5
9
330
0
100
AcDbSymbolTable
 70
     1
100
AcDbDimStyleTable
 71
     1
340
18
  0
DIMSTYLE
105
18
330
9
100
AcDbSymbolTableRecord
100
AcDbDimStyleTableRecord
  2
STANDARD
 70
     0
340
17
  0
ENDTAB
  0
TABLE
  2
BLOCK_RECORD
  5
1
330
0
100
AcDbSymbolTable
 70
     2
  0
BLOCK_RECORD
  5
A
102
{ACAD_XDICTIONARY
360
F6
102
}
330
1
100
AcDbSymbolTableRecord
100
AcDbBlockTableRecord
  2
*MODEL_SPACE
340
FE
  0
BLOCK_RECORD
  5
B
102
{ACAD_XDICTIONARY
360
F8
102
}
330
1
100
AcDbSymbolTableRecord
100
AcDbBlockTableRecord
  2
*PAPER_SPACE
340
FF
  0
BLOCK_RECORD
  5
43
330
1
100
AcDbSymbolTableRecord
100
AcDbBlockTableRecord
  2
*G00
340
0
102
{BLKREFS
331
46
102
}
  0
ENDTAB
  0
ENDSEC
  0
SECTION
  2
BLOCKS
  0
BLOCK
  5
D
330
A
100
AcDbEntity
  8
0
100
AcDbBlockBegin
  2
*MODEL_SPACE
 70
     0
 10
0.0
 20
0.0
 30
0.0
  3
*MODEL_SPACE
  1

  0
ENDBLK
  5
E
330
A
100
AcDbEntity
  8
0
100
AcDbBlockEnd
  0
BLOCK
  5
F
330
B
100
AcDbEntity
 67
     1
  8
0
100
AcDbBlockBegin
  2
*PAPER_SPACE
 70
     0
 10
0.0
 20
0.0
 30
0.0
  3
*PAPER_SPACE
  1

  0
ENDBLK
  5
10
330
B
100
AcDbEntity
 67
     1
  8
0
100
AcDbBlockEnd
  0
BLOCK
  5
44
330
43
100
AcDbEntity
  8
0
 62
     7
100
AcDbBlockBegin
  2
*G00
 70
     0
 10
0.0
 20
0.0
 30
0.0
  3
*G00
  1

  0
ENDBLK
  5
45
330
43
100
AcDbEntity
  8
0
100
AcDbBlockEnd
  0
ENDSEC
  0
SECTION
  2
ENTITIES
  0
INSERT
  5
46
330
A
100
AcDbEntity
  8
0
  6
Continuous
 62
     7
100
AcDbBlockReference
  2
*G00
 10
0.0
 20
0.0
 30
0.0
  0
TEXT
  5
47
330
A
100
AcDbEntity
  8
200
  6
Continuous
 62
     1
100
AcDbText
 10
110.7288139999999
 20
16.13026753333332
 30
0.0
 40
2.444193999999999
  1
secondary == 110,220,440V
 41
0.7
 11
110.7288139999999
 21
15.80437499999999
 31
0.0
100
AcDbText
 73
     1
  0
TEXT
  5
48
330
A
100
AcDbEntity
  8
200
  6
Continuous
 62
     1
100
AcDbText
 10
110.7288139999999
 20
19.98739653333333
 30
0.0
 40
2.444193999999999
  1
primary ==== 6.6kV
 41
0.7
 11
110.7288139999999
 21
19.661504
 31
0.0
100
AcDbText
 73
     1
  0
TEXT
  5
49
330
A
100
AcDbEntity
  8
200
  6
Continuous
 62
     1
100
AcDbText
 10
201.431407
 20
30.37177133333333
 30
0.0
 40
2.5
  1
3000
 50
89.99999999999991
 41
0.7
 72
     2
 11
200.181407
 21
36.538438
 31
0.0
100
AcDbText
 73
     2
  0
TEXT
  5
4A
330
A
100
AcDbEntity
  8
200
  6
Continuous
 62
     1
100
AcDbText
 10
193.7888079999999
 20
30.37177133333333
 30
0.0
 40
2.5
  1
2000
 50
89.99999999999991
 41
0.7
 72
     2
 11
192.5388079999999
 21
36.538438
 31
0.0
100
AcDbText
 73
     2
  0
TEXT
  5
4B
330
A
100
AcDbEntity
  8
200
  6
Continuous
 62
     1
100
AcDbText
 10
180.7243159999999
 20
30.70510466666666
 30
0.0
 40
2.5
  1
1000
 50
89.99999999999991
 41
0.7
 72
     2
 11
179.4743159999999
 21
36.538438
 31
0.0
100
AcDbText
 73
     2
  0
TEXT
  5
4C
330
A
100
AcDbEntity
  8
200
  6
Continuous
 62
     1
100
AcDbText
 10
176.5185439999999
 20
32.038438
 30
0.0
 40
2.5
  1
800
 50
89.99999999999991
 41
0.7
 72
     2
 11
175.268544
 21
36.538438
 31
0.0
100
AcDbText
 73
     2
  0
TEXT
  5
4D
330
A
100
AcDbEntity
  8
200
  6
Continuous
 62
     1
100
AcDbText
 10
167.659825
 20
32.038438
 30
0.0
 40
2.5
  1
500
 50
89.99999999999991
 41
0.7
 72
     2
 11
166.409825
 21
36.538438
 31
0.0
100
AcDbText
 73
     2
  0
TEXT
  5
4E
330
A
100
AcDbEntity
  8
200
  6
Continuous
 62
     1
100
AcDbText
 10
158.031472
 20
32.038438
 30
0.0
 40
2.5
  1
300
 50
89.99999999999991
 41
0.7
 72
     2
 11
156.781472
 21
36.538438
 31
0.0
100
AcDbText
 73
     2
  0
TEXT
  5
4F
330
A
100
AcDbEntity
  8
200
  6
Continuous
 62
     1
100
AcDbText
 10
150.3888729999999
 20
32.038438
 30
0.0
 40
2.5
  1
200
 50
89.99999999999991
 41
0.7
 72
     2
 11
149.1388729999999
 21
36.538438
 31
0.0
100
AcDbText
 73
     2
  0
TEXT
  5
50
330
A
100
AcDbEntity
  8
200
  6
Continuous
 62
     1
100
AcDbText
 10
137.324382
 20
32.37177133333333
 30
0.0
 40
2.5
  1
100
 50
89.99999999999991
 41
0.7
 72
     2
 11
136.074382
 21
36.538438
 31
0.0
100
AcDbText
 73
     2
  0
TEXT
  5
51
330
A
100
AcDbEntity
  8
200
  6
Continuous
 62
     1
100
AcDbText
 10
133.1186089999998
 20
33.70510466666666
 30
0.0
 40
2.5
  1
80
 50
89.99999999999991
 41
0.7
 72
     2
 11
131.8686089999999
 21
36.538438
 31
0.0
100
AcDbText
 73
     2
  0
TEXT
  5
52
330
A
100
AcDbEntity
  8
200
  6
Continuous
 62
     1
100
AcDbText
 10
124.259201
 20
33.70510466666666
 30
0.0
 40
2.5
  1
50
 50
89.99999999999991
 41
0.7
 72
     2
 11
123.009201
 21
36.538438
 31
0.0
100
AcDbText
 73
     2
  0
TEXT
  5
53
330
A
100
AcDbEntity
  8
200
  6
Continuous
 62
     1
100
AcDbText
 10
114.6315379999999
 20
33.70510466666666
 30
0.0
 40
2.5
  1
30
 50
89.99999999999991
 41
0.7
 72
     2
 11
113.3815379999999
 21
36.538438
 31
0.0
100
AcDbText
 73
     2
  0
TEXT
  5
54
330
A
100
AcDbEntity
  8
200
  6
Continuous
 62
     1
100
AcDbText
 10
106.9889379999999
 20
33.70510466666666
 30
0.0
 40
2.5
  1
20
 50
89.99999999999991
 41
0.7
 72
     2
 11
105.7389379999999
 21
36.538438
 31
0.0
100
AcDbText
 73
     2
  0
TEXT
  5
55
330
A
100
AcDbEntity
  8
200
  6
Continuous
 62
     1
100
AcDbText
 10
93.924274
 20
34.038438
 30
0.0
 40
2.5
  1
10
 50
89.99999999999991
 41
0.7
 72
     2
 11
92.674274
 21
36.538438
 31
0.0
100
AcDbText
 73
     2
  0
TEXT
  5
56
330
A
100
AcDbEntity
  8
200
  6
Continuous
 62
     1
100
AcDbText
 10
89.71815699999998
 20
35.37177133333333
 30
0.0
 40
2.5
  1
8
 50
89.99999999999991
 41
0.7
 72
     2
 11
88.46815699999998
 21
36.538438
 31
0.0
100
AcDbText
 73
     2
  0
TEXT
  5
57
330
A
100
AcDbEntity
  8
200
  6
Continuous
 62
     1
100
AcDbText
 10
80.85909399999998
 20
35.37177133333333
 30
0.0
 40
2.5
  1
5
 50
89.99999999999991
 41
0.7
 72
     2
 11
79.60909399999998
 21
36.538438
 31
0.0
100
AcDbText
 73
     2
  0
TEXT
  5
58
330
A
100
AcDbEntity
  8
200
  6
Continuous
 62
     1
100
AcDbText
 10
71.23108600000001
 20
35.37177133333333
 30
0.0
 40
2.5
  1
3
 50
89.99999999999991
 41
0.7
 72
     2
 11
69.98108600000001
 21
36.538438
 31
0.0
100
AcDbText
 73
     2
  0
TEXT
  5
59
330
A
100
AcDbEntity
  8
200
  6
Continuous
 62
     1
100
AcDbText
 10
63.58848599999999
 20
35.37177133333333
 30
0.0
 40
2.5
  1
2
 50
89.99999999999991
 41
0.7
 72
     2
 11
62.33848599999999
 21
36.538438
 31
0.0
100
AcDbText
 73
     2
  0
TEXT
  5
5A
330
A
100
AcDbEntity
  8
200
  6
Continuous
 62
     1
100
AcDbText
 10
50.52399499999999
 20
36.12177133333333
 30
0.0
 40
2.5
  1
1
 50
89.99999999999991
 41
0.7
 72
     2
 11
49.27399499999999
 21
36.538438
 31
0.0
100
AcDbText
 73
     2
  0
TEXT
  5
5B
330
A
100
AcDbEntity
  8
200
  6
Continuous
 62
     1
100
AcDbText
 10
46.317878
 20
32.87177133333333
 30
0.0
 40
2.5
  1
0.8
 50
89.99999999999991
 41
0.7
 72
     2
 11
45.067878
 21
36.538438
 31
0.0
100
AcDbText
 73
     2
  0
TEXT
  5
5C
330
A
100
AcDbEntity
  8
200
  6
Continuous
 62
     1
100
AcDbText
 10
37.45915899999999
 20
32.87177133333333
 30
0.0
 40
2.5
  1
0.5
 50
89.99999999999991
 41
0.7
 72
     2
 11
36.20915899999999
 21
36.538438
 31
0.0
100
AcDbText
 73
     2
  0
TEXT
  5
5D
330
A
100
AcDbEntity
  8
200
  6
Continuous
 62
     1
100
AcDbText
 10
27.83115099999999
 20
32.87177133333333
 30
0.0
 40
2.5
  1
0.3
 50
89.99999999999991
 41
0.7
 72
     2
 11
26.581151
 21
36.538438
 31
0.0
100
AcDbText
 73
     2
  0
TEXT
  5
5E
330
A
100
AcDbEntity
  8
200
  6
Continuous
 62
     1
100
AcDbText
 10
20.18855099999998
 20
32.87177133333333
 30
0.0
 40
2.5
  1
0.2
 50
89.99999999999991
 41
0.7
 72
     2
 11
18.93855099999998
 21
36.538438
 31
0.0
100
AcDbText
 73
     2
  0
TEXT
  5
5F
330
A
100
AcDbEntity
  8
200
  6
Continuous
 62
     1
100
AcDbText
 10
9.74898045809706
 20
39.28843799999998
 30
0.0
 40
2.5
  1
0.01
 41
0.6
 72
     2
 11
13.67755188666849
 21
40.53843799999998
 31
0.0
100
AcDbText
 73
     2
  0
TEXT
  5
60
330
A
100
AcDbEntity
  8
200
  6
Continuous
 62
     1
100
AcDbText
 10
9.107754678409824
 20
52.35361899999998
 30
0.0
 40
2.5
  1
0.02
 41
0.6
 72
     2
 11
13.67918324983839
 21
53.60361899999998
 31
0.0
100
AcDbText
 73
     2
  0
TEXT
  5
61
330
A
100
AcDbEntity
  8
200
  6
Continuous
 62
     1
100
AcDbText
 10
9.108708873420344
 20
59.99552900000001
 30
0.0
 40
2.5
  1
0.03
 41
0.6
 72
     2
 11
13.68013744484891
 21
61.24552900000001
 31
0.0
100
AcDbText
 73
     2
  0
TEXT
  5
62
330
A
100
AcDbEntity
  8
200
  6
Continuous
 62
     1
100
AcDbText
 10
9.037957383995399
 20
65.41811000000001
 30
0.0
 40
2.5
  1
0.04
 41
0.6
 72
     2
 11
13.68081452685254
 21
66.66811000000001
 31
0.0
100
AcDbText
 73
     2
  0
TEXT
  5
63
330
A
100
AcDbEntity
  8
200
  6
Continuous
 62
     1
100
AcDbText
 10
9.109911102495551
 20
69.62388199999998
 30
0.0
 40
2.5
  1
0.05
 41
0.6
 72
     2
 11
13.68133967392412
 21
70.87388199999998
 31
0.0
100
AcDbText
 73
     2
  0
TEXT
  5
64
330
A
100
AcDbEntity
  8
200
  6
Continuous
 62
     1
100
AcDbText
 10
11.18297103696916
 20
82.68906199999998
 30
0.0
 40
2.5
  1
0.1
 41
0.6
 72
     2
 11
13.68297103696916
 21
83.93906199999998
 31
0.0
100
AcDbText
 73
     2
  0
TEXT
  5
65
330
A
100
AcDbEntity
  8
200
  6
Continuous
 62
     1
100
AcDbText
 10
10.54174517125103
 20
95.75355400000001
 30
0.0
 40
2.5
  1
0.2
 41
0.6
 72
     2
 11
13.68460231410817
 21
97.00355400000001
 31
0.0
100
AcDbText
 73
     2
  0
TEXT
  5
66
330
A
100
AcDbEntity
  8
200
  6
Continuous
 62
     1
100
AcDbText
 10
10.54269936626155
 20
103.395464
 30
0.0
 40
2.5
  1
0.3
 41
0.6
 72
     2
 11
13.68555650911869
 21
104.645464
 31
0.0
100
AcDbText
 73
     2
  0
TEXT
  5
67
330
A
100
AcDbEntity
  8
200
  6
Continuous
 62
     1
100
AcDbText
 10
10.47194787683661
 20
108.8180449999999
 30
0.0
 40
2.5
  1
0.4
 41
0.6
 72
     2
 11
13.68623359112232
 21
110.0680449999999
 31
0.0
100
AcDbText
 73
     2
  0
TEXT
  5
68
330
A
100
AcDbEntity
  8
200
  6
Continuous
 62
     1
100
AcDbText
 10
10.54390159533676
 20
113.0238169999999
 30
0.0
 40
2.5
  1
0.5
 41
0.6
 72
     2
 11
13.6867587381939
 21
114.2738169999998
 31
0.0
100
AcDbText
 73
     2
  0
TEXT
  5
69
330
A
100
AcDbEntity
  8
200
  6
Continuous
 62
     1
100
AcDbText
 10
13.33124724409609
 20
126.0889969999998
 30
0.0
 40
2.5
  1
1
 41
0.6
 72
     2
 11
13.68839010123894
 21
127.3389969999998
 31
0.0
100
AcDbText
 73
     2
  0
TEXT
  5
6A
330
A
100
AcDbEntity
  8
200
  6
Continuous
 62
     1
100
AcDbText
 10
12.69002146428399
 20
139.154177
 30
0.0
 40
2.5
  1
2
 41
0.6
 72
     2
 11
13.69002146428399
 21
140.404177
 31
0.0
100
AcDbText
 73
     2
  0
TEXT
  5
6B
330
A
100
AcDbEntity
  8
200
  6
Continuous
 62
     1
100
AcDbText
 10
12.69097565941937
 20
146.7960879999999
 30
0.0
 40
2.5
  1
3
 41
0.6
 72
     2
 11
13.69097565941937
 21
148.046088
 31
0.0
100
AcDbText
 73
     2
  0
TEXT
  5
6C
330
A
100
AcDbEntity
  8
200
  6
Continuous
 62
     1
100
AcDbText
 10
12.62022416999443
 20
152.218669
 30
0.0
 40
2.5
  1
4
 41
0.6
 72
     2
 11
13.691652741423
 21
153.468669
 31
0.0
100
AcDbText
 73
     2
  0
TEXT
  5
6D
330
A
100
AcDbEntity
  8
200
  6
Continuous
 62
     1
100
AcDbText
 10
12.69217788849458
 20
156.424441
 30
0.0
 40
2.5
  1
5
 41
0.6
 72
     2
 11
13.69217788849458
 21
157.674441
 31
0.0
100
AcDbText
 73
     2
  0
TEXT
  5
6E
330
A
100
AcDbEntity
  8
200
  6
Continuous
 62
     1
100
AcDbText
 10
11.55095204412809
 20
169.4891039999999
 30
0.0
 40
2.5
  1
10
 41
0.6
 72
     2
 11
13.69380918698523
 21
170.739104
 31
0.0
100
AcDbText
 73
     2
  0
TEXT
  5
6F
330
A
100
AcDbEntity
  8
200
  6
Continuous
 62
     1
100
AcDbText
 10
11.26686907850583
 20
182.5539399999999
 30
0.0
 40
2.5
  1
20
 41
0.6
 72
     2
 11
13.69544050707726
 21
183.8039399999999
 31
0.0
100
AcDbText
 73
     2
  0
TEXT
  5
70
330
A
100
AcDbEntity
  8
200
  6
Continuous
 62
     1
100
AcDbText
 10
11.26782331659423
 20
190.196195
 30
0.0
 40
2.5
  1
30
 41
0.6
 72
     2
 11
13.69639474516566
 21
191.4461949999999
 31
0.0
100
AcDbText
 73
     2
  0
TEXT
  5
71
330
A
100
AcDbEntity
  8
200
  6
Continuous
 62
     1
100
AcDbText
 10
11.26850035551998
 20
195.618431
 30
0.0
 40
2.5
  1
40
 41
0.6
 72
     2
 11
13.69707178409141
 21
196.868431
 31
0.0
100
AcDbText
 73
     2
  0
TEXT
  5
72
330
A
100
AcDbEntity
  8
200
  6
Continuous
 62
     1
100
AcDbText
 10
11.26902554566944
 20
199.8245479999999
 30
0.0
 40
2.5
  1
50
 41
0.6
 72
     2
 11
13.69759697424087
 21
201.0745479999999
 31
0.0
100
AcDbText
 73
     2
  0
TEXT
  5
73
330
A
100
AcDbEntity
  8
200
  6
Continuous
 62
     1
100
AcDbText
 10
11.26945463668626
 20
203.2610309999999
 30
0.0
 40
2.5
  1
60
 41
0.6
 72
     2
 11
13.69802606525769
 21
204.511031
 31
0.0
100
AcDbText
 73
     2
  0
TEXT
  5
74
330
A
100
AcDbEntity
  8
200
  6
Continuous
 62
     1
100
AcDbText
 10
10.12779967982645
 20
212.889039
 30
0.0
 40
2.5
  1
100
 41
0.6
 72
     2
 11
13.69922825125502
 21
214.139039
 31
0.0
100
AcDbText
 73
     2
  0
TEXT
  5
75
330
A
100
AcDbEntity
  8
200
  6
Continuous
 62
     1
100
AcDbText
 10
9.843716714204191
 20
225.953875
 30
0.0
 40
2.5
  1
200
 41
0.6
 72
     2
 11
13.70085957134705
 21
227.203875
 31
0.0
100
AcDbText
 73
     2
  0
TEXT
  5
76
330
A
100
AcDbEntity
  8
200
  6
Continuous
 62
     1
100
AcDbText
 10
9.844670952292592
 20
233.59613
 30
0.0
 40
2.5
  1
300
 41
0.6
 72
     2
 11
13.70181380943544
 21
234.8461299999999
 31
0.0
100
AcDbText
 73
     2
  0
TEXT
  5
77
330
A
100
AcDbEntity
  8
200
  6
Continuous
 62
     1
100
AcDbText
 10
9.845348034296218
 20
239.0187109999999
 30
0.0
 40
2.5
  1
400
 41
0.6
 72
     2
 11
13.70249089143907
 21
240.268711
 31
0.0
100
AcDbText
 73
     2
  0
TEXT
  5
78
330
A
100
AcDbEntity
  8
200
  6
Continuous
 62
     1
100
AcDbText
 10
9.845873181367799
 20
243.224483
 30
0.0
 40
2.5
  1
500
 41
0.6
 72
     2
 11
13.70301603851065
 21
244.474483
 31
0.0
100
AcDbText
 73
     2
  0
TEXT
  5
79
330
A
100
AcDbEntity
  8
200
  6
Continuous
 62
     1
100
AcDbText
 10
8.704647358602683
 20
256.2893189999999
 30
0.0
 40
2.5
  1
1000
 41
0.6
 72
     2
 11
13.70464735860268
 21
257.5393189999999
 31
0.0
100
AcDbText
 73
     2
  0
TEXT
  5
7A
330
A
100
AcDbEntity
  8
200
  6
Continuous
 62
     1
100
AcDbText
 10
8.420564349902544
 20
269.35381
 30
0.0
 40
2.5
  1
2000
 41
0.6
 72
     2
 11
13.70627863561683
 21
270.60381
 31
0.0
100
AcDbText
 73
     2
  0
TEXT
  5
7B
330
A
100
AcDbEntity
  8
200
  6
Continuous
 62
     1
100
AcDbText
 10
8.421388162892338
 20
276.9890583743643
 30
0.0
 40
2.5
  1
3000
 41
0.6
 72
     2
 11
13.70710244860662
 21
278.2390583743644
 31
0.0
100
AcDbText
 73
     2
  0
TEXT
  5
7C
330
A
100
AcDbEntity
  8
200
  6
Continuous
 62
     1
100
AcDbText
 10
8.42206522328404
 20
282.4112933743644
 30
0.0
 40
2.5
  1
4000
 41
0.6
 72
     2
 11
13.70777950899832
 21
283.6612933743643
 31
0.0
100
AcDbText
 73
     2
  0
TEXT
  5
7D
330
A
100
AcDbEntity
  8
200
  6
Continuous
 62
     1
100
AcDbText
 10
8.422590391948801
 20
286.6170663743642
 30
0.0
 40
2.5
  1
5000
 41
0.6
 72
     2
 11
13.70830467766308
 21
287.8670663743642
 31
0.0
100
AcDbText
 73
     2
  0
TEXT
  5
7E
330
A
100
AcDbEntity
  8
200
  6
Continuous
 62
     1
100
AcDbText
 10
7.281475802771634
 20
299.5355538246217
 30
0.0
 40
2.5
  1
10000
 41
0.6
 72
     2
 11
13.71004723134306
 21
300.7855538246216
 31
0.0
100
AcDbText
 73
     2
  0
TEXT
  5
7F
330
A
100
AcDbEntity
  8
200
  6
Continuous
 62
     1
100
AcDbText
 10
6.076858199999994
 20
128.93132
 30
0.0
 40
3.421865999999993
  1
Operating time (sec)
 50
89.99999999999991
 41
0.7
 11
6.533106999999994
 21
128.93132
 31
0.0
100
AcDbText
 73
     1
  0
TEXT
  5
80
330
A
100
AcDbEntity
  8
200
  6
Continuous
 62
     1
100
AcDbText
 10
51.36379
 20
20.02576879999999
 30
0.0
 40
3.421865999999998
  1
Current (A)
 41
0.7
 11
51.36379
 21
19.56951999999998
 31
0.0
100
AcDbText
 73
     1
  0
LINE
  5
81
330
A
100
AcDbEntity
  8
200
  6
Continuous
 62
     1
100
AcDbLine
 10
192.5388079999999
 20
270.60381
 30
0.0
 11
192.5388079999999
 21
40.538438
 31
0.0
  0
LINE
  5
82
330
A
100
AcDbEntity
  8
200
  6
Continuous
 62
     1
100
AcDbLine
 10
179.4743159999999
 20
270.60381
 30
0.0
 11
179.4743159999999
 21
40.538438
 31
0.0
  0
LINE
  5
83
330
A
100
AcDbEntity
  8
200
  6
Continuous
 62
     1
100
AcDbLine
 10
175.268544
 20
270.60381
 30
0.0
 11
175.268544
 21
40.538438
 31
0.0
  0
LINE
  5
84
330
A
100
AcDbEntity
  8
200
  6
Continuous
 62
     1
100
AcDbLine
 10
166.409825
 20
270.60381
 30
0.0
 11
166.409825
 21
40.538438
 31
0.0
  0
LINE
  5
85
330
A
100
AcDbEntity
  8
200
  6
Continuous
 62
     1
100
AcDbLine
 10
156.781472
 20
270.60381
 30
0.0
 11
156.781472
 21
40.538438
 31
0.0
  0
LINE
  5
86
330
A
100
AcDbEntity
  8
200
  6
Continuous
 62
     1
100
AcDbLine
 10
149.1388729999999
 20
270.60381
 30
0.0
 11
149.1388729999999
 21
40.538438
 31
0.0
  0
LINE
  5
87
330
A
100
AcDbEntity
  8
200
  6
Continuous
 62
     1
100
AcDbLine
 10
136.074382
 20
278.24641
 30
0.0
 11
18.938551
 21
278.24641
 31
0.0
  0
LINE
  5
88
330
A
100
AcDbEntity
  8
200
  6
Continuous
 62
     1
100
AcDbLine
 10
136.074382
 20
283.668645
 30
0.0
 11
18.938551
 21
283.668645
 31
0.0
  0
LINE
  5
89
330
A
100
AcDbEntity
  8
200
  6
Continuous
 62
     1
100
AcDbLine
 10
136.074382
 20
287.8744179999998
 30
0.0
 11
18.938551
 21
287.8744179999998
 31
0.0
  0
LINE
  5
8A
330
A
100
AcDbEntity
  8
200
  6
Continuous
 62
     1
100
AcDbLine
 10
136.074382
 20
291.3109009999999
 30
0.0
 11
18.938551
 21
291.3109009999999
 31
0.0
  0
LINE
  5
8B
330
A
100
AcDbEntity
  8
200
  6
Continuous
 62
     1
100
AcDbLine
 10
200.181407
 20
300.939254
 30
0.0
 11
18.938551
 21
300.939254
 31
0.0
  0
LINE
  5
8C
330
A
100
AcDbEntity
  8
200
  6
Continuous
 62
     1
100
AcDbLine
 10
200.181407
 20
296.733137
 30
0.0
 11
18.938551
 21
296.733137
 31
0.0
  0
LINE
  5
8D
330
A
100
AcDbEntity
  8
200
  6
Continuous
 62
     1
100
AcDbLine
 10
200.181407
 20
270.60381
 30
0.0
 11
18.938551
 21
270.60381
 31
0.0
  0
LINE
  5
8E
330
A
100
AcDbEntity
  8
200
  6
Continuous
 62
     1
100
AcDbLine
 10
200.181407
 20
257.5393189999999
 30
0.0
 11
18.938551
 21
257.5393189999999
 31
0.0
  0
LINE
  5
8F
330
A
100
AcDbEntity
  8
200
  6
Continuous
 62
     1
100
AcDbLine
 10
200.181407
 20
253.333202
 30
0.0
 11
18.938551
 21
253.333202
 31
0.0
  0
LINE
  5
90
330
A
100
AcDbEntity
  8
200
  6
Continuous
 62
     1
100
AcDbLine
 10
200.181407
 20
247.910966
 30
0.0
 11
18.938551
 21
247.910966
 31
0.0
  0
LINE
  5
91
330
A
100
AcDbEntity
  8
200
  6
Continuous
 62
     1
100
AcDbLine
 10
200.181407
 20
244.474483
 30
0.0
 11
18.938551
 21
244.474483
 31
0.0
  0
LINE
  5
92
330
A
100
AcDbEntity
  8
200
  6
Continuous
 62
     1
100
AcDbLine
 10
200.181407
 20
240.268711
 30
0.0
 11
18.938551
 21
240.268711
 31
0.0
  0
LINE
  5
93
330
A
100
AcDbEntity
  8
200
  6
Continuous
 62
     1
100
AcDbLine
 10
200.181407
 20
234.8461299999999
 30
0.0
 11
18.938551
 21
234.8461299999999
 31
0.0
  0
LINE
  5
94
330
A
100
AcDbEntity
  8
200
  6
Continuous
 62
     1
100
AcDbLine
 10
200.181407
 20
227.203875
 30
0.0
 11
18.938551
 21
227.203875
 31
0.0
  0
LINE
  5
95
330
A
100
AcDbEntity
  8
200
  6
Continuous
 62
     1
100
AcDbLine
 10
200.181407
 20
214.139039
 30
0.0
 11
18.938551
 21
214.139039
 31
0.0
  0
LINE
  5
96
330
A
100
AcDbEntity
  8
200
  6
Continuous
 62
     1
100
AcDbLine
 10
200.181407
 20
209.9332669999999
 30
0.0
 11
18.938551
 21
209.9332669999999
 31
0.0
  0
LINE
  5
97
330
A
100
AcDbEntity
  8
200
  6
Continuous
 62
     1
100
AcDbLine
 10
200.181407
 20
204.511031
 30
0.0
 11
18.938551
 21
204.511031
 31
0.0
  0
LINE
  5
98
330
A
100
AcDbEntity
  8
200
  6
Continuous
 62
     1
100
AcDbLine
 10
200.181407
 20
201.0745479999999
 30
0.0
 11
18.938551
 21
201.0745479999999
 31
0.0
  0
LINE
  5
99
330
A
100
AcDbEntity
  8
200
  6
Continuous
 62
     1
100
AcDbLine
 10
200.181407
 20
196.868431
 30
0.0
 11
18.938551
 21
196.868431
 31
0.0
  0
LINE
  5
9A
330
A
100
AcDbEntity
  8
200
  6
Continuous
 62
     1
100
AcDbLine
 10
200.181407
 20
191.4461949999999
 30
0.0
 11
18.938551
 21
191.4461949999999
 31
0.0
  0
LINE
  5
9B
330
A
100
AcDbEntity
  8
200
  6
Continuous
 62
     1
100
AcDbLine
 10
200.181407
 20
183.8039399999999
 30
0.0
 11
18.938551
 21
183.8039399999999
 31
0.0
  0
LINE
  5
9C
330
A
100
AcDbEntity
  8
200
  6
Continuous
 62
     1
100
AcDbLine
 10
200.181407
 20
170.739104
 30
0.0
 11
18.938551
 21
170.739104
 31
0.0
  0
LINE
  5
9D
330
A
100
AcDbEntity
  8
200
  6
Continuous
 62
     1
100
AcDbLine
 10
200.181407
 20
166.533332
 30
0.0
 11
18.938551
 21
166.533332
 31
0.0
  0
LINE
  5
9E
330
A
100
AcDbEntity
  8
200
  6
Continuous
 62
     1
100
AcDbLine
 10
200.181407
 20
161.1112679999999
 30
0.0
 11
18.938551
 21
161.1112679999999
 31
0.0
  0
LINE
  5
9F
330
A
100
AcDbEntity
  8
200
  6
Continuous
 62
     1
100
AcDbLine
 10
200.181407
 20
157.674441
 30
0.0
 11
18.938551
 21
157.674441
 31
0.0
  0
LINE
  5
A0
330
A
100
AcDbEntity
  8
200
  6
Continuous
 62
     1
100
AcDbLine
 10
200.181407
 20
153.468669
 30
0.0
 11
18.938551
 21
153.468669
 31
0.0
  0
LINE
  5
A1
330
A
100
AcDbEntity
  8
200
  6
Continuous
 62
     1
100
AcDbLine
 10
200.181407
 20
148.046088
 30
0.0
 11
18.938551
 21
148.046088
 31
0.0
  0
LINE
  5
A2
330
A
100
AcDbEntity
  8
200
  6
Continuous
 62
     1
100
AcDbLine
 10
200.181407
 20
140.404177
 30
0.0
 11
18.938551
 21
140.404177
 31
0.0
  0
LINE
  5
A3
330
A
100
AcDbEntity
  8
200
  6
Continuous
 62
     1
100
AcDbLine
 10
200.181407
 20
127.3389969999999
 30
0.0
 11
18.938551
 21
127.3389969999999
 31
0.0
  0
LINE
  5
A4
330
A
100
AcDbEntity
  8
200
  6
Continuous
 62
     1
100
AcDbLine
 10
200.181407
 20
123.132536
 30
0.0
 11
18.938551
 21
123.132536
 31
0.0
  0
LINE
  5
A5
330
A
100
AcDbEntity
  8
200
  6
Continuous
 62
     1
100
AcDbLine
 10
200.181407
 20
117.7106439999999
 30
0.0
 11
18.938551
 21
117.7106439999999
 31
0.0
  0
LINE
  5
A6
330
A
100
AcDbEntity
  8
200
  6
Continuous
 62
     1
100
AcDbLine
 10
200.181407
 20
114.2738169999999
 30
0.0
 11
18.938551
 21
114.2738169999999
 31
0.0
  0
LINE
  5
A7
330
A
100
AcDbEntity
  8
200
  6
Continuous
 62
     1
100
AcDbLine
 10
200.181407
 20
110.068045
 30
0.0
 11
18.938551
 21
110.068045
 31
0.0
  0
LINE
  5
A8
330
A
100
AcDbEntity
  8
200
  6
Continuous
 62
     1
100
AcDbLine
 10
200.181407
 20
104.645464
 30
0.0
 11
18.938551
 21
104.645464
 31
0.0
  0
LINE
  5
A9
330
A
100
AcDbEntity
  8
200
  6
Continuous
 62
     1
100
AcDbLine
 10
200.181407
 20
97.00355399999999
 30
0.0
 11
18.938551
 21
97.00355399999999
 31
0.0
  0
LINE
  5
AA
330
A
100
AcDbEntity
  8
200
  6
Continuous
 62
     1
100
AcDbLine
 10
200.181407
 20
83.93906199999998
 30
0.0
 11
18.938551
 21
83.93906199999998
 31
0.0
  0
LINE
  5
AB
330
A
100
AcDbEntity
  8
200
  6
Continuous
 62
     1
100
AcDbLine
 10
200.181407
 20
79.732601
 30
0.0
 11
18.938551
 21
79.732601
 31
0.0
  0
LINE
  5
AC
330
A
100
AcDbEntity
  8
200
  6
Continuous
 62
     1
100
AcDbLine
 10
200.181407
 20
74.31071
 30
0.0
 11
18.938551
 21
74.31071
 31
0.0
  0
LINE
  5
AD
330
A
100
AcDbEntity
  8
200
  6
Continuous
 62
     1
100
AcDbLine
 10
200.181407
 20
70.87388199999998
 30
0.0
 11
18.938551
 21
70.87388199999998
 31
0.0
  0
LINE
  5
AE
330
A
100
AcDbEntity
  8
200
  6
Continuous
 62
     1
100
AcDbLine
 10
200.181407
 20
66.66811
 30
0.0
 11
18.938551
 21
66.66811
 31
0.0
  0
LINE
  5
AF
330
A
100
AcDbEntity
  8
200
  6
Continuous
 62
     1
100
AcDbLine
 10
200.181407
 20
61.24552900000001
 30
0.0
 11
18.938551
 21
61.24552900000001
 31
0.0
  0
LINE
  5
B0
330
A
100
AcDbEntity
  8
200
  6
Continuous
 62
     1
100
AcDbLine
 10
200.181407
 20
53.603619
 30
0.0
 11
18.938551
 21
53.603619
 31
0.0
  0
LINE
  5
B1
330
A
100
AcDbEntity
  8
200
  6
Continuous
 62
     1
100
AcDbLine
 10
200.181407
 20
40.538438
 30
0.0
 11
18.938551
 21
40.538438
 31
0.0
  0
LINE
  5
B2
330
A
100
AcDbEntity
  8
200
  6
Continuous
 62
     1
100
AcDbLine
 10
200.181407
 20
300.939254
 30
0.0
 11
200.181407
 21
40.538438
 31
0.0
  0
LINE
  5
B3
330
A
100
AcDbEntity
  8
200
  6
Continuous
 62
     1
100
AcDbLine
 10
192.5388079999999
 20
300.939254
 30
0.0
 11
192.5388079999999
 21
296.733137
 31
0.0
  0
LINE
  5
B4
330
A
100
AcDbEntity
  8
200
  6
Continuous
 62
     1
100
AcDbLine
 10
179.4743159999999
 20
300.939254
 30
0.0
 11
179.4743159999999
 21
296.733137
 31
0.0
  0
LINE
  5
B5
330
A
100
AcDbEntity
  8
200
  6
Continuous
 62
     1
100
AcDbLine
 10
175.268544
 20
300.939254
 30
0.0
 11
175.268544
 21
296.733137
 31
0.0
  0
LINE
  5
B6
330
A
100
AcDbEntity
  8
200
  6
Continuous
 62
     1
100
AcDbLine
 10
166.409825
 20
300.939254
 30
0.0
 11
166.409825
 21
296.733137
 31
0.0
  0
LINE
  5
B7
330
A
100
AcDbEntity
  8
200
  6
Continuous
 62
     1
100
AcDbLine
 10
156.781472
 20
300.939254
 30
0.0
 11
156.781472
 21
296.733137
 31
0.0
  0
LINE
  5
B8
330
A
100
AcDbEntity
  8
200
  6
Continuous
 62
     1
100
AcDbLine
 10
149.1388729999999
 20
300.939254
 30
0.0
 11
149.1388729999999
 21
296.733137
 31
0.0
  0
LINE
  5
B9
330
A
100
AcDbEntity
  8
200
  6
Continuous
 62
     1
100
AcDbLine
 10
136.074382
 20
300.939254
 30
0.0
 11
136.074382
 21
40.538438
 31
0.0
  0
LINE
  5
BA
330
A
100
AcDbEntity
  8
200
  6
Continuous
 62
     1
100
AcDbLine
 10
131.8686089999999
 20
300.939254
 30
0.0
 11
131.8686089999999
 21
40.538438
 31
0.0
  0
LINE
  5
BB
330
A
100
AcDbEntity
  8
200
  6
Continuous
 62
     1
100
AcDbLine
 10
123.009201
 20
300.939254
 30
0.0
 11
123.009201
 21
40.538438
 31
0.0
  0
LINE
  5
BC
330
A
100
AcDbEntity
  8
200
  6
Continuous
 62
     1
100
AcDbLine
 10
113.3815379999999
 20
300.939254
 30
0.0
 11
113.3815379999999
 21
40.538438
 31
0.0
  0
LINE
  5
BD
330
A
100
AcDbEntity
  8
200
  6
Continuous
 62
     1
100
AcDbLine
 10
105.7389379999999
 20
300.939254
 30
0.0
 11
105.7389379999999
 21
40.538438
 31
0.0
  0
LINE
  5
BE
330
A
100
AcDbEntity
  8
200
  6
Continuous
 62
     1
100
AcDbLine
 10
92.674274
 20
300.939254
 30
0.0
 11
92.674274
 21
40.538438
 31
0.0
  0
LINE
  5
BF
330
A
100
AcDbEntity
  8
200
  6
Continuous
 62
     1
100
AcDbLine
 10
88.46815699999998
 20
300.939254
 30
0.0
 11
88.46815699999998
 21
40.538438
 31
0.0
  0
LINE
  5
C0
330
A
100
AcDbEntity
  8
200
  6
Continuous
 62
     1
100
AcDbLine
 10
79.609094
 20
300.939254
 30
0.0
 11
79.609094
 21
40.538438
 31
0.0
  0
LINE
  5
C1
330
A
100
AcDbEntity
  8
200
  6
Continuous
 62
     1
100
AcDbLine
 10
69.98108600000001
 20
300.939254
 30
0.0
 11
69.98108600000001
 21
40.538438
 31
0.0
  0
LINE
  5
C2
330
A
100
AcDbEntity
  8
200
  6
Continuous
 62
     1
100
AcDbLine
 10
62.33848599999999
 20
300.939254
 30
0.0
 11
62.33848599999999
 21
40.538438
 31
0.0
  0
LINE
  5
C3
330
A
100
AcDbEntity
  8
200
  6
Continuous
 62
     1
100
AcDbLine
 10
49.27399499999999
 20
300.939254
 30
0.0
 11
49.27399499999999
 21
40.538438
 31
0.0
  0
LINE
  5
C4
330
A
100
AcDbEntity
  8
200
  6
Continuous
 62
     1
100
AcDbLine
 10
45.067878
 20
300.939254
 30
0.0
 11
45.067878
 21
40.538438
 31
0.0
  0
LINE
  5
C5
330
A
100
AcDbEntity
  8
200
  6
Continuous
 62
     1
100
AcDbLine
 10
36.20915899999999
 20
300.939254
 30
0.0
 11
36.20915899999999
 21
40.538438
 31
0.0
  0
LINE
  5
C6
330
A
100
AcDbEntity
  8
200
  6
Continuous
 62
     1
100
AcDbLine
 10
26.58115099999999
 20
300.939254
 30
0.0
 11
26.58115099999999
 21
40.538438
 31
0.0
  0
LINE
  5
C7
330
A
100
AcDbEntity
  8
200
  6
Continuous
 62
     1
100
AcDbLine
 10
18.938551
 20
300.939254
 30
0.0
 11
18.938551
 21
40.538438
 31
0.0
  0
TEXT
  5
C8
330
A
100
AcDbEntity
  8
23
  6
Continuous
 62
     3
100
AcDbText
 10
97.36718299999999
 20
1.539798666666665
 30
0.0
 40
3.910714999999998
  1
TERASAKI ELECTRIC CO.,LTD.
 41
0.7
 11
97.36718299999999
 21
1.018369999999998
 31
0.0
100
AcDbText
 73
     1
  0
TEXT
  5
C9
330
A
100
AcDbEntity
  8
23
  6
Continuous
 62
     3
100
AcDbText
 10
62.33848599999999
 20
316.3903476666666
 30
0.0
 40
3.910714999999981
  1
Time/Current characteristic curves
 41
0.7
 11
62.33848599999999
 21
315.868919
 31
0.0
100
AcDbText
 73
     1
  0
TEXT
  5
CA
330
A
100
AcDbEntity
  8
23
  6
Continuous
 62
     3
100
AcDbText
 10
18.938551
 20
316.3903476666666
 30
0.0
 40
3.910714999999981
  1
TemBreak2
 41
0.7
 11
18.938551
 21
315.868919
 31
0.0
100
AcDbText
 73
     1
  0
ENDSEC
  0
SECTION
  2
OBJECTS
  0
DICTIONARY
  5
19
330
0
100
AcDbDictionary
281
     1
  3
ACAD_GROUP
350
1A
  3
ACAD_LAYOUT
350
1E
  3
ACAD_MLINESTYLE
350
1B
  3
ACAD_PLOTSETTINGS
350
22
  3
ACAD_PLOTSTYLENAME
350
1F
  3
ACAD_WIPEOUT_VARS
350
23
  3
ACDBHEADERROUNDTRIPXREC
350
162
  3
AcDbVariableDictionary
350
12E
  0
DICTIONARY
  5
F6
330
A
100
AcDbDictionary
280
     1
281
     1
  3
ACAD_LAYOUTSELFREF
360
F7
  0
DICTIONARY
  5
F8
330
B
100
AcDbDictionary
280
     1
281
     1
  3
ACAD_LAYOUTSELFREF
360
F9
  0
DICTIONARY
  5
1A
102
{ACAD_REACTORS
330
19
102
}
330
19
100
AcDbDictionary
281
     1
  0
DICTIONARY
  5
1E
102
{ACAD_REACTORS
330
19
102
}
330
19
100
AcDbDictionary
281
     1
  3
Model
350
FE
  3
ﾚｲｱｳﾄ1
350
FF
  0
DICTIONARY
  5
1B
102
{ACAD_REACTORS
330
19
102
}
330
19
100
AcDbDictionary
281
     1
  3
STANDARD
350
1C
  0
DICTIONARY
  5
22
102
{ACAD_REACTORS
330
19
102
}
330
19
100
AcDbDictionary
281
     1
  0
ACDBDICTIONARYWDFLT
  5
1F
102
{ACAD_REACTORS
330
19
102
}
330
19
100
AcDbDictionary
281
     1
  3
Normal
350
1D
100
AcDbDictionaryWithDefault
340
1D
  0
ACAD_PROXY_OBJECT
  5
23
330
19
100
AcDbProxyObject
 90
      499
 91
      521
 95
   851991
 70
     0
 93
       10
310
4040
 94
        0
  0
DICTIONARY
  5
162
102
{ACAD_REACTORS
330
19
102
}
330
19
100
AcDbDictionary
281
     1
  3
CEPSNTYPE
350
16C
  3
DIMSTYLEDATA
350
170
  3
FINGERPRINTGUID
350
16D
  3
HYPERLINKBASE
350
165
  3
INSUNITS
350
16B
  3
LAYOUTDICT
350
167
  3
LWETCUNION
350
16A
  3
PLOTSETDICT
350
168
  3
PLOTSTYLNAMDICT
350
169
  3
PSVPSCALE
350
16F
  3
PUCSBASE
350
173
  3
PUCSORGBACK
350
179
  3
PUCSORGBOTTOM
350
175
  3
PUCSORGFRONT
350
178
  3
PUCSORGLEFT
350
176
  3
PUCSORGRIGHT
350
177
  3
PUCSORGTOP
350
174
  3
PUCSORTHOREF
350
171
  3
PUCSORTHOVIEW
350
172
  3
STYLESHEET
350
166
  3
TSTACKALIGN
350
163
  3
TSTACKSIZE
350
164
  3
UCSBASE
350
17C
  3
UCSORGBACK
350
182
  3
UCSORGBOTTOM
350
17E
  3
UCSORGFRONT
350
181
  3
UCSORGLEFT
350
17F
  3
UCSORGRIGHT
350
180
  3
UCSORGTOP
350
17D
  3
UCSORTHOREF
350
17A
  3
UCSORTHOVIEW
350
17B
  3
VERSIONGUID
350
16E
  0
DICTIONARY
  5
12E
102
{ACAD_REACTORS
330
19
102
}
330
19
100
AcDbDictionary
281
     1
  3
DIMASSOC
350
12F
  0
XRECORD
  5
F7
102
{ACAD_REACTORS
330
F6
102
}
330
F6
100
AcDbXrecord
280
     1
340
A
  0
XRECORD
  5
F9
102
{ACAD_REACTORS
330
F8
102
}
330
F8
100
AcDbXrecord
280
     1
340
B
  0
LAYOUT
  5
FE
102
{ACAD_REACTORS
330
1E
102
}
330
1E
100
AcDbPlotSettings
  1

  2
\\ENDEAVOR\Brother MFC4800J
  4
A4
  6

 40
7.143749713897705
 41
7.186084270477294
 42
7.14373779296875
 43
7.14373779296875
 44
209.9733276367187
 45
296.9683227539062
 46
0.0
 47
0.0
 48
0.0
 49
0.0
140
0.0
141
0.0
142
1.0
143
1.0
 70
 11952
 72
     0
 73
     1
 74
     0
  7

 75
     0
147
1.0
148
1554.096934786609
149
123.8514487711426
100
AcDbLayout
  1
Model
 70
     1
 71
     0
 10
0.0
 20
0.0
 11
12.0
 21
9.0
 12
0.0
 22
0.0
 32
0.0
 14
0.0
 24
0.0
 34
0.0
 15
0.0
 25
0.0
 35
0.0
146
0.0
 13
0.0
 23
0.0
 33
0.0
 16
1.0
 26
0.0
 36
0.0
 17
0.0
 27
1.0
 37
0.0
 76
     0
330
A
  0
LAYOUT
  5
FF
102
{ACAD_REACTORS
330
1E
102
}
330
1E
100
AcDbPlotSettings
  1

  2
\\ENDEAVOR\Brother MFC4800J
  4

  6

 40
0.0
 41
0.0
 42
0.0
 43
0.0
 44
0.0
 45
0.0
 46
0.0
 47
0.0
 48
0.0
 49
0.0
140
0.0
141
0.0
142
1.0
143
1.0
 70
   688
 72
     0
 73
     0
 74
     5
  7
monochrome.ctb
 75
    16
147
1.0
148
0.0
149
0.0
100
AcDbLayout
  1
ﾚｲｱｳﾄ1
 70
     0
 71
     1
 10
0.0
 20
0.0
 11
210.0
 21
297.0
 12
0.0
 22
0.0
 32
0.0
 14
0.0
 24
0.0
 34
0.0
 15
210.0
 25
297.0
 35
0.0
146
0.0
 13
0.0
 23
0.0
 33
0.0
 16
1.0
 26
0.0
 36
0.0
 17
0.0
 27
1.0
 37
0.0
 76
     0
330
B
  0
MLINESTYLE
  5
1C
102
{ACAD_REACTORS
330
1B
102
}
330
1B
100
AcDbMlineStyle
  2
STANDARD
 70
     0
  3

 62
     0
 51
90.0
 52
90.0
 71
     2
 49
0.5
 62
   256
  6
BYLAYER
 49
-0.5
 62
   256
  6
BYLAYER
  0
ACDBPLACEHOLDER
  5
1D
102
{ACAD_REACTORS
330
1F
102
}
330
1F
  0
XRECORD
  5
16C
102
{ACAD_REACTORS
330
162
102
}
330
162
100
AcDbXrecord
280
     1
 90
        0
  0
XRECORD
  5
170
102
{ACAD_REACTORS
330
162
102
}
330
162
100
AcDbXrecord
280
     1
1000
DSTYLE
1002
{
1070
   278
 70
     0
1070
   371
 70
     0
1070
   372
 70
     0
1002
}
  0
XRECORD
  5
16D
102
{ACAD_REACTORS
330
162
102
}
330
162
100
AcDbXrecord
280
     1
  1

  0
XRECORD
  5
165
102
{ACAD_REACTORS
330
162
102
}
330
162
100
AcDbXrecord
280
     1
  1

  0
XRECORD
  5
16B
102
{ACAD_REACTORS
330
162
102
}
330
162
100
AcDbXrecord
280
     1
 90
        0
  0
XRECORD
  5
167
102
{ACAD_REACTORS
330
162
102
}
330
162
100
AcDbXrecord
280
     1
340
1E
  0
XRECORD
  5
16A
102
{ACAD_REACTORS
330
162
102
}
330
162
100
AcDbXrecord
280
     1
 90
    10752
  0
XRECORD
  5
168
102
{ACAD_REACTORS
330
162
102
}
330
162
100
AcDbXrecord
280
     1
340
22
  0
XRECORD
  5
169
102
{ACAD_REACTORS
330
162
102
}
330
162
100
AcDbXrecord
280
     1
340
1F
  0
XRECORD
  5
16F
102
{ACAD_REACTORS
330
162
102
}
330
162
100
AcDbXrecord
280
     1
 40
0.0
  0
XRECORD
  5
173
102
{ACAD_REACTORS
330
162
102
}
330
162
100
AcDbXrecord
280
     1
340
0
  0
XRECORD
  5
179
102
{ACAD_REACTORS
330
162
102
}
330
162
100
AcDbXrecord
280
     1
 10
0.0
 20
0.0
 30
0.0
  0
XRECORD
  5
175
102
{ACAD_REACTORS
330
162
102
}
330
162
100
AcDbXrecord
280
     1
 10
0.0
 20
0.0
 30
0.0
  0
XRECORD
  5
178
102
{ACAD_REACTORS
330
162
102
}
330
162
100
AcDbXrecord
280
     1
 10
0.0
 20
0.0
 30
0.0
  0
XRECORD
  5
176
102
{ACAD_REACTORS
330
162
102
}
330
162
100
AcDbXrecord
280
     1
 10
0.0
 20
0.0
 30
0.0
  0
XRECORD
  5
177
102
{ACAD_REACTORS
330
162
102
}
330
162
100
AcDbXrecord
280
     1
 10
0.0
 20
0.0
 30
0.0
  0
XRECORD
  5
174
102
{ACAD_REACTORS
330
162
102
}
330
162
100
AcDbXrecord
280
     1
 10
0.0
 20
0.0
 30
0.0
  0
XRECORD
  5
171
102
{ACAD_REACTORS
330
162
102
}
330
162
100
AcDbXrecord
280
     1
340
0
  0
XRECORD
  5
172
102
{ACAD_REACTORS
330
162
102
}
330
162
100
AcDbXrecord
280
     1
 70
     0
  0
XRECORD
  5
166
102
{ACAD_REACTORS
330
162
102
}
330
162
100
AcDbXrecord
280
     1
  1
monochrome.ctb
  0
XRECORD
  5
163
102
{ACAD_REACTORS
330
162
102
}
330
162
100
AcDbXrecord
280
     1
 90
        1
  0
XRECORD
  5
164
102
{ACAD_REACTORS
330
162
102
}
330
162
100
AcDbXrecord
280
     1
 90
       70
  0
XRECORD
  5
17C
102
{ACAD_REACTORS
330
162
102
}
330
162
100
AcDbXrecord
280
     1
340
0
  0
XRECORD
  5
182
102
{ACAD_REACTORS
330
162
102
}
330
162
100
AcDbXrecord
280
     1
 10
0.0
 20
0.0
 30
0.0
  0
XRECORD
  5
17E
102
{ACAD_REACTORS
330
162
102
}
330
162
100
AcDbXrecord
280
     1
 10
0.0
 20
0.0
 30
0.0
  0
XRECORD
  5
181
102
{ACAD_REACTORS
330
162
102
}
330
162
100
AcDbXrecord
280
     1
 10
0.0
 20
0.0
 30
0.0
  0
XRECORD
  5
17F
102
{ACAD_REACTORS
330
162
102
}
330
162
100
AcDbXrecord
280
     1
 10
0.0
 20
0.0
 30
0.0
  0
XRECORD
  5
180
102
{ACAD_REACTORS
330
162
102
}
330
162
100
AcDbXrecord
280
     1
 10
0.0
 20
0.0
 30
0.0
  0
XRECORD
  5
17D
102
{ACAD_REACTORS
330
162
102
}
330
162
100
AcDbXrecord
280
     1
 10
0.0
 20
0.0
 30
0.0
  0
XRECORD
  5
17A
102
{ACAD_REACTORS
330
162
102
}
330
162
100
AcDbXrecord
280
     1
340
0
  0
XRECORD
  5
17B
102
{ACAD_REACTORS
330
162
102
}
330
162
100
AcDbXrecord
280
     1
 70
     0
  0
XRECORD
  5
16E
102
{ACAD_REACTORS
330
162
102
}
330
162
100
AcDbXrecord
280
     1
  1
{5640FA61-25E7-4965-85FD-746372F2FC27}
  0
DICTIONARYVAR
  5
12F
102
{ACAD_REACTORS
330
12E
102
}
330
12E
100
DictionaryVariables
280
     0
  1
1
  0
ENDSEC
  0
EOF
