  0
SECTION
  2
HEADER
  9
$ACADVER
  1
AC1015
  9
$ACADMAINTVER
 70
    10
  9
$DWGCODEPAGE
  3
ANSI_932
  9
$INSBASE
 10
129.2739949999999
 20
37.005414
 30
0.0
  9
$EXTMIN
 10
81.99495012778198
 20
-2.752235262826843
 30
-0.0015258207003583
  9
$EXTMAX
 10
281.5327612936179
 20
317.53323485839
 30
0.0000000349246037
  9
$LIMMIN
 10
0.0
 20
0.0
  9
$LIMMAX
 10
297.0
 20
210.0
  9
$ORTHOMODE
 70
     0
  9
$REGENMODE
 70
     1
  9
$FILLMODE
 70
     1
  9
$QTEXTMODE
 70
     0
  9
$MIRRTEXT
 70
     1
  9
$LTSCALE
 40
0.25
  9
$ATTMODE
 70
     1
  9
$TEXTSIZE
 40
0.0
  9
$TRACEWID
 40
0.05
  9
$TEXTSTYLE
  7
STANDARD
  9
$CLAYER
  8
0
  9
$CELTYPE
  6
CONTINUOUS
  9
$CECOLOR
 62
   256
  9
$CELTSCALE
 40
1.0
  9
$DISPSILH
 70
     0
  9
$DIMSCALE
 40
1.0
  9
$DIMASZ
 40
4.0
  9
$DIMEXO
 40
2.0
  9
$DIMDLI
 40
10.0
  9
$DIMRND
 40
0.0
  9
$DIMDLE
 40
0.0
  9
$DIMEXE
 40
2.0
  9
$DIMTP
 40
0.0
  9
$DIMTM
 40
0.0
  9
$DIMTXT
 40
4.0
  9
$DIMCEN
 40
0.09
  9
$DIMTSZ
 40
0.0
  9
$DIMTOL
 70
     0
  9
$DIMLIM
 70
     0
  9
$DIMTIH
 70
     0
  9
$DIMTOH
 70
     0
  9
$DIMSE1
 70
     0
  9
$DIMSE2
 70
     0
  9
$DIMTAD
 70
     3
  9
$DIMZIN
 70
     0
  9
$DIMBLK
  1

  9
$DIMASO
 70
     1
  9
$DIMSHO
 70
     1
  9
$DIMPOST
  1

  9
$DIMAPOST
  1

  9
$DIMALT
 70
     0
  9
$DIMALTD
 70
     2
  9
$DIMALTF
 40
25.4
  9
$DIMLFAC
 40
1.0
  9
$DIMTOFL
 70
     1
  9
$DIMTVP
 40
0.7
  9
$DIMTIX
 70
     0
  9
$DIMSOXD
 70
     0
  9
$DIMSAH
 70
     0
  9
$DIMBLK1
  1

  9
$DIMBLK2
  1

  9
$DIMSTYLE
  2
STANDARD
  9
$DIMCLRD
 70
     0
  9
$DIMCLRE
 70
     0
  9
$DIMCLRT
 70
     0
  9
$DIMTFAC
 40
0.5
  9
$DIMGAP
 40
0.0
  9
$DIMJUST
 70
     0
  9
$DIMSD1
 70
     0
  9
$DIMSD2
 70
     0
  9
$DIMTOLJ
 70
     1
  9
$DIMTZIN
 70
     0
  9
$DIMALTZ
 70
     0
  9
$DIMALTTZ
 70
     0
  9
$DIMUPT
 70
     0
  9
$DIMDEC
 70
     2
  9
$DIMTDEC
 70
     4
  9
$DIMALTU
 70
     2
  9
$DIMALTTD
 70
     2
  9
$DIMTXSTY
  7
STANDARD
  9
$DIMAUNIT
 70
     0
  9
$DIMADEC
 70
     0
  9
$DIMALTRND
 40
0.0
  9
$DIMAZIN
 70
     0
  9
$DIMDSEP
 70
     0
  9
$DIMATFIT
 70
     3
  9
$DIMFRAC
 70
     0
  9
$DIMLDRBLK
  1

  9
$DIMLUNIT
 70
     2
  9
$DIMLWD
 70
     0
  9
$DIMLWE
 70
     0
  9
$DIMTMOVE
 70
     0
  9
$LUNITS
 70
     2
  9
$LUPREC
 70
     4
  9
$SKETCHINC
 40
0.1
  9
$FILLETRAD
 40
0.0
  9
$AUNITS
 70
     0
  9
$AUPREC
 70
     0
  9
$MENU
  1
acad
  9
$ELEVATION
 40
0.0
  9
$PELEVATION
 40
0.0
  9
$THICKNESS
 40
0.0
  9
$LIMCHECK
 70
     0
  9
$CHAMFERA
 40
0.0
  9
$CHAMFERB
 40
0.0
  9
$CHAMFERC
 40
0.0
  9
$CHAMFERD
 40
0.0
  9
$SKPOLY
 70
     0
  9
$TDCREATE
 40
2453630.816631944
  9
$TDUCREATE
 40
2453630.441631944
  9
$TDUPDATE
 40
2454636.400295856
  9
$TDUUPDATE
 40
2454636.025295856
  9
$TDINDWG
 40
0.0436563310
  9
$TDUSRTIMER
 40
0.0436563310
  9
$USRTIMER
 70
     1
  9
$ANGBASE
 50
0.0
  9
$ANGDIR
 70
     0
  9
$PDMODE
 70
     0
  9
$PDSIZE
 40
0.0
  9
$PLINEWID
 40
0.0
  9
$SPLFRAME
 70
     0
  9
$SPLINETYPE
 70
     6
  9
$SPLINESEGS
 70
     8
  9
$HANDSEED
  5
19B
  9
$SURFTAB1
 70
     6
  9
$SURFTAB2
 70
     6
  9
$SURFTYPE
 70
     6
  9
$SURFU
 70
     6
  9
$SURFV
 70
     6
  9
$UCSBASE
  2

  9
$UCSNAME
  2

  9
$UCSORG
 10
0.0
 20
0.0
 30
0.0
  9
$UCSXDIR
 10
1.0
 20
0.0
 30
0.0
  9
$UCSYDIR
 10
0.0
 20
1.0
 30
0.0
  9
$UCSORTHOREF
  2

  9
$UCSORTHOVIEW
 70
     0
  9
$UCSORGTOP
 10
0.0
 20
0.0
 30
0.0
  9
$UCSORGBOTTOM
 10
0.0
 20
0.0
 30
0.0
  9
$UCSORGLEFT
 10
0.0
 20
0.0
 30
0.0
  9
$UCSORGRIGHT
 10
0.0
 20
0.0
 30
0.0
  9
$UCSORGFRONT
 10
0.0
 20
0.0
 30
0.0
  9
$UCSORGBACK
 10
0.0
 20
0.0
 30
0.0
  9
$PUCSBASE
  2

  9
$PUCSNAME
  2

  9
$PUCSORG
 10
0.0
 20
0.0
 30
0.0
  9
$PUCSXDIR
 10
1.0
 20
0.0
 30
0.0
  9
$PUCSYDIR
 10
0.0
 20
1.0
 30
0.0
  9
$PUCSORTHOREF
  2

  9
$PUCSORTHOVIEW
 70
     0
  9
$PUCSORGTOP
 10
0.0
 20
0.0
 30
0.0
  9
$PUCSORGBOTTOM
 10
0.0
 20
0.0
 30
0.0
  9
$PUCSORGLEFT
 10
0.0
 20
0.0
 30
0.0
  9
$PUCSORGRIGHT
 10
0.0
 20
0.0
 30
0.0
  9
$PUCSORGFRONT
 10
0.0
 20
0.0
 30
0.0
  9
$PUCSORGBACK
 10
0.0
 20
0.0
 30
0.0
  9
$USERI1
 70
     0
  9
$USERI2
 70
     0
  9
$USERI3
 70
     0
  9
$USERI4
 70
     0
  9
$USERI5
 70
     0
  9
$USERR1
 40
0.0
  9
$USERR2
 40
0.0
  9
$USERR3
 40
0.0
  9
$USERR4
 40
0.0
  9
$USERR5
 40
0.0
  9
$WORLDVIEW
 70
     1
  9
$SHADEDGE
 70
     3
  9
$SHADEDIF
 70
    70
  9
$TILEMODE
 70
     1
  9
$MAXACTVP
 70
    16
  9
$PINSBASE
 10
0.0
 20
0.0
 30
0.0
  9
$PLIMCHECK
 70
     0
  9
$PEXTMIN
 10
0.0
 20
0.0
 30
0.0
  9
$PEXTMAX
 10
297.0
 20
210.0
 30
0.0
  9
$PLIMMIN
 10
0.0
 20
0.0
  9
$PLIMMAX
 10
297.0
 20
210.0
  9
$UNITMODE
 70
     0
  9
$VISRETAIN
 70
     0
  9
$PLINEGEN
 70
     1
  9
$PSLTSCALE
 70
     0
  9
$TREEDEPTH
 70
  3020
  9
$CMLSTYLE
  2
STANDARD
  9
$CMLJUST
 70
     0
  9
$CMLSCALE
 40
1.0
  9
$PROXYGRAPHICS
 70
     0
  9
$MEASUREMENT
 70
     0
  9
$CELWEIGHT
370
     0
  9
$ENDCAPS
280
     0
  9
$JOINSTYLE
280
     0
  9
$LWDISPLAY
290
     0
  9
$INSUNITS
 70
     0
  9
$HYPERLINKBASE
  1

  9
$STYLESHEET
  1
monochrome.ctb
  9
$XEDIT
290
     1
  9
$CEPSNTYPE
380
     0
  9
$PSTYLEMODE
290
     1
  9
$FINGERPRINTGUID
  2

  9
$VERSIONGUID
  2
{736FE46A-0C88-4C4C-9D2D-FE6B6E6B4EEC}
  9
$EXTNAMES
290
     1
  9
$PSVPSCALE
 40
0.0
  9
$OLESTARTUP
290
     0
  0
ENDSEC
  0
SECTION
  2
CLASSES
  0
CLASS
  1
LWPOLYLINE
  2
AcDbPolyline
  3
AutoCAD 2000
 90
    32768
280
     0
281
     1
  0
CLASS
  1
IMAGE
  2
AcDbRasterImage
  3
ISM
 90
    32895
280
     0
281
     1
  0
CLASS
  1
OLE2FRAME
  2
AcDbOle2Frame
  3
AutoCAD 2000
 90
    32768
280
     0
281
     1
  0
CLASS
  1
HATCH
  2
AcDbHatch
  3
AutoCAD 2000
 90
    32768
280
     0
281
     1
  0
CLASS
  1
DICTIONARYVAR
  2
AcDbDictionaryVar
  3
AutoCAD 2000
 90
        0
280
     0
281
     0
  0
CLASS
  1
RASTERVARIABLES
  2
AcDbRasterVariables
  3
ISM
 90
    32768
280
     0
281
     0
  0
CLASS
  1
IMAGEDEF
  2
AcDbRasterImageDef
  3
ISM
 90
    32768
280
     0
281
     0
  0
CLASS
  1
IMAGEDEF_REACTOR
  2
AcDbRasterImageDefReactor
  3
ISM
 90
    32769
280
     0
281
     0
  0
CLASS
  1
IDBUFFER
  2
AcDbIdBuffer
  3
AutoCAD 2000
 90
    32768
280
     0
281
     0
  0
CLASS
  1
SPATIAL_FILTER
  2
AcDbSpatialFilter
  3
AutoCAD 2000
 90
    32768
280
     0
281
     0
  0
CLASS
  1
XRECORD
  2
AcDbXrecord
  3
AutoCAD 2000
 90
    32768
280
     0
281
     0
  0
CLASS
  1
SORTENTSTABLE
  2
AcDbSortentsTable
  3
AutoCAD 2000
 90
    32768
280
     0
281
     0
  0
CLASS
  1
LAYER_INDEX
  2
AcDbLayerIndex
  3
AutoCAD 2000
 90
    32768
280
     0
281
     0
  0
CLASS
  1
SPATIAL_INDEX
  2
AcDbSpatialIndex
  3
AutoCAD 2000
 90
    32768
280
     0
281
     0
  0
CLASS
  1
OBJECT_PTR
  2
CAseDLPNTableRecord
  3
"ASE-LPNTableRecord"
 90
    32769
280
     0
281
     0
  0
CLASS
  1
LAYOUT
  2
AcDbLayout
  3
AutoCAD 2000
 90
        0
280
     0
281
     0
  0
CLASS
  1
PLOTSETTINGS
  2
AcDbPlotSettings
  3
AutoCAD 2000
 90
    32768
280
     0
281
     0
  0
CLASS
  1
ACDBDICTIONARYWDFLT
  2
AcDbDictionaryWithDefault
  3
AutoCAD 2000
 90
        0
280
     0
281
     0
  0
CLASS
  1
ACDBPLACEHOLDER
  2
AcDbPlaceHolder
  3
AutoCAD 2000
 90
        0
280
     0
281
     0
  0
CLASS
  1
VBA_PROJECT
  2
AcDbVbaProject
  3
acadvba
 90
    32768
280
     0
281
     0
  0
CLASS
  1
WIPEOUT
  2
AcDbWipeout
  3
WipeOut|AutoCAD Express Tool|expresstools@autodesk.com
 90
    32895
280
     0
281
     1
  0
CLASS
  1
WIPEOUTVARIABLES
  2
AcDbWipeoutVariables
  3
WipeOut|AutoCAD Express Tool|expresstools@autodesk.com
 90
        0
280
     0
281
     0
  0
CLASS
  1
RTEXT
  2
RText
  3
RText|AutoCAD Express Tool|expresstools@autodesk.com
 90
    32768
280
     0
281
     1
  0
CLASS
  1
ARCALIGNEDTEXT
  2
AcDbArcAlignedText
  3
ATEXT|AutoCAD Express Tool|expresstools@autodesk.com
 90
    32768
280
     0
281
     1
  0
CLASS
  1
ACAD_PROXY_OBJECT_WRAPPER
  2
AcDbProxyObjectWrapper
  3
AutoCAD 2000
 90
    32768
280
     0
281
     0
  0
CLASS
  1
LONG_TRANSACTION
  2
AcDbLongTransaction
  3
AutoCAD 2000
 90
    32768
280
     0
281
     0
  0
CLASS
  1
LWPOLYLINE
  2
AcDbPolyline
  3
AutoCAD 2000
 90
    32768
280
     0
281
     1
  0
CLASS
  1
HATCH
  2
AcDbHatch
  3
AutoCAD 2000
 90
    32768
280
     0
281
     1
  0
CLASS
  1
XRECORD
  2
AcDbXrecord
  3
AutoCAD 2000
 90
    32768
280
     0
281
     0
  0
ENDSEC
  0
SECTION
  2
TABLES
  0
TABLE
  2
VPORT
  5
7
330
0
100
AcDbSymbolTable
 70
     3
  0
VPORT
  5
179
330
7
100
AcDbSymbolTableRecord
100
AcDbViewportTableRecord
  2
*Active
 70
     0
 10
0.0
 20
0.0
 11
1.0
 21
1.0
 12
181.7638557106999
 22
157.3904997977816
 13
0.0
 23
0.0
 14
1.0
 24
1.0
 15
0.0
 25
0.0
 16
0.0
 26
0.0
 36
1.0
 17
0.0
 27
0.0
 37
0.0
 40
322.9434408276171
 41
1.385041551246537
 42
50.0
 43
0.0
 44
0.0
 50
0.0
 51
0.0
 71
     0
 72
   100
 73
     1
 74
     1
 75
     0
 76
     0
 77
     0
 78
     0
281
     0
 65
     1
110
0.0
120
0.0
130
0.0
111
1.0
121
0.0
131
0.0
112
0.0
122
1.0
132
0.0
 79
     0
146
0.0
  0
ENDTAB
  0
TABLE
  2
LTYPE
  5
4
330
0
100
AcDbSymbolTable
 70
     7
  0
LTYPE
  5
11
330
4
100
AcDbSymbolTableRecord
100
AcDbLinetypeTableRecord
  2
BYBLOCK
 70
     0
  3

 72
    65
 73
     0
 40
0.0
  0
LTYPE
  5
12
330
4
100
AcDbSymbolTableRecord
100
AcDbLinetypeTableRecord
  2
BYLAYER
 70
     0
  3

 72
    65
 73
     0
 40
0.0
  0
LTYPE
  5
13
330
4
100
AcDbSymbolTableRecord
100
AcDbLinetypeTableRecord
  2
CONTINUOUS
 70
     0
  3
Solid line
 72
    65
 73
     0
 40
0.0
  0
ENDTAB
  0
TABLE
  2
LAYER
  5
2
330
0
100
AcDbSymbolTable
 70
    26
  0
LAYER
  5
14
330
2
100
AcDbSymbolTableRecord
100
AcDbLayerTableRecord
  2
0
 70
     0
 62
     7
  6
CONTINUOUS
370
    -3
390
1D
  0
LAYER
  5
41
330
2
100
AcDbSymbolTableRecord
100
AcDbLayerTableRecord
  2
23
 70
     0
 62
     3
  6
CONTINUOUS
370
    -3
390
1D
  0
LAYER
  5
42
330
2
100
AcDbSymbolTableRecord
100
AcDbLayerTableRecord
  2
24
 70
     0
 62
     1
  6
CONTINUOUS
370
    -3
390
1D
  0
LAYER
  5
102
330
2
100
AcDbSymbolTableRecord
100
AcDbLayerTableRecord
  2
200
 70
     0
 62
     1
  6
CONTINUOUS
370
    -3
390
1D
  0
ENDTAB
  0
TABLE
  2
STYLE
  5
3
330
0
100
AcDbSymbolTable
 70
     2
  0
STYLE
  5
17
330
3
100
AcDbSymbolTableRecord
100
AcDbTextStyleTableRecord
  2
STANDARD
 70
     0
 40
0.0
 41
1.0
 50
0.0
 71
     0
 42
0.0
  3
simplex.shx
  4
bigfont.shx
  0
ENDTAB
  0
TABLE
  2
VIEW
  5
5
330
0
100
AcDbSymbolTable
 70
     0
  0
ENDTAB
  0
TABLE
  2
UCS
  5
6
330
0
100
AcDbSymbolTable
 70
     0
  0
ENDTAB
  0
TABLE
  2
APPID
  5
8
330
0
100
AcDbSymbolTable
 70
     1
  0
APPID
  5
16
330
8
100
AcDbSymbolTableRecord
100
AcDbRegAppTableRecord
  2
ACAD
 70
     0
  0
ENDTAB
  0
TABLE
  2
DIMSTYLE
  5
9
330
0
100
AcDbSymbolTable
 70
     1
100
AcDbDimStyleTable
 71
     0
  0
DIMSTYLE
105
18
330
9
100
AcDbSymbolTableRecord
100
AcDbDimStyleTableRecord
  2
STANDARD
 70
     0
340
17
  0
ENDTAB
  0
TABLE
  2
BLOCK_RECORD
  5
1
330
0
100
AcDbSymbolTable
 70
     3
  0
BLOCK_RECORD
  5
A
102
{ACAD_XDICTIONARY
360
F6
102
}
330
1
100
AcDbSymbolTableRecord
100
AcDbBlockTableRecord
  2
*MODEL_SPACE
340
FE
  0
BLOCK_RECORD
  5
B
102
{ACAD_XDICTIONARY
360
F8
102
}
330
1
100
AcDbSymbolTableRecord
100
AcDbBlockTableRecord
  2
*PAPER_SPACE
340
FF
  0
BLOCK_RECORD
  5
43
330
1
100
AcDbSymbolTableRecord
100
AcDbBlockTableRecord
  2
*G00
340
0
102
{BLKREFS
331
46
102
}
  0
ENDTAB
  0
ENDSEC
  0
SECTION
  2
BLOCKS
  0
BLOCK
  5
D
330
A
100
AcDbEntity
  8
0
100
AcDbBlockBegin
  2
*MODEL_SPACE
 70
     0
 10
0.0
 20
0.0
 30
0.0
  3
*MODEL_SPACE
  1

  0
ENDBLK
  5
E
330
A
100
AcDbEntity
  8
0
100
AcDbBlockEnd
  0
BLOCK
  5
F
330
B
100
AcDbEntity
 67
     1
  8
0
100
AcDbBlockBegin
  2
*PAPER_SPACE
 70
     0
 10
0.0
 20
0.0
 30
0.0
  3
*PAPER_SPACE
  1

  0
ENDBLK
  5
10
330
B
100
AcDbEntity
 67
     1
  8
0
100
AcDbBlockEnd
  0
BLOCK
  5
44
330
43
100
AcDbEntity
  8
0
 62
     7
100
AcDbBlockBegin
  2
*G00
 70
     0
 10
0.0
 20
0.0
 30
0.0
  3
*G00
  1

  0
ENDBLK
  5
45
330
43
100
AcDbEntity
  8
0
100
AcDbBlockEnd
  0
ENDSEC
  0
SECTION
  2
ENTITIES
  0
INSERT
  5
46
330
A
100
AcDbEntity
  8
0
  6
Continuous
 62
     7
100
AcDbBlockReference
  2
*G00
 10
0.0
 20
0.0
 30
0.0
  0
TEXT
  5
47
330
A
100
AcDbEntity
  8
24
  6
Continuous
 62
     1
100
AcDbText
 10
190.728814
 20
12.59724353333332
 30
0.0
 40
2.444193999999999
  1
secondary == 110,220,440V
 41
0.7
 11
190.728814
 21
12.27135099999999
 31
0.0
100
AcDbText
 73
     1
  0
TEXT
  5
48
330
A
100
AcDbEntity
  8
24
  6
Continuous
 62
     1
100
AcDbText
 10
190.728814
 20
16.45437253333333
 30
0.0
 40
2.444193999999999
  1
primary ==== 6.6kV
 41
0.7
 11
190.728814
 21
16.12848
 31
0.0
100
AcDbText
 73
     1
  0
TEXT
  5
7F
330
A
100
AcDbEntity
  8
24
  6
Continuous
 62
     1
100
AcDbText
 10
86.0768582
 20
125.398296
 30
0.0
 40
3.421865999999993
  1
Operating time (sec)
 50
89.99999999999991
 41
0.7
 11
86.533107
 21
125.398296
 31
0.0
100
AcDbText
 73
     1
  0
TEXT
  5
80
330
A
100
AcDbEntity
  8
24
  6
Continuous
 62
     1
100
AcDbText
 10
131.36379
 20
16.49274479999998
 30
0.0
 40
3.421865999999998
  1
Current (A)
 41
0.7
 11
131.36379
 21
16.03649599999998
 31
0.0
100
AcDbText
 73
     1
  0
LINE
  5
81
330
A
100
AcDbEntity
  8
24
  6
Continuous
 62
     1
100
AcDbLine
 10
272.538808
 20
267.0707859999999
 30
0.0
 11
272.538808
 21
37.005414
 31
0.0
  0
LINE
  5
82
330
A
100
AcDbEntity
  8
24
  6
Continuous
 62
     1
100
AcDbLine
 10
259.4743159999999
 20
267.0707859999999
 30
0.0
 11
259.4743159999999
 21
37.005414
 31
0.0
  0
LINE
  5
83
330
A
100
AcDbEntity
  8
24
  6
Continuous
 62
     1
100
AcDbLine
 10
255.2685439999999
 20
267.0707859999999
 30
0.0
 11
255.2685439999999
 21
37.005414
 31
0.0
  0
LINE
  5
84
330
A
100
AcDbEntity
  8
24
  6
Continuous
 62
     1
100
AcDbLine
 10
246.409825
 20
267.0707859999999
 30
0.0
 11
246.409825
 21
37.005414
 31
0.0
  0
LINE
  5
85
330
A
100
AcDbEntity
  8
24
  6
Continuous
 62
     1
100
AcDbLine
 10
236.781472
 20
267.0707859999999
 30
0.0
 11
236.781472
 21
37.005414
 31
0.0
  0
LINE
  5
86
330
A
100
AcDbEntity
  8
24
  6
Continuous
 62
     1
100
AcDbLine
 10
229.1388729999999
 20
267.0707859999999
 30
0.0
 11
229.1388729999999
 21
37.005414
 31
0.0
  0
LINE
  5
87
330
A
100
AcDbEntity
  8
24
  6
Continuous
 62
     1
100
AcDbLine
 10
216.0743819999999
 20
274.713386
 30
0.0
 11
98.93855100000001
 21
274.713386
 31
0.0
  0
LINE
  5
88
330
A
100
AcDbEntity
  8
24
  6
Continuous
 62
     1
100
AcDbLine
 10
216.0743819999999
 20
280.135621
 30
0.0
 11
98.93855100000001
 21
280.135621
 31
0.0
  0
LINE
  5
89
330
A
100
AcDbEntity
  8
24
  6
Continuous
 62
     1
100
AcDbLine
 10
216.0743819999999
 20
284.3413939999998
 30
0.0
 11
98.93855100000001
 21
284.3413939999998
 31
0.0
  0
LINE
  5
8A
330
A
100
AcDbEntity
  8
24
  6
Continuous
 62
     1
100
AcDbLine
 10
216.0743819999999
 20
287.7778769999998
 30
0.0
 11
98.93855100000001
 21
287.7778769999998
 31
0.0
  0
LINE
  5
8B
330
A
100
AcDbEntity
  8
24
  6
Continuous
 62
     1
100
AcDbLine
 10
280.1814069999999
 20
297.4062299999999
 30
0.0
 11
98.93855100000001
 21
297.4062299999999
 31
0.0
  0
LINE
  5
8C
330
A
100
AcDbEntity
  8
24
  6
Continuous
 62
     1
100
AcDbLine
 10
280.1814069999999
 20
293.2001129999998
 30
0.0
 11
98.93855100000001
 21
293.2001129999998
 31
0.0
  0
LINE
  5
8D
330
A
100
AcDbEntity
  8
24
  6
Continuous
 62
     1
100
AcDbLine
 10
280.1814069999999
 20
267.0707859999999
 30
0.0
 11
98.93855100000001
 21
267.0707859999999
 31
0.0
  0
LINE
  5
8E
330
A
100
AcDbEntity
  8
24
  6
Continuous
 62
     1
100
AcDbLine
 10
280.1814069999999
 20
254.0062949999999
 30
0.0
 11
98.93855100000001
 21
254.0062949999999
 31
0.0
  0
LINE
  5
8F
330
A
100
AcDbEntity
  8
24
  6
Continuous
 62
     1
100
AcDbLine
 10
280.1814069999999
 20
249.800178
 30
0.0
 11
98.93855100000001
 21
249.800178
 31
0.0
  0
LINE
  5
90
330
A
100
AcDbEntity
  8
24
  6
Continuous
 62
     1
100
AcDbLine
 10
280.1814069999999
 20
244.3779419999999
 30
0.0
 11
98.93855100000001
 21
244.3779419999999
 31
0.0
  0
LINE
  5
91
330
A
100
AcDbEntity
  8
24
  6
Continuous
 62
     1
100
AcDbLine
 10
280.1814069999999
 20
240.9414589999999
 30
0.0
 11
98.93855100000001
 21
240.9414589999999
 31
0.0
  0
LINE
  5
92
330
A
100
AcDbEntity
  8
24
  6
Continuous
 62
     1
100
AcDbLine
 10
280.1814069999999
 20
236.735687
 30
0.0
 11
98.93855100000001
 21
236.735687
 31
0.0
  0
LINE
  5
93
330
A
100
AcDbEntity
  8
24
  6
Continuous
 62
     1
100
AcDbLine
 10
280.1814069999999
 20
231.3131059999999
 30
0.0
 11
98.93855100000001
 21
231.3131059999999
 31
0.0
  0
LINE
  5
94
330
A
100
AcDbEntity
  8
24
  6
Continuous
 62
     1
100
AcDbLine
 10
280.1814069999999
 20
223.6708509999999
 30
0.0
 11
98.93855100000001
 21
223.6708509999999
 31
0.0
  0
LINE
  5
95
330
A
100
AcDbEntity
  8
24
  6
Continuous
 62
     1
100
AcDbLine
 10
280.1814069999999
 20
210.6060149999999
 30
0.0
 11
98.93855100000001
 21
210.6060149999999
 31
0.0
  0
LINE
  5
96
330
A
100
AcDbEntity
  8
24
  6
Continuous
 62
     1
100
AcDbLine
 10
280.1814069999999
 20
206.4002429999999
 30
0.0
 11
98.93855100000001
 21
206.4002429999999
 31
0.0
  0
LINE
  5
97
330
A
100
AcDbEntity
  8
24
  6
Continuous
 62
     1
100
AcDbLine
 10
280.1814069999999
 20
200.978007
 30
0.0
 11
98.93855100000001
 21
200.978007
 31
0.0
  0
LINE
  5
98
330
A
100
AcDbEntity
  8
24
  6
Continuous
 62
     1
100
AcDbLine
 10
280.1814069999999
 20
197.541524
 30
0.0
 11
98.93855100000001
 21
197.541524
 31
0.0
  0
LINE
  5
99
330
A
100
AcDbEntity
  8
24
  6
Continuous
 62
     1
100
AcDbLine
 10
280.1814069999999
 20
193.335407
 30
0.0
 11
98.93855100000001
 21
193.335407
 31
0.0
  0
LINE
  5
9A
330
A
100
AcDbEntity
  8
24
  6
Continuous
 62
     1
100
AcDbLine
 10
280.1814069999999
 20
187.913171
 30
0.0
 11
98.93855100000001
 21
187.913171
 31
0.0
  0
LINE
  5
9B
330
A
100
AcDbEntity
  8
24
  6
Continuous
 62
     1
100
AcDbLine
 10
280.1814069999999
 20
180.270916
 30
0.0
 11
98.93855100000001
 21
180.270916
 31
0.0
  0
LINE
  5
9C
330
A
100
AcDbEntity
  8
24
  6
Continuous
 62
     1
100
AcDbLine
 10
280.1814069999999
 20
167.2060799999998
 30
0.0
 11
98.93855100000001
 21
167.2060799999998
 31
0.0
  0
LINE
  5
9D
330
A
100
AcDbEntity
  8
24
  6
Continuous
 62
     1
100
AcDbLine
 10
280.1814069999999
 20
163.0003079999999
 30
0.0
 11
98.93855100000001
 21
163.0003079999999
 31
0.0
  0
LINE
  5
9E
330
A
100
AcDbEntity
  8
24
  6
Continuous
 62
     1
100
AcDbLine
 10
280.1814069999999
 20
157.5782439999999
 30
0.0
 11
98.93855100000001
 21
157.5782439999999
 31
0.0
  0
LINE
  5
9F
330
A
100
AcDbEntity
  8
24
  6
Continuous
 62
     1
100
AcDbLine
 10
280.1814069999999
 20
154.1414169999999
 30
0.0
 11
98.93855100000001
 21
154.1414169999999
 31
0.0
  0
LINE
  5
A0
330
A
100
AcDbEntity
  8
24
  6
Continuous
 62
     1
100
AcDbLine
 10
280.1814069999999
 20
149.935645
 30
0.0
 11
98.93855100000001
 21
149.935645
 31
0.0
  0
LINE
  5
A1
330
A
100
AcDbEntity
  8
24
  6
Continuous
 62
     1
100
AcDbLine
 10
280.1814069999999
 20
144.5130639999999
 30
0.0
 11
98.93855100000001
 21
144.5130639999999
 31
0.0
  0
LINE
  5
A2
330
A
100
AcDbEntity
  8
24
  6
Continuous
 62
     1
100
AcDbLine
 10
280.1814069999999
 20
136.8711529999999
 30
0.0
 11
98.93855100000001
 21
136.8711529999999
 31
0.0
  0
LINE
  5
A3
330
A
100
AcDbEntity
  8
24
  6
Continuous
 62
     1
100
AcDbLine
 10
280.1814069999999
 20
123.805973
 30
0.0
 11
98.93855100000001
 21
123.805973
 31
0.0
  0
LINE
  5
A4
330
A
100
AcDbEntity
  8
24
  6
Continuous
 62
     1
100
AcDbLine
 10
280.1814069999999
 20
119.599512
 30
0.0
 11
98.93855100000001
 21
119.599512
 31
0.0
  0
LINE
  5
A5
330
A
100
AcDbEntity
  8
24
  6
Continuous
 62
     1
100
AcDbLine
 10
280.1814069999999
 20
114.17762
 30
0.0
 11
98.93855100000001
 21
114.17762
 31
0.0
  0
LINE
  5
A6
330
A
100
AcDbEntity
  8
24
  6
Continuous
 62
     1
100
AcDbLine
 10
280.1814069999999
 20
110.7407929999999
 30
0.0
 11
98.93855100000001
 21
110.7407929999999
 31
0.0
  0
LINE
  5
A7
330
A
100
AcDbEntity
  8
24
  6
Continuous
 62
     1
100
AcDbLine
 10
280.1814069999999
 20
106.535021
 30
0.0
 11
98.93855100000001
 21
106.535021
 31
0.0
  0
LINE
  5
A8
330
A
100
AcDbEntity
  8
24
  6
Continuous
 62
     1
100
AcDbLine
 10
280.1814069999999
 20
101.11244
 30
0.0
 11
98.93855100000001
 21
101.11244
 31
0.0
  0
LINE
  5
A9
330
A
100
AcDbEntity
  8
24
  6
Continuous
 62
     1
100
AcDbLine
 10
280.1814069999999
 20
93.47053
 30
0.0
 11
98.93855100000001
 21
93.47053
 31
0.0
  0
LINE
  5
AA
330
A
100
AcDbEntity
  8
24
  6
Continuous
 62
     1
100
AcDbLine
 10
280.1814069999999
 20
80.40603799999997
 30
0.0
 11
98.93855100000001
 21
80.40603799999997
 31
0.0
  0
LINE
  5
AB
330
A
100
AcDbEntity
  8
24
  6
Continuous
 62
     1
100
AcDbLine
 10
280.1814069999999
 20
76.199577
 30
0.0
 11
98.93855100000001
 21
76.199577
 31
0.0
  0
LINE
  5
AC
330
A
100
AcDbEntity
  8
24
  6
Continuous
 62
     1
100
AcDbLine
 10
280.1814069999999
 20
70.777686
 30
0.0
 11
98.93855100000001
 21
70.777686
 31
0.0
  0
LINE
  5
AD
330
A
100
AcDbEntity
  8
24
  6
Continuous
 62
     1
100
AcDbLine
 10
280.1814069999999
 20
67.34085799999999
 30
0.0
 11
98.93855100000001
 21
67.34085799999999
 31
0.0
  0
LINE
  5
AE
330
A
100
AcDbEntity
  8
24
  6
Continuous
 62
     1
100
AcDbLine
 10
280.1814069999999
 20
63.135086
 30
0.0
 11
98.93855100000001
 21
63.135086
 31
0.0
  0
LINE
  5
AF
330
A
100
AcDbEntity
  8
24
  6
Continuous
 62
     1
100
AcDbLine
 10
280.1814069999999
 20
57.712505
 30
0.0
 11
98.93855100000001
 21
57.712505
 31
0.0
  0
LINE
  5
B0
330
A
100
AcDbEntity
  8
24
  6
Continuous
 62
     1
100
AcDbLine
 10
280.1814069999999
 20
50.070595
 30
0.0
 11
98.93855100000001
 21
50.070595
 31
0.0
  0
LINE
  5
B1
330
A
100
AcDbEntity
  8
24
  6
Continuous
 62
     1
100
AcDbLine
 10
280.1814069999999
 20
37.005414
 30
0.0
 11
98.93855100000001
 21
37.005414
 31
0.0
  0
LINE
  5
B2
330
A
100
AcDbEntity
  8
24
  6
Continuous
 62
     1
100
AcDbLine
 10
280.1814069999999
 20
297.4062299999999
 30
0.0
 11
280.1814069999999
 21
37.005414
 31
0.0
  0
LINE
  5
B3
330
A
100
AcDbEntity
  8
24
  6
Continuous
 62
     1
100
AcDbLine
 10
272.538808
 20
297.4062299999999
 30
0.0
 11
272.538808
 21
293.2001129999998
 31
0.0
  0
LINE
  5
B4
330
A
100
AcDbEntity
  8
24
  6
Continuous
 62
     1
100
AcDbLine
 10
259.4743159999999
 20
297.4062299999999
 30
0.0
 11
259.4743159999999
 21
293.2001129999998
 31
0.0
  0
LINE
  5
B5
330
A
100
AcDbEntity
  8
24
  6
Continuous
 62
     1
100
AcDbLine
 10
255.2685439999999
 20
297.4062299999999
 30
0.0
 11
255.2685439999999
 21
293.2001129999998
 31
0.0
  0
LINE
  5
B6
330
A
100
AcDbEntity
  8
24
  6
Continuous
 62
     1
100
AcDbLine
 10
246.409825
 20
297.4062299999999
 30
0.0
 11
246.409825
 21
293.2001129999998
 31
0.0
  0
LINE
  5
B7
330
A
100
AcDbEntity
  8
24
  6
Continuous
 62
     1
100
AcDbLine
 10
236.781472
 20
297.4062299999999
 30
0.0
 11
236.781472
 21
293.2001129999998
 31
0.0
  0
LINE
  5
B8
330
A
100
AcDbEntity
  8
24
  6
Continuous
 62
     1
100
AcDbLine
 10
229.1388729999999
 20
297.4062299999999
 30
0.0
 11
229.1388729999999
 21
293.2001129999998
 31
0.0
  0
LINE
  5
B9
330
A
100
AcDbEntity
  8
24
  6
Continuous
 62
     1
100
AcDbLine
 10
216.0743819999999
 20
297.4062299999999
 30
0.0
 11
216.0743819999999
 21
37.005414
 31
0.0
  0
LINE
  5
BA
330
A
100
AcDbEntity
  8
24
  6
Continuous
 62
     1
100
AcDbLine
 10
211.8686089999999
 20
297.4062299999999
 30
0.0
 11
211.8686089999999
 21
37.005414
 31
0.0
  0
LINE
  5
BB
330
A
100
AcDbEntity
  8
24
  6
Continuous
 62
     1
100
AcDbLine
 10
203.0092009999999
 20
297.4062299999999
 30
0.0
 11
203.0092009999999
 21
37.005414
 31
0.0
  0
LINE
  5
BC
330
A
100
AcDbEntity
  8
24
  6
Continuous
 62
     1
100
AcDbLine
 10
193.3815379999999
 20
297.4062299999999
 30
0.0
 11
193.3815379999999
 21
37.005414
 31
0.0
  0
LINE
  5
BD
330
A
100
AcDbEntity
  8
24
  6
Continuous
 62
     1
100
AcDbLine
 10
185.7389379999999
 20
297.4062299999999
 30
0.0
 11
185.7389379999999
 21
37.005414
 31
0.0
  0
LINE
  5
BE
330
A
100
AcDbEntity
  8
24
  6
Continuous
 62
     1
100
AcDbLine
 10
172.6742739999999
 20
297.4062299999999
 30
0.0
 11
172.6742739999999
 21
37.005414
 31
0.0
  0
LINE
  5
BF
330
A
100
AcDbEntity
  8
24
  6
Continuous
 62
     1
100
AcDbLine
 10
168.468157
 20
297.4062299999999
 30
0.0
 11
168.468157
 21
37.005414
 31
0.0
  0
LINE
  5
C0
330
A
100
AcDbEntity
  8
24
  6
Continuous
 62
     1
100
AcDbLine
 10
159.609094
 20
297.4062299999999
 30
0.0
 11
159.609094
 21
37.005414
 31
0.0
  0
LINE
  5
C1
330
A
100
AcDbEntity
  8
24
  6
Continuous
 62
     1
100
AcDbLine
 10
149.981086
 20
297.4062299999999
 30
0.0
 11
149.981086
 21
37.005414
 31
0.0
  0
LINE
  5
C2
330
A
100
AcDbEntity
  8
24
  6
Continuous
 62
     1
100
AcDbLine
 10
142.3384859999998
 20
297.4062299999999
 30
0.0
 11
142.3384859999998
 21
37.005414
 31
0.0
  0
LINE
  5
C3
330
A
100
AcDbEntity
  8
24
  6
Continuous
 62
     1
100
AcDbLine
 10
129.2739949999999
 20
297.4062299999999
 30
0.0
 11
129.2739949999999
 21
37.005414
 31
0.0
  0
LINE
  5
C4
330
A
100
AcDbEntity
  8
24
  6
Continuous
 62
     1
100
AcDbLine
 10
125.067878
 20
297.4062299999999
 30
0.0
 11
125.067878
 21
37.005414
 31
0.0
  0
LINE
  5
C5
330
A
100
AcDbEntity
  8
24
  6
Continuous
 62
     1
100
AcDbLine
 10
116.2091589999999
 20
297.4062299999999
 30
0.0
 11
116.2091589999999
 21
37.005414
 31
0.0
  0
LINE
  5
C6
330
A
100
AcDbEntity
  8
24
  6
Continuous
 62
     1
100
AcDbLine
 10
106.581151
 20
297.4062299999999
 30
0.0
 11
106.581151
 21
37.005414
 31
0.0
  0
LINE
  5
C7
330
A
100
AcDbEntity
  8
24
  6
Continuous
 62
     1
100
AcDbLine
 10
98.93855100000001
 20
297.4062299999999
 30
0.0
 11
98.93855100000001
 21
37.005414
 31
0.0
  0
TEXT
  5
C8
330
A
100
AcDbEntity
  8
23
  6
Continuous
 62
     3
100
AcDbText
 10
177.367183
 20
-1.993225333333333
 30
0.0
 40
3.910714999999998
  1
TERASAKI ELECTRIC CO.,LTD.
 41
0.7
 11
177.367183
 21
-2.514654
 31
0.0
100
AcDbText
 73
     1
  0
TEXT
  5
C9
330
A
100
AcDbEntity
  8
23
  6
Continuous
 62
     3
100
AcDbText
 10
142.3384859999998
 20
312.8573236666666
 30
0.0
 40
3.910714999999981
  1
Time/Current characteristic curves
 41
0.7
 11
142.3384859999998
 21
312.335895
 31
0.0
100
AcDbText
 73
     1
  0
TEXT
  5
CA
330
A
100
AcDbEntity
  8
23
  6
Continuous
 62
     3
100
AcDbText
 10
98.93855100000001
 20
312.8573236666666
 30
0.0
 40
3.910714999999981
  1
TemBreak2
 41
0.7
 11
98.93855100000001
 21
312.335895
 31
0.0
100
AcDbText
 73
     1
  0
TEXT
  5
11D
330
A
100
AcDbEntity
  8
200
  6
Continuous
 62
     1
100
AcDbText
 10
107.8311509999999
 20
31.83874733333333
 30
0.0
 40
2.5
  1
3
 50
90.0
 41
0.7
 72
     2
 11
106.5811509999999
 21
33.005414
 31
0.0
100
AcDbText
 73
     2
  0
TEXT
  5
11E
330
A
100
AcDbEntity
  8
200
  6
Continuous
 62
     1
100
AcDbText
 10
100.1885509999999
 20
31.83874733333333
 30
0.0
 40
2.5
  1
2
 50
90.0
 41
0.7
 72
     2
 11
98.93855099999996
 21
33.005414
 31
0.0
100
AcDbText
 73
     2
  0
TEXT
  5
11F
330
A
100
AcDbEntity
  8
200
  6
Continuous
 62
     1
100
AcDbText
 10
117.4591589999999
 20
31.83874733333333
 30
0.0
 40
2.5
  1
5
 50
90.0
 41
0.7
 72
     2
 11
116.2091589999999
 21
33.005414
 31
0.0
100
AcDbText
 73
     2
  0
TEXT
  5
120
330
A
100
AcDbEntity
  8
200
  6
Continuous
 62
     1
100
AcDbText
 10
130.5239949999999
 20
30.505414
 30
0.0
 40
2.5
  1
10
 50
90.0
 41
0.7
 72
     2
 11
129.2739949999999
 21
33.005414
 31
0.0
100
AcDbText
 73
     2
  0
TEXT
  5
121
330
A
100
AcDbEntity
  8
200
  6
Continuous
 62
     1
100
AcDbText
 10
126.3178779999999
 20
31.83874733333333
 30
0.0
 40
2.5
  1
8
 50
90.0
 41
0.7
 72
     2
 11
125.0678779999999
 21
33.005414
 31
0.0
100
AcDbText
 73
     2
  0
TEXT
  5
122
330
A
100
AcDbEntity
  8
200
  6
Continuous
 62
     1
100
AcDbText
 10
143.5884859999999
 20
30.17208066666666
 30
0.0
 40
2.5
  1
20
 50
90.0
 41
0.7
 72
     2
 11
142.3384859999999
 21
33.005414
 31
0.0
100
AcDbText
 73
     2
  0
TEXT
  5
123
330
A
100
AcDbEntity
  8
200
  6
Continuous
 62
     1
100
AcDbText
 10
151.2310859999999
 20
30.17208066666666
 30
0.0
 40
2.5
  1
30
 50
90.0
 41
0.7
 72
     2
 11
149.9810859999999
 21
33.005414
 31
0.0
100
AcDbText
 73
     2
  0
TEXT
  5
124
330
A
100
AcDbEntity
  8
200
  6
Continuous
 62
     1
100
AcDbText
 10
160.8590939999999
 20
30.17208066666666
 30
0.0
 40
2.5
  1
50
 50
90.0
 41
0.7
 72
     2
 11
159.6090939999999
 21
33.005414
 31
0.0
100
AcDbText
 73
     2
  0
TEXT
  5
125
330
A
100
AcDbEntity
  8
200
  6
Continuous
 62
     1
100
AcDbText
 10
186.9889379999999
 20
28.505414
 30
0.0
 40
2.5
  1
200
 50
90.0
 41
0.7
 72
     2
 11
185.7389379999999
 21
33.005414
 31
0.0
100
AcDbText
 73
     2
  0
TEXT
  5
126
330
A
100
AcDbEntity
  8
200
  6
Continuous
 62
     1
100
AcDbText
 10
169.7181569999999
 20
30.17208066666666
 30
0.0
 40
2.5
  1
80
 50
90.0
 41
0.7
 72
     2
 11
168.4681569999999
 21
33.005414
 31
0.0
100
AcDbText
 73
     2
  0
TEXT
  5
127
330
A
100
AcDbEntity
  8
200
  6
Continuous
 62
     1
100
AcDbText
 10
173.9242739999999
 20
28.83874733333334
 30
0.0
 40
2.5
  1
100
 50
90.0
 41
0.7
 72
     2
 11
172.6742739999999
 21
33.005414
 31
0.0
100
AcDbText
 73
     2
  0
TEXT
  5
128
330
A
100
AcDbEntity
  8
200
  6
Continuous
 62
     1
100
AcDbText
 10
194.6315379999999
 20
28.505414
 30
0.0
 40
2.5
  1
300
 50
90.0
 41
0.7
 72
     2
 11
193.3815379999999
 21
33.005414
 31
0.0
100
AcDbText
 73
     2
  0
TEXT
  5
129
330
A
100
AcDbEntity
  8
200
  6
Continuous
 62
     1
100
AcDbText
 10
204.2592009999999
 20
28.505414
 30
0.0
 40
2.5
  1
500
 50
90.0
 41
0.7
 72
     2
 11
203.0092009999999
 21
33.005414
 31
0.0
100
AcDbText
 73
     2
  0
TEXT
  5
12A
330
A
100
AcDbEntity
  8
200
  6
Continuous
 62
     1
100
AcDbText
 10
256.5185439999999
 20
26.83874733333333
 30
0.0
 40
2.5
  1
8000
 50
90.0
 41
0.7
 72
     2
 11
255.2685439999999
 21
33.005414
 31
0.0
100
AcDbText
 73
     2
  0
TEXT
  5
12B
330
A
100
AcDbEntity
  8
200
  6
Continuous
 62
     1
100
AcDbText
 10
213.1186089999999
 20
28.505414
 30
0.0
 40
2.5
  1
800
 50
90.0
 41
0.7
 72
     2
 11
211.8686089999998
 21
33.005414
 31
0.0
100
AcDbText
 73
     2
  0
TEXT
  5
12C
330
A
100
AcDbEntity
  8
200
  6
Continuous
 62
     1
100
AcDbText
 10
217.3243819999999
 20
27.17208066666667
 30
0.0
 40
2.5
  1
1000
 50
90.0
 41
0.7
 72
     2
 11
216.0743819999999
 21
33.005414
 31
0.0
100
AcDbText
 73
     2
  0
TEXT
  5
12D
330
A
100
AcDbEntity
  8
200
  6
Continuous
 62
     1
100
AcDbText
 10
230.3888729999998
 20
26.83874733333333
 30
0.0
 40
2.5
  1
2000
 50
90.0
 41
0.7
 72
     2
 11
229.1388729999998
 21
33.005414
 31
0.0
100
AcDbText
 73
     2
  0
TEXT
  5
12E
330
A
100
AcDbEntity
  8
200
  6
Continuous
 62
     1
100
AcDbText
 10
238.0314719999999
 20
26.83874733333333
 30
0.0
 40
2.5
  1
3000
 50
90.0
 41
0.7
 72
     2
 11
236.7814719999999
 21
33.005414
 31
0.0
100
AcDbText
 73
     2
  0
TEXT
  5
12F
330
A
100
AcDbEntity
  8
200
  6
Continuous
 62
     1
100
AcDbText
 10
247.6598249999999
 20
26.83874733333333
 30
0.0
 40
2.5
  1
5000
 50
90.0
 41
0.7
 72
     2
 11
246.4098249999999
 21
33.005414
 31
0.0
100
AcDbText
 73
     2
  0
TEXT
  5
130
330
A
100
AcDbEntity
  8
200
  6
Continuous
 62
     1
100
AcDbText
 10
260.8111905662
 20
25.43390664188874
 30
0.0
 40
2.5
  1
10000
 50
90.0
 41
0.7
 72
     2
 11
259.5611905662
 21
32.93390664188874
 31
0.0
100
AcDbText
 73
     2
  0
TEXT
  5
131
330
A
100
AcDbEntity
  8
200
  6
Continuous
 62
     1
100
AcDbText
 10
273.8756825662
 20
25.1005733085554
 30
0.0
 40
2.5
  1
20000
 50
90.0
 41
0.7
 72
     2
 11
272.6256825661999
 21
32.93390664188874
 31
0.0
100
AcDbText
 73
     2
  0
TEXT
  5
132
330
A
100
AcDbEntity
  8
200
  6
Continuous
 62
     1
100
AcDbText
 10
281.5182815662
 20
25.1005733085554
 30
0.0
 40
2.5
  1
30000
 50
90.0
 41
0.7
 72
     2
 11
280.2682815662
 21
32.93390664188874
 31
0.0
100
AcDbText
 73
     2
  0
TEXT
  5
156
330
A
100
AcDbEntity
  8
200
  6
Continuous
 62
     1
100
AcDbText
 10
89.74898045809707
 20
35.75541399999986
 30
0.0
 40
2.5
  1
0.01
 41
0.6
 72
     2
 11
93.67755188666849
 21
37.00541399999986
 31
0.0
100
AcDbText
 73
     2
  0
TEXT
  5
157
330
A
100
AcDbEntity
  8
200
  6
Continuous
 62
     1
100
AcDbText
 10
89.10775467840982
 20
48.82059499999986
 30
0.0
 40
2.5
  1
0.02
 41
0.6
 72
     2
 11
93.6791832498384
 21
50.07059499999986
 31
0.0
100
AcDbText
 73
     2
  0
TEXT
  5
158
330
A
100
AcDbEntity
  8
200
  6
Continuous
 62
     1
100
AcDbText
 10
89.10870887342035
 20
56.46250499999988
 30
0.0
 40
2.5
  1
0.03
 41
0.6
 72
     2
 11
93.68013744484892
 21
57.71250499999988
 31
0.0
100
AcDbText
 73
     2
  0
TEXT
  5
159
330
A
100
AcDbEntity
  8
200
  6
Continuous
 62
     1
100
AcDbText
 10
89.10991110249556
 20
66.09085799999985
 30
0.0
 40
2.5
  1
0.05
 41
0.6
 72
     2
 11
93.68133967392413
 21
67.34085799999985
 31
0.0
100
AcDbText
 73
     2
  0
TEXT
  5
15A
330
A
100
AcDbEntity
  8
200
  6
Continuous
 62
     1
100
AcDbText
 10
89.03795738399541
 20
61.88508599999988
 30
0.0
 40
2.5
  1
0.04
 41
0.6
 72
     2
 11
93.68081452685254
 21
63.13508599999988
 31
0.0
100
AcDbText
 73
     2
  0
TEXT
  5
15B
330
A
100
AcDbEntity
  8
200
  6
Continuous
 62
     1
100
AcDbText
 10
91.18297103696916
 20
79.15603799999985
 30
0.0
 40
2.5
  1
0.1
 41
0.6
 72
     2
 11
93.68297103696916
 21
80.40603799999985
 31
0.0
100
AcDbText
 73
     2
  0
TEXT
  5
15C
330
A
100
AcDbEntity
  8
200
  6
Continuous
 62
     1
100
AcDbText
 10
90.54174517125103
 20
92.22052999999988
 30
0.0
 40
2.5
  1
0.2
 41
0.6
 72
     2
 11
93.68460231410818
 21
93.47052999999988
 31
0.0
100
AcDbText
 73
     2
  0
TEXT
  5
15D
330
A
100
AcDbEntity
  8
200
  6
Continuous
 62
     1
100
AcDbText
 10
90.54269936626155
 20
99.86243999999988
 30
0.0
 40
2.5
  1
0.3
 41
0.6
 72
     2
 11
93.6855565091187
 21
101.1124399999998
 31
0.0
100
AcDbText
 73
     2
  0
TEXT
  5
15E
330
A
100
AcDbEntity
  8
200
  6
Continuous
 62
     1
100
AcDbText
 10
90.47194787683663
 20
105.2850209999998
 30
0.0
 40
2.5
  1
0.4
 41
0.6
 72
     2
 11
93.68623359112232
 21
106.5350209999998
 31
0.0
100
AcDbText
 73
     2
  0
TEXT
  5
15F
330
A
100
AcDbEntity
  8
200
  6
Continuous
 62
     1
100
AcDbText
 10
91.26945463668626
 20
199.7280069999998
 30
0.0
 40
2.5
  1
60
 41
0.6
 72
     2
 11
93.6980260652577
 21
200.9780069999998
 31
0.0
100
AcDbText
 73
     2
  0
TEXT
  5
160
330
A
100
AcDbEntity
  8
200
  6
Continuous
 62
     1
100
AcDbText
 10
92.69217788849458
 20
152.8914169999998
 30
0.0
 40
2.5
  1
5
 41
0.6
 72
     2
 11
93.69217788849459
 21
154.1414169999998
 31
0.0
100
AcDbText
 73
     2
  0
TEXT
  5
161
330
A
100
AcDbEntity
  8
200
  6
Continuous
 62
     1
100
AcDbText
 10
90.54390159533676
 20
109.4907929999997
 30
0.0
 40
2.5
  1
0.5
 41
0.6
 72
     2
 11
93.68675873819389
 21
110.7407929999997
 31
0.0
100
AcDbText
 73
     2
  0
TEXT
  5
162
330
A
100
AcDbEntity
  8
200
  6
Continuous
 62
     1
100
AcDbText
 10
92.690021464284
 20
135.6211529999998
 30
0.0
 40
2.5
  1
2
 41
0.6
 72
     2
 11
93.690021464284
 21
136.8711529999998
 31
0.0
100
AcDbText
 73
     2
  0
TEXT
  5
163
330
A
100
AcDbEntity
  8
200
  6
Continuous
 62
     1
100
AcDbText
 10
92.69097565941939
 20
143.2630639999998
 30
0.0
 40
2.5
  1
3
 41
0.6
 72
     2
 11
93.69097565941938
 21
144.5130639999998
 31
0.0
100
AcDbText
 73
     2
  0
TEXT
  5
164
330
A
100
AcDbEntity
  8
200
  6
Continuous
 62
     1
100
AcDbText
 10
92.62022416999444
 20
148.6856449999999
 30
0.0
 40
2.5
  1
4
 41
0.6
 72
     2
 11
93.69165274142302
 21
149.9356449999999
 31
0.0
100
AcDbText
 73
     2
  0
TEXT
  5
165
330
A
100
AcDbEntity
  8
200
  6
Continuous
 62
     1
100
AcDbText
 10
91.55095204412811
 20
165.9560799999998
 30
0.0
 40
2.5
  1
10
 41
0.6
 72
     2
 11
93.69380918698524
 21
167.2060799999998
 31
0.0
100
AcDbText
 73
     2
  0
TEXT
  5
166
330
A
100
AcDbEntity
  8
200
  6
Continuous
 62
     1
100
AcDbText
 10
91.26782331659423
 20
186.6631709999998
 30
0.0
 40
2.5
  1
30
 41
0.6
 72
     2
 11
93.69639474516565
 21
187.9131709999998
 31
0.0
100
AcDbText
 73
     2
  0
TEXT
  5
167
330
A
100
AcDbEntity
  8
200
  6
Continuous
 62
     1
100
AcDbText
 10
91.26686907850583
 20
179.0209159999998
 30
0.0
 40
2.5
  1
20
 41
0.6
 72
     2
 11
93.69544050707727
 21
180.2709159999998
 31
0.0
100
AcDbText
 73
     2
  0
TEXT
  5
168
330
A
100
AcDbEntity
  8
200
  6
Continuous
 62
     1
100
AcDbText
 10
91.26850035551999
 20
192.0854069999998
 30
0.0
 40
2.5
  1
40
 41
0.6
 72
     2
 11
93.69707178409141
 21
193.3354069999998
 31
0.0
100
AcDbText
 73
     2
  0
TEXT
  5
169
330
A
100
AcDbEntity
  8
200
  6
Continuous
 62
     1
100
AcDbText
 10
91.26902554566944
 20
196.2915239999998
 30
0.0
 40
2.5
  1
50
 41
0.6
 72
     2
 11
93.69759697424088
 21
197.5415239999998
 31
0.0
100
AcDbText
 73
     2
  0
TEXT
  5
16A
330
A
100
AcDbEntity
  8
200
  6
Continuous
 62
     1
100
AcDbText
 10
89.84371671420419
 20
222.4208509999999
 30
0.0
 40
2.5
  1
200
 41
0.6
 72
     2
 11
93.70085957134705
 21
223.6708509999998
 31
0.0
100
AcDbText
 73
     2
  0
TEXT
  5
16B
330
A
100
AcDbEntity
  8
200
  6
Continuous
 62
     1
100
AcDbText
 10
90.12779967982645
 20
209.3560149999999
 30
0.0
 40
2.5
  1
100
 41
0.6
 72
     2
 11
93.69922825125502
 21
210.6060149999998
 31
0.0
100
AcDbText
 73
     2
  0
TEXT
  5
16C
330
A
100
AcDbEntity
  8
200
  6
Continuous
 62
     1
100
AcDbText
 10
89.84467095229259
 20
230.0631059999998
 30
0.0
 40
2.5
  1
300
 41
0.6
 72
     2
 11
93.70181380943545
 21
231.3131059999998
 31
0.0
100
AcDbText
 73
     2
  0
TEXT
  5
16D
330
A
100
AcDbEntity
  8
200
  6
Continuous
 62
     1
100
AcDbText
 10
89.84534803429623
 20
235.4856869999998
 30
0.0
 40
2.5
  1
400
 41
0.6
 72
     2
 11
93.70249089143909
 21
236.7356869999998
 31
0.0
100
AcDbText
 73
     2
  0
TEXT
  5
16E
330
A
100
AcDbEntity
  8
200
  6
Continuous
 62
     1
100
AcDbText
 10
89.8458731813678
 20
239.6914589999998
 30
0.0
 40
2.5
  1
500
 41
0.6
 72
     2
 11
93.70301603851066
 21
240.9414589999999
 31
0.0
100
AcDbText
 73
     2
  0
TEXT
  5
16F
330
A
100
AcDbEntity
  8
200
  6
Continuous
 62
     1
100
AcDbText
 10
88.70464735860268
 20
252.7562949999997
 30
0.0
 40
2.5
  1
1000
 41
0.6
 72
     2
 11
93.70464735860268
 21
254.0062949999998
 31
0.0
100
AcDbText
 73
     2
  0
TEXT
  5
170
330
A
100
AcDbEntity
  8
200
  6
Continuous
 62
     1
100
AcDbText
 10
88.42056434990254
 20
265.8207859999998
 30
0.0
 40
2.5
  1
2000
 41
0.6
 72
     2
 11
93.70627863561685
 21
267.0707859999998
 31
0.0
100
AcDbText
 73
     2
  0
TEXT
  5
171
330
A
100
AcDbEntity
  8
200
  6
Continuous
 62
     1
100
AcDbText
 10
88.42138816289233
 20
273.4560343743642
 30
0.0
 40
2.5
  1
3000
 41
0.6
 72
     2
 11
93.70710244860664
 21
274.7060343743642
 31
0.0
100
AcDbText
 73
     2
  0
TEXT
  5
172
330
A
100
AcDbEntity
  8
200
  6
Continuous
 62
     1
100
AcDbText
 10
88.42206522328403
 20
278.8782693743642
 30
0.0
 40
2.5
  1
4000
 41
0.6
 72
     2
 11
93.70777950899833
 21
280.1282693743642
 31
0.0
100
AcDbText
 73
     2
  0
TEXT
  5
173
330
A
100
AcDbEntity
  8
200
  6
Continuous
 62
     1
100
AcDbText
 10
88.4225903919488
 20
283.0840423743641
 30
0.0
 40
2.5
  1
5000
 41
0.6
 72
     2
 11
93.70830467766309
 21
284.334042374364
 31
0.0
100
AcDbText
 73
     2
  0
TEXT
  5
174
330
A
100
AcDbEntity
  8
200
  6
Continuous
 62
     1
100
AcDbText
 10
87.28147580277164
 20
296.0025298246215
 30
0.0
 40
2.5
  1
10000
 41
0.6
 72
     2
 11
93.71004723134307
 21
297.2525298246215
 31
0.0
100
AcDbText
 73
     2
  0
TEXT
  5
175
330
A
100
AcDbEntity
  8
200
  6
Continuous
 62
     1
100
AcDbText
 10
93.33287860714115
 20
122.5559729999999
 30
0.0
 40
2.5
  1
1
 41
0.6
 72
     2
 11
93.69002146428401
 21
123.8059729999999
 31
0.0
100
AcDbText
 73
     2
  0
ENDSEC
  0
SECTION
  2
OBJECTS
  0
DICTIONARY
  5
19
330
0
100
AcDbDictionary
281
     1
  3
ACAD_GROUP
350
1A
  3
ACAD_LAYOUT
350
1E
  3
ACAD_MLINESTYLE
350
1B
  3
ACAD_PLOTSETTINGS
350
22
  3
ACAD_PLOTSTYLENAME
350
1F
  3
ACAD_WIPEOUT_VARS
350
23
  3
ACDBHEADERROUNDTRIPXREC
350
17A
  3
AcDbVariableDictionary
350
177
  0
DICTIONARY
  5
F6
330
A
100
AcDbDictionary
280
     1
281
     1
  3
ACAD_LAYOUTSELFREF
360
F7
  0
DICTIONARY
  5
F8
330
B
100
AcDbDictionary
280
     1
281
     1
  3
ACAD_LAYOUTSELFREF
360
F9
  0
DICTIONARY
  5
1A
102
{ACAD_REACTORS
330
19
102
}
330
19
100
AcDbDictionary
281
     1
  0
DICTIONARY
  5
1E
102
{ACAD_REACTORS
330
19
102
}
330
19
100
AcDbDictionary
281
     1
  3
Model
350
FE
  3
ﾚｲｱｳﾄ1
350
FF
  0
DICTIONARY
  5
1B
102
{ACAD_REACTORS
330
19
102
}
330
19
100
AcDbDictionary
281
     1
  3
STANDARD
350
1C
  0
DICTIONARY
  5
22
102
{ACAD_REACTORS
330
19
102
}
330
19
100
AcDbDictionary
281
     1
  0
ACDBDICTIONARYWDFLT
  5
1F
102
{ACAD_REACTORS
330
19
102
}
330
19
100
AcDbDictionary
281
     1
  3
Normal
350
1D
100
AcDbDictionaryWithDefault
340
1D
  0
ACAD_PROXY_OBJECT
  5
23
330
19
100
AcDbProxyObject
 90
      499
 91
      521
 95
   851991
 70
     0
 93
       10
310
4041
 94
        0
  0
DICTIONARY
  5
17A
102
{ACAD_REACTORS
330
19
102
}
330
19
100
AcDbDictionary
281
     1
  3
CEPSNTYPE
350
184
  3
DIMSTYLEDATA
350
188
  3
FINGERPRINTGUID
350
185
  3
HYPERLINKBASE
350
17D
  3
INSUNITS
350
183
  3
LAYOUTDICT
350
17F
  3
LWETCUNION
350
182
  3
PLOTSETDICT
350
180
  3
PLOTSTYLNAMDICT
350
181
  3
PSVPSCALE
350
187
  3
PUCSBASE
350
18B
  3
PUCSORGBACK
350
191
  3
PUCSORGBOTTOM
350
18D
  3
PUCSORGFRONT
350
190
  3
PUCSORGLEFT
350
18E
  3
PUCSORGRIGHT
350
18F
  3
PUCSORGTOP
350
18C
  3
PUCSORTHOREF
350
189
  3
PUCSORTHOVIEW
350
18A
  3
STYLESHEET
350
17E
  3
TSTACKALIGN
350
17B
  3
TSTACKSIZE
350
17C
  3
UCSBASE
350
194
  3
UCSORGBACK
350
19A
  3
UCSORGBOTTOM
350
196
  3
UCSORGFRONT
350
199
  3
UCSORGLEFT
350
197
  3
UCSORGRIGHT
350
198
  3
UCSORGTOP
350
195
  3
UCSORTHOREF
350
192
  3
UCSORTHOVIEW
350
193
  3
VERSIONGUID
350
186
  0
DICTIONARY
  5
177
102
{ACAD_REACTORS
330
19
102
}
330
19
100
AcDbDictionary
281
     1
  3
DIMASSOC
350
178
  0
XRECORD
  5
F7
102
{ACAD_REACTORS
330
F6
102
}
330
F6
100
AcDbXrecord
280
     1
340
A
  0
XRECORD
  5
F9
102
{ACAD_REACTORS
330
F8
102
}
330
F8
100
AcDbXrecord
280
     1
340
B
  0
LAYOUT
  5
FE
102
{ACAD_REACTORS
330
1E
102
}
330
1E
100
AcDbPlotSettings
  1

  2
\\ENDEAVOR\Brother MFC4800J
  4
A4
  6

 40
7.143749713897705
 41
7.186084270477294
 42
7.14373779296875
 43
7.14373779296875
 44
209.9733276367187
 45
296.9683227539062
 46
0.0
 47
0.0
 48
0.0
 49
0.0
140
0.0
141
0.0
142
1.0
143
1.0
 70
 11952
 72
     0
 73
     1
 74
     0
  7

 75
     0
147
1.0
148
-515.4202365410412
149
103.6630036470835
100
AcDbLayout
  1
Model
 70
     1
 71
     0
 10
0.0
 20
0.0
 11
12.0
 21
9.0
 12
0.0
 22
0.0
 32
0.0
 14
0.0
 24
0.0
 34
0.0
 15
0.0
 25
0.0
 35
0.0
146
0.0
 13
0.0
 23
0.0
 33
0.0
 16
1.0
 26
0.0
 36
0.0
 17
0.0
 27
1.0
 37
0.0
 76
     0
330
A
  0
LAYOUT
  5
FF
102
{ACAD_REACTORS
330
1E
102
}
330
1E
100
AcDbPlotSettings
  1

  2
\\ENDEAVOR\Brother MFC4800J
  4

  6

 40
0.0
 41
0.0
 42
0.0
 43
0.0
 44
0.0
 45
0.0
 46
0.0
 47
0.0
 48
0.0
 49
0.0
140
0.0
141
0.0
142
1.0
143
1.0
 70
   688
 72
     0
 73
     0
 74
     5
  7
monochrome.ctb
 75
    16
147
1.0
148
0.0
149
0.0
100
AcDbLayout
  1
ﾚｲｱｳﾄ1
 70
     0
 71
     1
 10
0.0
 20
0.0
 11
297.0
 21
210.0
 12
0.0
 22
0.0
 32
0.0
 14
0.0
 24
0.0
 34
0.0
 15
297.0
 25
210.0
 35
0.0
146
0.0
 13
0.0
 23
0.0
 33
0.0
 16
1.0
 26
0.0
 36
0.0
 17
0.0
 27
1.0
 37
0.0
 76
     0
330
B
  0
MLINESTYLE
  5
1C
102
{ACAD_REACTORS
330
1B
102
}
330
1B
100
AcDbMlineStyle
  2
STANDARD
 70
     0
  3

 62
     0
 51
90.0
 52
90.0
 71
     2
 49
0.5
 62
   256
  6
BYLAYER
 49
-0.5
 62
   256
  6
BYLAYER
  0
ACDBPLACEHOLDER
  5
1D
102
{ACAD_REACTORS
330
1F
102
}
330
1F
  0
XRECORD
  5
184
102
{ACAD_REACTORS
330
17A
102
}
330
17A
100
AcDbXrecord
280
     1
 90
        0
  0
XRECORD
  5
188
102
{ACAD_REACTORS
330
17A
102
}
330
17A
100
AcDbXrecord
280
     1
1000
DSTYLE
1002
{
1070
   278
 70
     0
1070
   371
 70
     0
1070
   372
 70
     0
1002
}
  0
XRECORD
  5
185
102
{ACAD_REACTORS
330
17A
102
}
330
17A
100
AcDbXrecord
280
     1
  1

  0
XRECORD
  5
17D
102
{ACAD_REACTORS
330
17A
102
}
330
17A
100
AcDbXrecord
280
     1
  1

  0
XRECORD
  5
183
102
{ACAD_REACTORS
330
17A
102
}
330
17A
100
AcDbXrecord
280
     1
 90
        0
  0
XRECORD
  5
17F
102
{ACAD_REACTORS
330
17A
102
}
330
17A
100
AcDbXrecord
280
     1
340
1E
  0
XRECORD
  5
182
102
{ACAD_REACTORS
330
17A
102
}
330
17A
100
AcDbXrecord
280
     1
 90
    10752
  0
XRECORD
  5
180
102
{ACAD_REACTORS
330
17A
102
}
330
17A
100
AcDbXrecord
280
     1
340
22
  0
XRECORD
  5
181
102
{ACAD_REACTORS
330
17A
102
}
330
17A
100
AcDbXrecord
280
     1
340
1F
  0
XRECORD
  5
187
102
{ACAD_REACTORS
330
17A
102
}
330
17A
100
AcDbXrecord
280
     1
 40
0.0
  0
XRECORD
  5
18B
102
{ACAD_REACTORS
330
17A
102
}
330
17A
100
AcDbXrecord
280
     1
340
0
  0
XRECORD
  5
191
102
{ACAD_REACTORS
330
17A
102
}
330
17A
100
AcDbXrecord
280
     1
 10
0.0
 20
0.0
 30
0.0
  0
XRECORD
  5
18D
102
{ACAD_REACTORS
330
17A
102
}
330
17A
100
AcDbXrecord
280
     1
 10
0.0
 20
0.0
 30
0.0
  0
XRECORD
  5
190
102
{ACAD_REACTORS
330
17A
102
}
330
17A
100
AcDbXrecord
280
     1
 10
0.0
 20
0.0
 30
0.0
  0
XRECORD
  5
18E
102
{ACAD_REACTORS
330
17A
102
}
330
17A
100
AcDbXrecord
280
     1
 10
0.0
 20
0.0
 30
0.0
  0
XRECORD
  5
18F
102
{ACAD_REACTORS
330
17A
102
}
330
17A
100
AcDbXrecord
280
     1
 10
0.0
 20
0.0
 30
0.0
  0
XRECORD
  5
18C
102
{ACAD_REACTORS
330
17A
102
}
330
17A
100
AcDbXrecord
280
     1
 10
0.0
 20
0.0
 30
0.0
  0
XRECORD
  5
189
102
{ACAD_REACTORS
330
17A
102
}
330
17A
100
AcDbXrecord
280
     1
340
0
  0
XRECORD
  5
18A
102
{ACAD_REACTORS
330
17A
102
}
330
17A
100
AcDbXrecord
280
     1
 70
     0
  0
XRECORD
  5
17E
102
{ACAD_REACTORS
330
17A
102
}
330
17A
100
AcDbXrecord
280
     1
  1
monochrome.ctb
  0
XRECORD
  5
17B
102
{ACAD_REACTORS
330
17A
102
}
330
17A
100
AcDbXrecord
280
     1
 90
        1
  0
XRECORD
  5
17C
102
{ACAD_REACTORS
330
17A
102
}
330
17A
100
AcDbXrecord
280
     1
 90
       70
  0
XRECORD
  5
194
102
{ACAD_REACTORS
330
17A
102
}
330
17A
100
AcDbXrecord
280
     1
340
0
  0
XRECORD
  5
19A
102
{ACAD_REACTORS
330
17A
102
}
330
17A
100
AcDbXrecord
280
     1
 10
0.0
 20
0.0
 30
0.0
  0
XRECORD
  5
196
102
{ACAD_REACTORS
330
17A
102
}
330
17A
100
AcDbXrecord
280
     1
 10
0.0
 20
0.0
 30
0.0
  0
XRECORD
  5
199
102
{ACAD_REACTORS
330
17A
102
}
330
17A
100
AcDbXrecord
280
     1
 10
0.0
 20
0.0
 30
0.0
  0
XRECORD
  5
197
102
{ACAD_REACTORS
330
17A
102
}
330
17A
100
AcDbXrecord
280
     1
 10
0.0
 20
0.0
 30
0.0
  0
XRECORD
  5
198
102
{ACAD_REACTORS
330
17A
102
}
330
17A
100
AcDbXrecord
280
     1
 10
0.0
 20
0.0
 30
0.0
  0
XRECORD
  5
195
102
{ACAD_REACTORS
330
17A
102
}
330
17A
100
AcDbXrecord
280
     1
 10
0.0
 20
0.0
 30
0.0
  0
XRECORD
  5
192
102
{ACAD_REACTORS
330
17A
102
}
330
17A
100
AcDbXrecord
280
     1
340
0
  0
XRECORD
  5
193
102
{ACAD_REACTORS
330
17A
102
}
330
17A
100
AcDbXrecord
280
     1
 70
     0
  0
XRECORD
  5
186
102
{ACAD_REACTORS
330
17A
102
}
330
17A
100
AcDbXrecord
280
     1
  1
{736FE46A-0C88-4C4C-9D2D-FE6B6E6B4EEC}
  0
DICTIONARYVAR
  5
178
102
{ACAD_REACTORS
330
177
102
}
330
177
100
DictionaryVariables
280
     0
  1
1
  0
ENDSEC
  0
EOF
