  0
SECTION
  2
HEADER
  9
$ACADVER
  1
AC1014
  9
$ACADMAINTVER
 70
     9
  9
$DWGCODEPAGE
  3
ANSI_932
  9
$INSBASE
 10
0.0
 20
0.0
 30
0.0
  9
$EXTMIN
 10
-21.47242505013616
 20
102.8111581268151
 30
-0.0000000349181948
  9
$EXTMAX
 10
194.343310745565
 20
380.4100349793558
 30
0.0000000814935747
  9
$LIMMIN
 10
-3.5
 20
57.5
  9
$LIMMAX
 10
254.0
 20
421.4999999999998
  9
$ORTHOMODE
 70
     0
  9
$REGENMODE
 70
     1
  9
$FILLMODE
 70
     1
  9
$QTEXTMODE
 70
     0
  9
$MIRRTEXT
 70
     1
  9
$DRAGMODE
 70
     2
  9
$LTSCALE
 40
1.0
  9
$OSMODE
 70
    37
  9
$ATTMODE
 70
     1
  9
$TEXTSIZE
 40
20.0
  9
$TRACEWID
 40
0.05
  9
$TEXTSTYLE
  7
STANDARD
  9
$CLAYER
  8
0
  9
$CELTYPE
  6
CONTINUOUS
  9
$CECOLOR
 62
   256
  9
$CELTSCALE
 40
1.0
  9
$DELOBJ
 70
     1
  9
$DISPSILH
 70
     0
  9
$DIMSCALE
 40
1.0
  9
$DIMASZ
 40
0.18
  9
$DIMEXO
 40
0.0625
  9
$DIMDLI
 40
0.38
  9
$DIMRND
 40
0.0
  9
$DIMDLE
 40
0.0
  9
$DIMEXE
 40
0.18
  9
$DIMTP
 40
0.0
  9
$DIMTM
 40
0.0
  9
$DIMTXT
 40
0.18
  9
$DIMCEN
 40
0.09
  9
$DIMTSZ
 40
0.0
  9
$DIMTOL
 70
     0
  9
$DIMLIM
 70
     0
  9
$DIMTIH
 70
     1
  9
$DIMTOH
 70
     1
  9
$DIMSE1
 70
     0
  9
$DIMSE2
 70
     0
  9
$DIMTAD
 70
     0
  9
$DIMZIN
 70
     0
  9
$DIMBLK
  1

  9
$DIMASO
 70
     1
  9
$DIMSHO
 70
     1
  9
$DIMPOST
  1

  9
$DIMAPOST
  1

  9
$DIMALT
 70
     0
  9
$DIMALTD
 70
     2
  9
$DIMALTF
 40
25.4
  9
$DIMLFAC
 40
1.0
  9
$DIMTOFL
 70
     0
  9
$DIMTVP
 40
0.0
  9
$DIMTIX
 70
     0
  9
$DIMSOXD
 70
     0
  9
$DIMSAH
 70
     0
  9
$DIMBLK1
  1

  9
$DIMBLK2
  1

  9
$DIMSTYLE
  2
STANDARD
  9
$DIMCLRD
 70
     0
  9
$DIMCLRE
 70
     0
  9
$DIMCLRT
 70
     0
  9
$DIMTFAC
 40
1.0
  9
$DIMGAP
 40
0.09
  9
$DIMJUST
 70
     0
  9
$DIMSD1
 70
     0
  9
$DIMSD2
 70
     0
  9
$DIMTOLJ
 70
     1
  9
$DIMTZIN
 70
     0
  9
$DIMALTZ
 70
     0
  9
$DIMALTTZ
 70
     0
  9
$DIMFIT
 70
     3
  9
$DIMUPT
 70
     0
  9
$DIMUNIT
 70
     2
  9
$DIMDEC
 70
     4
  9
$DIMTDEC
 70
     4
  9
$DIMALTU
 70
     2
  9
$DIMALTTD
 70
     2
  9
$DIMTXSTY
  7
STANDARD
  9
$DIMAUNIT
 70
     0
  9
$LUNITS
 70
     2
  9
$LUPREC
 70
     4
  9
$SKETCHINC
 40
0.1
  9
$FILLETRAD
 40
0.0
  9
$AUNITS
 70
     0
  9
$AUPREC
 70
     0
  9
$MENU
  1
.
  9
$ELEVATION
 40
0.0
  9
$PELEVATION
 40
0.0
  9
$THICKNESS
 40
0.0
  9
$LIMCHECK
 70
     0
  9
$BLIPMODE
 70
     0
  9
$CHAMFERA
 40
0.0
  9
$CHAMFERB
 40
0.0
  9
$CHAMFERC
 40
0.0
  9
$CHAMFERD
 40
0.0
  9
$SKPOLY
 70
     0
  9
$TDCREATE
 40
2452523.402957292
  9
$TDUPDATE
 40
2453319.562257002
  9
$TDINDWG
 40
0.1428203704
  9
$TDUSRTIMER
 40
0.1428151273
  9
$USRTIMER
 70
     1
  9
$ANGBASE
 50
0.0
  9
$ANGDIR
 70
     0
  9
$PDMODE
 70
     3
  9
$PDSIZE
 40
-1.0
  9
$PLINEWID
 40
0.0
  9
$COORDS
 70
     1
  9
$SPLFRAME
 70
     0
  9
$SPLINETYPE
 70
     6
  9
$SPLINESEGS
 70
     8
  9
$ATTDIA
 70
     0
  9
$ATTREQ
 70
     1
  9
$HANDLING
 70
-16383
  9
$HANDSEED
  5
6EEB
  9
$SURFTAB1
 70
     6
  9
$SURFTAB2
 70
     6
  9
$SURFTYPE
 70
     6
  9
$SURFU
 70
     6
  9
$SURFV
 70
     6
  9
$UCSNAME
  2

  9
$UCSORG
 10
0.0
 20
0.0
 30
0.0
  9
$UCSXDIR
 10
1.0
 20
0.0
 30
0.0
  9
$UCSYDIR
 10
0.0
 20
1.0
 30
0.0
  9
$PUCSNAME
  2

  9
$PUCSORG
 10
0.0
 20
0.0
 30
0.0
  9
$PUCSXDIR
 10
1.0
 20
0.0
 30
0.0
  9
$PUCSYDIR
 10
0.0
 20
1.0
 30
0.0
  9
$USERI1
 70
     0
  9
$USERI2
 70
     0
  9
$USERI3
 70
     0
  9
$USERI4
 70
     0
  9
$USERI5
 70
     0
  9
$USERR1
 40
0.0
  9
$USERR2
 40
0.0
  9
$USERR3
 40
0.0
  9
$USERR4
 40
0.0
  9
$USERR5
 40
0.0
  9
$WORLDVIEW
 70
     1
  9
$SHADEDGE
 70
     3
  9
$SHADEDIF
 70
    70
  9
$TILEMODE
 70
     1
  9
$MAXACTVP
 70
    64
  9
$PINSBASE
 10
0.0
 20
0.0
 30
0.0
  9
$PLIMCHECK
 70
     0
  9
$PEXTMIN
 10
1.000000000000000E+20
 20
1.000000000000000E+20
 30
1.000000000000000E+20
  9
$PEXTMAX
 10
-1.000000000000000E+20
 20
-1.000000000000000E+20
 30
-1.000000000000000E+20
  9
$PLIMMIN
 10
0.0
 20
0.0
  9
$PLIMMAX
 10
12.0
 20
9.0
  9
$UNITMODE
 70
     0
  9
$VISRETAIN
 70
     1
  9
$PLINEGEN
 70
     0
  9
$PSLTSCALE
 70
     1
  9
$TREEDEPTH
 70
  3020
  9
$PICKSTYLE
 70
     1
  9
$CMLSTYLE
  2
STANDARD
  9
$CMLJUST
 70
     0
  9
$CMLSCALE
 40
1.0
  9
$PROXYGRAPHICS
 70
     1
  9
$MEASUREMENT
 70
     0
  0
ENDSEC
  0
SECTION
  2
CLASSES
  0
CLASS
  1
ACDBDICTIONARYWDFLT
  2
AcDbDictionaryWithDefault
  3
AutoCAD 2000
 90
        0
280
     0
281
     0
  0
CLASS
  1
ACDBPLACEHOLDER
  2
AcDbPlaceHolder
  3
AutoCAD 2000
 90
        0
280
     0
281
     0
  0
CLASS
  1
LAYOUT
  2
AcDbLayout
  3
AutoCAD 2000
 90
        0
280
     0
281
     0
  0
CLASS
  1
DICTIONARYVAR
  2
AcDbDictionaryVar
  3
AutoCAD 2000
 90
        0
280
     0
281
     0
  0
CLASS
  1
LONG_TRANSACTION
  2
AcDbLongTransaction
  3
AutoCAD 2000
 90
        0
280
     0
281
     0
  0
CLASS
  1
LWPOLYLINE
  2
AcDbPolyline
  3
AutoCAD 2000
 90
        0
280
     0
281
     1
  0
CLASS
  1
HATCH
  2
AcDbHatch
  3
AutoCAD 2000
 90
        0
280
     0
281
     1
  0
CLASS
  1
XRECORD
  2
AcDbXrecord
  3
AutoCAD 2000
 90
        0
280
     0
281
     0
  0
CLASS
  1
LONG_TRANSACTION
  2
AcDbLongTransaction
  3
AutoCAD 2000
 90
        0
280
     0
281
     0
  0
CLASS
  1
LWPOLYLINE
  2
AcDbPolyline
  3
AutoCAD 2000
 90
        0
280
     0
281
     1
  0
CLASS
  1
HATCH
  2
AcDbHatch
  3
AutoCAD 2000
 90
        0
280
     0
281
     1
  0
CLASS
  1
XRECORD
  2
AcDbXrecord
  3
AutoCAD 2000
 90
        0
280
     0
281
     0
  0
CLASS
  1
LONG_TRANSACTION
  2
AcDbLongTransaction
  3
AutoCAD 2000
 90
        0
280
     0
281
     0
  0
CLASS
  1
LWPOLYLINE
  2
AcDbPolyline
  3
AutoCAD 2000
 90
        0
280
     0
281
     1
  0
CLASS
  1
HATCH
  2
AcDbHatch
  3
AutoCAD 2000
 90
        0
280
     0
281
     1
  0
CLASS
  1
XRECORD
  2
AcDbXrecord
  3
AutoCAD 2000
 90
        0
280
     0
281
     0
  0
ENDSEC
  0
SECTION
  2
TABLES
  0
TABLE
  2
VPORT
  5
6B4E
330
0
100
AcDbSymbolTable
 70
     4
  0
VPORT
  5
6EC8
330
6B4E
100
AcDbSymbolTableRecord
100
AcDbViewportTableRecord
  2
*ACTIVE
 70
     0
 10
0.0
 20
0.0
 11
1.0
 21
1.0
 12
113.629434638577
 22
224.7481270659791
 13
0.0
 23
0.0
 14
0.25
 24
0.25
 15
0.0
 25
0.0
 16
0.0
 26
0.0
 36
1.0
 17
0.0
 27
0.0
 37
0.0
 40
367.3583891224725
 41
1.863905325443786
 42
50.0
 43
0.0
 44
0.0
 50
0.0
 51
0.0
 71
     0
 72
   100
 73
     1
 74
     1
 75
     0
 76
     0
 77
     0
 78
     0
  0
ENDTAB
  0
TABLE
  2
LTYPE
  5
6B4B
330
0
100
AcDbSymbolTable
 70
     2
  0
LTYPE
  5
6B59
330
6B4B
100
AcDbSymbolTableRecord
100
AcDbLinetypeTableRecord
  2
BYBLOCK
 70
     0
  3

 72
    65
 73
     0
 40
0.0
  0
LTYPE
  5
6B5A
330
6B4B
100
AcDbSymbolTableRecord
100
AcDbLinetypeTableRecord
  2
BYLAYER
 70
     0
  3

 72
    65
 73
     0
 40
0.0
  0
LTYPE
  5
6B5B
330
6B4B
100
AcDbSymbolTableRecord
100
AcDbLinetypeTableRecord
  2
CONTINUOUS
 70
     0
  3
Solid line
 72
    65
 73
     0
 40
0.0
  0
LTYPE
  5
6B69
330
6B4B
100
AcDbSymbolTableRecord
100
AcDbLinetypeTableRecord
  2
DOT2
 70
     0
  3
Dot (.5x) .....................................
 72
    65
 73
     2
 40
3.174999999999998
 49
0.0
 74
     0
 49
-3.174999999999998
 74
     0
  0
ENDTAB
  0
TABLE
  2
LAYER
  5
6B48
330
0
100
AcDbSymbolTable
 70
     7
  0
LAYER
  5
6B56
330
6B48
100
AcDbSymbolTableRecord
100
AcDbLayerTableRecord
  2
0
 70
     0
 62
     7
  6
CONTINUOUS
  0
LAYER
  5
6B6A
330
6B48
100
AcDbSymbolTableRecord
100
AcDbLayerTableRecord
  2
7
 70
     0
 62
     7
  6
CONTINUOUS
  0
LAYER
  5
6B6B
330
6B48
100
AcDbSymbolTableRecord
100
AcDbLayerTableRecord
  2
基準
 70
     0
 62
     7
  6
CONTINUOUS
  0
LAYER
  5
6B6C
330
6B48
100
AcDbSymbolTableRecord
100
AcDbLayerTableRecord
  2
HOJYO
 70
     0
 62
     2
  6
CONTINUOUS
  0
LAYER
  5
6B6D
330
6B48
100
AcDbSymbolTableRecord
100
AcDbLayerTableRecord
  2
M
 70
     0
 62
     1
  6
CONTINUOUS
  0
LAYER
  5
6B6E
330
6B48
100
AcDbSymbolTableRecord
100
AcDbLayerTableRecord
  2
L0_
 70
     0
 62
     3
  6
CONTINUOUS
  0
LAYER
  5
6B6F
330
6B48
100
AcDbSymbolTableRecord
100
AcDbLayerTableRecord
  2
L200_
 70
     0
 62
     4
  6
DOT2
  0
ENDTAB
  0
TABLE
  2
STYLE
  5
6B49
330
0
100
AcDbSymbolTable
 70
     3
  0
STYLE
  5
6B57
330
6B49
100
AcDbSymbolTableRecord
100
AcDbTextStyleTableRecord
  2
STANDARD
 70
     0
 40
0.0
 41
0.8
 50
0.0
 71
     0
 42
20.0
  3
MONOTXT
  4
BIGFONT
  0
STYLE
  5
6B70
330
6B49
100
AcDbSymbolTableRecord
100
AcDbTextStyleTableRecord
  2
STD
 70
     0
 40
0.0
 41
1.0
 50
0.0
 71
     0
 42
0.0
  3
txt
  4

  0
STYLE
  5
6B71
330
6B49
100
AcDbSymbolTableRecord
100
AcDbTextStyleTableRecord
  2

 70
     1
 40
0.0
 41
1.0
 50
0.0
 71
     0
 42
2.5
  3
ltypeshp.shx
  4

  0
ENDTAB
  0
TABLE
  2
VIEW
  5
6B4C
330
0
100
AcDbSymbolTable
 70
     0
  0
ENDTAB
  0
TABLE
  2
UCS
  5
6B4D
330
0
100
AcDbSymbolTable
 70
     0
  0
ENDTAB
  0
TABLE
  2
APPID
  5
6B4F
330
0
100
AcDbSymbolTable
 70
     2
  0
APPID
  5
6B58
330
6B4F
100
AcDbSymbolTableRecord
100
AcDbRegAppTableRecord
  2
ACAD
 70
     0
  0
APPID
  5
6B72
330
6B4F
100
AcDbSymbolTableRecord
100
AcDbRegAppTableRecord
  2
CONTENTBLOCKICON
 70
     0
  0
ENDTAB
  0
TABLE
  2
DIMSTYLE
  5
6B50
330
0
100
AcDbSymbolTable
 70
     2
  0
DIMSTYLE
105
6B73
330
6B50
100
AcDbSymbolTableRecord
100
AcDbDimStyleTableRecord
  2
STANDARD
 70
     0
  3

  4

  5

  6

  7

 40
1.0
 41
0.18
 42
0.0625
 43
0.38
 44
0.18
 45
0.0
 46
0.0
 47
0.0
 48
0.0
140
0.18
141
0.09
142
0.0
143
25.4
144
1.0
145
0.0
146
1.0
147
0.09
 71
     0
 72
     0
 73
     1
 74
     1
 75
     0
 76
     0
 77
     0
 78
     0
170
     0
171
     2
172
     0
173
     0
174
     0
175
     0
176
     0
177
     0
178
     0
270
     2
271
     4
272
     4
273
     2
274
     2
340
6B57
275
     0
280
     0
281
     0
282
     0
283
     1
284
     0
285
     0
286
     0
287
     3
288
     0
  0
DIMSTYLE
105
6B74
330
6B50
100
AcDbSymbolTableRecord
100
AcDbDimStyleTableRecord
  2
ISO-25
 70
     0
  3

  4

  5

  6

  7

 40
1.0
 41
2.5
 42
0.625
 43
3.75
 44
1.25
 45
0.0
 46
0.0
 47
0.0
 48
0.0
140
2.5
141
2.5
142
0.0
143
0.03937007874016
144
1.0
145
0.0
146
1.0
147
0.625
 71
     0
 72
     0
 73
     0
 74
     0
 75
     0
 76
     0
 77
     1
 78
     8
170
     0
171
     3
172
     1
173
     0
174
     0
175
     0
176
     0
177
     0
178
     0
270
     2
271
     4
272
     4
273
     2
274
     2
340
6B57
275
     0
280
     0
281
     0
282
     0
283
     1
284
     0
285
     0
286
     0
287
     3
288
     0
  0
ENDTAB
  0
TABLE
  2
BLOCK_RECORD
  5
6B47
330
0
100
AcDbSymbolTable
 70
     5
  0
BLOCK_RECORD
  5
6B64
102
{ACAD_XDICTIONARY
360
6C6C
102
}
330
6B47
100
AcDbSymbolTableRecord
100
AcDbBlockTableRecord
  2
*MODEL_SPACE
  0
BLOCK_RECORD
  5
6B60
102
{ACAD_XDICTIONARY
360
6C6A
102
}
330
6B47
100
AcDbSymbolTableRecord
100
AcDbBlockTableRecord
  2
*PAPER_SPACE
  0
BLOCK_RECORD
  5
6B79
330
6B47
100
AcDbSymbolTableRecord
100
AcDbBlockTableRecord
  2
$MODEL_SPACE
  0
BLOCK_RECORD
  5
6B7C
330
6B47
100
AcDbSymbolTableRecord
100
AcDbBlockTableRecord
  2
$PAPER_SPACE
  0
BLOCK_RECORD
  5
6B7F
330
6B47
100
AcDbSymbolTableRecord
100
AcDbBlockTableRecord
  2
BASELINE
  0
BLOCK_RECORD
  5
6B8B
330
6B47
100
AcDbSymbolTableRecord
100
AcDbBlockTableRecord
  2
GRAPHBASE
1001
ACAD
1000
DesignCenter Data
1002
{
1070
     1
1070
     4
1002
}
  0
BLOCK_RECORD
  5
6C12
330
6B47
100
AcDbSymbolTableRecord
100
AcDbBlockTableRecord
  2
*U4
  0
ENDTAB
  0
ENDSEC
  0
SECTION
  2
BLOCKS
  0
BLOCK
  5
6B65
330
6B64
100
AcDbEntity
  8
0
100
AcDbBlockBegin
  2
*MODEL_SPACE
 70
     0
 10
0.0
 20
0.0
 30
0.0
  3
*MODEL_SPACE
  1

  0
ENDBLK
  5
6B66
330
6B64
100
AcDbEntity
  8
0
100
AcDbBlockEnd
  0
BLOCK
  5
6B61
330
6B60
100
AcDbEntity
 67
     1
  8
0
100
AcDbBlockBegin
  2
*PAPER_SPACE
 70
     0
 10
0.0
 20
0.0
 30
0.0
  3
*PAPER_SPACE
  1

  0
ENDBLK
  5
6B62
330
6B60
100
AcDbEntity
 67
     1
  8
0
100
AcDbBlockEnd
  0
BLOCK
  5
6B7A
330
6B79
100
AcDbEntity
  8
0
100
AcDbBlockBegin
  2
$MODEL_SPACE
 70
     0
 10
0.0
 20
0.0
 30
0.0
  3
$MODEL_SPACE
  1

  0
ENDBLK
  5
6B7B
330
6B79
100
AcDbEntity
  8
0
100
AcDbBlockEnd
  0
BLOCK
  5
6B7D
330
6B7C
100
AcDbEntity
  8
0
100
AcDbBlockBegin
  2
$PAPER_SPACE
 70
     0
 10
0.0
 20
0.0
 30
0.0
  3
$PAPER_SPACE
  1

  0
ENDBLK
  5
6B7E
330
6B7C
100
AcDbEntity
  8
0
100
AcDbBlockEnd
  0
BLOCK
  5
6B80
330
6B7F
100
AcDbEntity
  8
0
100
AcDbBlockBegin
  2
BASELINE
 70
     0
 10
0.0
 20
0.0
 30
0.0
  3
BASELINE
  1

  0
TEXT
  5
6B81
330
6B7F
100
AcDbEntity
  8
0
  6
CONTINUOUS
 62
     7
100
AcDbText
 10
1.000111000000021
 20
-17.18482499999999
 30
0.0
 40
2.444193999999999
  1
440V
 50
90.0
  7
STD
100
AcDbText
  0
TEXT
  5
6B82
330
6B7F
100
AcDbEntity
  8
0
  6
CONTINUOUS
 62
     7
100
AcDbText
 10
14.10008699999998
 20
-17.18482499999999
 30
0.0
 40
2.444193999999999
  1
220V
 50
90.0
  7
STD
100
AcDbText
  0
TEXT
  5
6B83
330
6B7F
100
AcDbEntity
  8
0
  6
CONTINUOUS
 62
     7
100
AcDbText
 10
27.682031
 20
-17.18482499999999
 30
0.0
 40
2.444193999999999
  1
110V
 50
90.0
  7
STD
100
AcDbText
  0
LINE
  5
6B84
330
6B7F
100
AcDbEntity
  8
基準
100
AcDbLine
 10
194.342487
 20
0.0
 30
0.0
 11
0.0
 21
0.0
 31
0.0
  0
LINE
  5
6B85
330
6B7F
100
AcDbEntity
  8
基準
100
AcDbLine
 10
0.0
 20
260.400299
 30
0.0
 11
0.0
 21
0.0
 31
0.0
  0
LINE
  5
6B86
330
6B7F
100
AcDbEntity
  8
基準
100
AcDbLine
 10
13.09997500000003
 20
260.400299
 30
0.0
 11
13.09997500000003
 21
0.0
 31
0.0
  0
TEXT
  5
6B87
330
6B7F
100
AcDbEntity
  8
0
  6
CONTINUOUS
 62
     7
100
AcDbText
 10
-21.45484899999999
 20
-1.003901000000003
 30
0.0
 40
2.444193999999999
  1
0.01S
 41
1.02
  7
STD
100
AcDbText
  0
LINE
  5
6B88
330
6B7F
100
AcDbEntity
  8
7
  6
CONTINUOUS
100
AcDbLine
 10
0.0
 20
0.0
 30
0.0
 11
0.0
 21
0.0
 31
0.0
  0
LINE
  5
6B89
330
6B7F
100
AcDbEntity
  8
基準
100
AcDbLine
 10
26.199951
 20
260.400299
 30
0.0
 11
26.199951
 21
0.0
 31
0.0
  0
ENDBLK
  5
6B8A
330
6B7F
100
AcDbEntity
  8
0
100
AcDbBlockEnd
  0
BLOCK
  5
6B8C
330
6B8B
100
AcDbEntity
  8
0
100
AcDbBlockBegin
  2
GRAPHBASE
 70
     0
 10
0.0
 20
0.0
 30
0.0
  3
GRAPHBASE
  1

  0
MTEXT
  5
6C7D
330
6B8B
100
AcDbEntity
  8
L0_
 62
     7
100
AcDbMText
 10
78.42846001519101
 20
-35.53907349729348
 30
0.0
 40
3.910714914164845
 41
0.0
 71
     1
 72
     2
  1
\W1.14;\fOsaka|b0|i0|c128;TERASAKI ELECTRIC CO.,LTD.
  7
STD
1001
ACAD
1000
MTEXTBEGIN
1070
    73
1070
     1
1070
    44
1040
1.0
1070
    74
1070
     0
1000
MTEXTEND
1000
MTEXTBEGIN
1070
    73
1070
     1
1070
    44
1040
1.0
1070
    74
1070
     0
1000
MTEXTEND
  0
MTEXT
  5
6C7E
330
6B8B
100
AcDbEntity
  8
L0_
 62
     7
100
AcDbMText
 10
43.39993489583348
 20
279.3113035643385
 30
0.0
 40
3.910714914164845
 41
0.0
 71
     1
 72
     2
  1
\W0.97;\fOsaka|b0|i0|c128;Time/Current characteristic curves
  7
STD
1001
ACAD
1000
MTEXTBEGIN
1070
    73
1070
     1
1070
    44
1040
1.0
1070
    74
1070
     0
1000
MTEXTEND
1000
MTEXTBEGIN
1070
    73
1070
     1
1070
    44
1040
1.0
1070
    74
1070
     0
1000
MTEXTEND
  0
MTEXT
  5
6C7F
330
6B8B
100
AcDbEntity
  8
L0_
 62
     7
100
AcDbMText
 10
0.0
 20
279.3113035643385
 30
0.0
 40
3.910714914164845
 41
0.0
 71
     1
 72
     2
  1
\W1.12;\fOsaka|b0|i0|c128;TemBreak2
  7
STD
1001
ACAD
1000
MTEXTBEGIN
1070
    73
1070
     1
1070
    44
1040
1.0
1070
    74
1070
     0
1000
MTEXTEND
1000
MTEXTBEGIN
1070
    73
1070
     1
1070
    44
1040
1.0
1070
    74
1070
     0
1000
MTEXTEND
  0
MTEXT
  5
6C80
330
6B8B
100
AcDbEntity
  8
L200_
 62
     7
100
AcDbMText
 10
91.78991834852439
 20
-22.24611679400732
 30
0.0
 40
2.444193535853943
 41
0.0
 71
     1
 72
     2
  1
\W1.09;\fOsaka|b0|i0|c128;secondary == 110,220,440V
  7
STD
1001
ACAD
1000
MTEXTBEGIN
1070
    73
1070
     1
1070
    44
1040
1.0
1070
    74
1070
     0
1000
MTEXTEND
1000
MTEXTBEGIN
1070
    73
1070
     1
1070
    44
1040
1.0
1070
    74
1070
     0
1000
MTEXTEND
  0
MTEXT
  5
6C81
330
6B8B
100
AcDbEntity
  8
L200_
 62
     7
100
AcDbMText
 10
91.78991834852439
 20
-18.38898788775708
 30
0.0
 40
2.444193535853943
 41
0.0
 71
     1
 72
     2
  1
\W1.08;\fOsaka|b0|i0|c128;primary ==== 6.6kV
  7
STD
1001
ACAD
1000
MTEXTBEGIN
1070
    73
1070
     1
1070
    44
1040
1.0
1070
    74
1070
     0
1000
MTEXTEND
1000
MTEXTBEGIN
1070
    73
1070
     1
1070
    44
1040
1.0
1070
    74
1070
     0
1000
MTEXTEND
  0
MTEXT
  5
6C82
330
6B8B
100
AcDbEntity
  8
L200_
 62
     7
100
AcDbMText
 10
179.7980848387119
 20
-10.78314887152791
 30
0.0
 40
2.444193535853943
 41
0.0
 71
     1
 72
     2
  1
\fOsaka|b0|i0|c128;30000
  7
STD
 11
0.0
 21
1.0
 31
0.0
1001
ACAD
1000
MTEXTBEGIN
1070
    73
1070
     1
1070
    44
1040
1.0
1070
    74
1070
     0
1000
MTEXTEND
1000
MTEXTBEGIN
1070
    73
1070
     1
1070
    44
1040
1.0
1070
    74
1070
     0
1000
MTEXTEND
  0
MTEXT
  5
6C83
330
6B8B
100
AcDbEntity
  8
L200_
 62
     7
100
AcDbMText
 10
172.1554850123232
 20
-10.78314887152791
 30
0.0
 40
2.444193535853943
 41
0.0
 71
     1
 72
     2
  1
\fOsaka|b0|i0|c128;20000
  7
STD
 11
0.0
 21
1.0
 31
0.0
1001
ACAD
1000
MTEXTBEGIN
1070
    73
1070
     1
1070
    44
1040
1.0
1070
    74
1070
     0
1000
MTEXTEND
1000
MTEXTBEGIN
1070
    73
1070
     1
1070
    44
1040
1.0
1070
    74
1070
     0
1000
MTEXTEND
  0
MTEXT
  5
6C84
330
6B8B
100
AcDbEntity
  8
L200_
 62
     7
100
AcDbMText
 10
159.0909939098924
 20
-10.78314887152791
 30
0.0
 40
2.444193535853943
 41
0.0
 71
     1
 72
     2
  1
\fOsaka|b0|i0|c128;10000
  7
STD
 11
0.0
 21
1.0
 31
0.0
1001
ACAD
1000
MTEXTBEGIN
1070
    73
1070
     1
1070
    44
1040
1.0
1070
    74
1070
     0
1000
MTEXTEND
1000
MTEXTBEGIN
1070
    73
1070
     1
1070
    44
1040
1.0
1070
    74
1070
     0
1000
MTEXTEND
  0
MTEXT
  5
6C85
330
6B8B
100
AcDbEntity
  8
L200_
 62
     7
100
AcDbMText
 10
154.885221340448
 20
-9.140871853298591
 30
0.0
 40
2.444193535853943
 41
0.0
 71
     1
 72
     2
  1
\fOsaka|b0|i0|c128;8000
  7
STD
 11
0.0
 21
1.0
 31
0.0
1001
ACAD
1000
MTEXTBEGIN
1070
    73
1070
     1
1070
    44
1040
1.0
1070
    74
1070
     0
1000
MTEXTEND
1000
MTEXTBEGIN
1070
    73
1070
     1
1070
    44
1040
1.0
1070
    74
1070
     0
1000
MTEXTEND
  0
MTEXT
  5
6C86
330
6B8B
100
AcDbEntity
  8
L200_
 62
     7
100
AcDbMText
 10
146.026502807462
 20
-9.140871853298591
 30
0.0
 40
2.444193535853943
 41
0.0
 71
     1
 72
     2
  1
\fOsaka|b0|i0|c128;5000
  7
STD
 11
0.0
 21
1.0
 31
0.0
1001
ACAD
1000
MTEXTBEGIN
1070
    73
1070
     1
1070
    44
1040
1.0
1070
    74
1070
     0
1000
MTEXTEND
1000
MTEXTBEGIN
1070
    73
1070
     1
1070
    44
1040
1.0
1070
    74
1070
     0
1000
MTEXTEND
  0
MTEXT
  5
6C87
330
6B8B
100
AcDbEntity
  8
L200_
 62
     7
100
AcDbMText
 10
136.3981499428787
 20
-9.140871853298591
 30
0.0
 40
2.444193535853943
 41
0.0
 71
     1
 72
     2
  1
\fOsaka|b0|i0|c128;3000
  7
STD
 11
0.0
 21
1.0
 31
0.0
1001
ACAD
1000
MTEXTBEGIN
1070
    73
1070
     1
1070
    44
1040
1.0
1070
    74
1070
     0
1000
MTEXTEND
1000
MTEXTBEGIN
1070
    73
1070
     1
1070
    44
1040
1.0
1070
    74
1070
     0
1000
MTEXTEND
  0
MTEXT
  5
6C88
330
6B8B
100
AcDbEntity
  8
L200_
 62
     7
100
AcDbMText
 10
128.7555501164898
 20
-9.140871853298591
 30
0.0
 40
2.444193535853943
 41
0.0
 71
     1
 72
     2
  1
\fOsaka|b0|i0|c128;2000
  7
STD
 11
0.0
 21
1.0
 31
0.0
1001
ACAD
1000
MTEXTBEGIN
1070
    73
1070
     1
1070
    44
1040
1.0
1070
    74
1070
     0
1000
MTEXTEND
1000
MTEXTBEGIN
1070
    73
1070
     1
1070
    44
1040
1.0
1070
    74
1070
     0
1000
MTEXTEND
  0
MTEXT
  5
6C89
330
6B8B
100
AcDbEntity
  8
L200_
 62
     7
100
AcDbMText
 10
115.6910590140592
 20
-9.140871853298591
 30
0.0
 40
2.444193535853943
 41
0.0
 71
     1
 72
     2
  1
\fOsaka|b0|i0|c128;1000
  7
STD
 11
0.0
 21
1.0
 31
0.0
1001
ACAD
1000
MTEXTBEGIN
1070
    73
1070
     1
1070
    44
1040
1.0
1070
    74
1070
     0
1000
MTEXTEND
1000
MTEXTBEGIN
1070
    73
1070
     1
1070
    44
1040
1.0
1070
    74
1070
     0
1000
MTEXTEND
  0
MTEXT
  5
6C8A
330
6B8B
100
AcDbEntity
  8
L200_
 62
     7
100
AcDbMText
 10
111.4852864446149
 20
-7.498250325520897
 30
0.0
 40
2.444193535853943
 41
0.0
 71
     1
 72
     2
  1
\fOsaka|b0|i0|c128;800
  7
STD
 11
0.0
 21
1.0
 31
0.0
1001
ACAD
1000
MTEXTBEGIN
1070
    73
1070
     1
1070
    44
1040
1.0
1070
    74
1070
     0
1000
MTEXTEND
1000
MTEXTBEGIN
1070
    73
1070
     1
1070
    44
1040
1.0
1070
    74
1070
     0
1000
MTEXTEND
  0
MTEXT
  5
6C8B
330
6B8B
100
AcDbEntity
  8
L200_
 62
     7
100
AcDbMText
 10
102.6265679116288
 20
-7.498250325520897
 30
0.0
 40
2.444193535853943
 41
0.0
 71
     1
 72
     2
  1
\fOsaka|b0|i0|c128;500
  7
STD
 11
0.0
 21
1.0
 31
0.0
1001
ACAD
1000
MTEXTBEGIN
1070
    73
1070
     1
1070
    44
1040
1.0
1070
    74
1070
     0
1000
MTEXTEND
1000
MTEXTBEGIN
1070
    73
1070
     1
1070
    44
1040
1.0
1070
    74
1070
     0
1000
MTEXTEND
  0
MTEXT
  5
6C8C
330
6B8B
100
AcDbEntity
  8
L200_
 62
     7
100
AcDbMText
 10
92.9982150470454
 20
-7.498250325520897
 30
0.0
 40
2.444193535853943
 41
0.0
 71
     1
 72
     2
  1
\fOsaka|b0|i0|c128;300
  7
STD
 11
0.0
 21
1.0
 31
0.0
1001
ACAD
1000
MTEXTBEGIN
1070
    73
1070
     1
1070
    44
1040
1.0
1070
    74
1070
     0
1000
MTEXTEND
1000
MTEXTBEGIN
1070
    73
1070
     1
1070
    44
1040
1.0
1070
    74
1070
     0
1000
MTEXTEND
  0
MTEXT
  5
6C8D
330
6B8B
100
AcDbEntity
  8
L200_
 62
     7
100
AcDbMText
 10
85.35561522065652
 20
-7.498250325520897
 30
0.0
 40
2.444193535853943
 41
0.0
 71
     1
 72
     2
  1
\fOsaka|b0|i0|c128;200
  7
STD
 11
0.0
 21
1.0
 31
0.0
1001
ACAD
1000
MTEXTBEGIN
1070
    73
1070
     1
1070
    44
1040
1.0
1070
    74
1070
     0
1000
MTEXTEND
1000
MTEXTBEGIN
1070
    73
1070
     1
1070
    44
1040
1.0
1070
    74
1070
     0
1000
MTEXTEND
  0
MTEXT
  5
6C8E
330
6B8B
100
AcDbEntity
  8
L200_
 62
     7
100
AcDbMText
 10
72.2911241182259
 20
-7.498250325520897
 30
0.0
 40
2.444193535853943
 41
0.0
 71
     1
 72
     2
  1
\fOsaka|b0|i0|c128;100
  7
STD
 11
0.0
 21
1.0
 31
0.0
1001
ACAD
1000
MTEXTBEGIN
1070
    73
1070
     1
1070
    44
1040
1.0
1070
    74
1070
     0
1000
MTEXTEND
1000
MTEXTBEGIN
1070
    73
1070
     1
1070
    44
1040
1.0
1070
    74
1070
     0
1000
MTEXTEND
  0
MTEXT
  5
6C8F
330
6B8B
100
AcDbEntity
  8
L200_
 62
     7
100
AcDbMText
 10
68.0851792940073
 20
-5.855628797743206
 30
0.0
 40
2.444193535853943
 41
0.0
 71
     1
 72
     2
  1
\fOsaka|b0|i0|c128;80
  7
STD
 11
0.0
 21
1.0
 31
0.0
1001
ACAD
1000
MTEXTBEGIN
1070
    73
1070
     1
1070
    44
1040
1.0
1070
    74
1070
     0
1000
MTEXTEND
1000
MTEXTBEGIN
1070
    73
1070
     1
1070
    44
1040
1.0
1070
    74
1070
     0
1000
MTEXTEND
  0
MTEXT
  5
6C90
330
6B8B
100
AcDbEntity
  8
L200_
 62
     7
100
AcDbMText
 10
59.2264607610212
 20
-5.855628797743206
 30
0.0
 40
2.444193535853943
 41
0.0
 71
     1
 72
     2
  1
\fOsaka|b0|i0|c128;50
  7
STD
 11
0.0
 21
1.0
 31
0.0
1001
ACAD
1000
MTEXTBEGIN
1070
    73
1070
     1
1070
    44
1040
1.0
1070
    74
1070
     0
1000
MTEXTEND
1000
MTEXTBEGIN
1070
    73
1070
     1
1070
    44
1040
1.0
1070
    74
1070
     0
1000
MTEXTEND
  0
MTEXT
  5
6C91
330
6B8B
100
AcDbEntity
  8
L200_
 62
     7
100
AcDbMText
 10
49.59810789643778
 20
-5.855628797743206
 30
0.0
 40
2.444193535853943
 41
0.0
 71
     1
 72
     2
  1
\fOsaka|b0|i0|c128;30
  7
STD
 11
0.0
 21
1.0
 31
0.0
1001
ACAD
1000
MTEXTBEGIN
1070
    73
1070
     1
1070
    44
1040
1.0
1070
    74
1070
     0
1000
MTEXTEND
1000
MTEXTBEGIN
1070
    73
1070
     1
1070
    44
1040
1.0
1070
    74
1070
     0
1000
MTEXTEND
  0
MTEXT
  5
6C92
330
6B8B
100
AcDbEntity
  8
L200_
 62
     7
100
AcDbMText
 10
41.9558525795975
 20
-5.855628797743206
 30
0.0
 40
2.444193535853943
 41
0.0
 71
     1
 72
     2
  1
\fOsaka|b0|i0|c128;20
  7
STD
 11
0.0
 21
1.0
 31
0.0
1001
ACAD
1000
MTEXTBEGIN
1070
    73
1070
     1
1070
    44
1040
1.0
1070
    74
1070
     0
1000
MTEXTEND
1000
MTEXTBEGIN
1070
    73
1070
     1
1070
    44
1040
1.0
1070
    74
1070
     0
1000
MTEXTEND
  0
MTEXT
  5
6C93
330
6B8B
100
AcDbEntity
  8
L200_
 62
     7
100
AcDbMText
 10
28.89101696761841
 20
-5.855628797743206
 30
0.0
 40
2.444193535853943
 41
0.0
 71
     1
 72
     2
  1
\fOsaka|b0|i0|c128;10
  7
STD
 11
0.0
 21
1.0
 31
0.0
1001
ACAD
1000
MTEXTBEGIN
1070
    73
1070
     1
1070
    44
1040
1.0
1070
    74
1070
     0
1000
MTEXTEND
1000
MTEXTBEGIN
1070
    73
1070
     1
1070
    44
1040
1.0
1070
    74
1070
     0
1000
MTEXTEND
  0
MTEXT
  5
6C94
330
6B8B
100
AcDbEntity
  8
L200_
 62
     7
100
AcDbMText
 10
24.68524439817389
 20
-4.213351779513913
 30
0.0
 40
2.444193535853943
 41
0.0
 71
     1
 72
     2
  1
\fOsaka|b0|i0|c128;8
  7
STD
 11
0.0
 21
1.0
 31
0.0
1001
ACAD
1000
MTEXTBEGIN
1070
    73
1070
     1
1070
    44
1040
1.0
1070
    74
1070
     0
1000
MTEXTEND
1000
MTEXTBEGIN
1070
    73
1070
     1
1070
    44
1040
1.0
1070
    74
1070
     0
1000
MTEXTEND
  0
MTEXT
  5
6C95
330
6B8B
100
AcDbEntity
  8
L200_
 62
     7
100
AcDbMText
 10
15.82652586518778
 20
-4.213351779513913
 30
0.0
 40
2.444193535853943
 41
0.0
 71
     1
 72
     2
  1
\fOsaka|b0|i0|c128;5
  7
STD
 11
0.0
 21
1.0
 31
0.0
1001
ACAD
1000
MTEXTBEGIN
1070
    73
1070
     1
1070
    44
1040
1.0
1070
    74
1070
     0
1000
MTEXTEND
1000
MTEXTBEGIN
1070
    73
1070
     1
1070
    44
1040
1.0
1070
    74
1070
     0
1000
MTEXTEND
  0
MTEXT
  5
6C96
330
6B8B
100
AcDbEntity
  8
L200_
 62
     7
100
AcDbMText
 10
6.198173000604383
 20
-4.213351779513913
 30
0.0
 40
2.444193535853943
 41
0.0
 71
     1
 72
     2
  1
\fOsaka|b0|i0|c128;3
  7
STD
 11
0.0
 21
1.0
 31
0.0
1001
ACAD
1000
MTEXTBEGIN
1070
    73
1070
     1
1070
    44
1040
1.0
1070
    74
1070
     0
1000
MTEXTEND
1000
MTEXTBEGIN
1070
    73
1070
     1
1070
    44
1040
1.0
1070
    74
1070
     0
1000
MTEXTEND
  0
MTEXT
  5
6C97
330
6B8B
100
AcDbEntity
  8
L200_
 62
     7
100
AcDbMText
 10
-1.332977986808798
 20
-4.213351779513913
 30
0.0
 40
2.444193535853943
 41
0.0
 71
     1
 72
     2
  1
\fOsaka|b0|i0|c128;2
  7
STD
 11
0.0
 21
1.0
 31
0.0
1001
ACAD
1000
MTEXTBEGIN
1070
    73
1070
     1
1070
    44
1040
1.0
1070
    74
1070
     0
1000
MTEXTEND
1000
MTEXTBEGIN
1070
    73
1070
     1
1070
    44
1040
1.0
1070
    74
1070
     0
1000
MTEXTEND
  0
MTEXT
  5
6C98
330
6B8B
100
AcDbEntity
  8
L200_
 62
     7
100
AcDbMText
 10
-8.931582302517282
 20
1.440292711201209
 30
0.0
 40
2.444193535853943
 41
0.0
 71
     1
 72
     2
  1
\W1.02;\fOsaka|b0|i0|c128;0.01
  7
STD
1001
ACAD
1000
MTEXTBEGIN
1070
    73
1070
     1
1070
    44
1040
1.0
1070
    74
1070
     0
1000
MTEXTEND
1000
MTEXTBEGIN
1070
    73
1070
     1
1070
    44
1040
1.0
1070
    74
1070
     0
1000
MTEXTEND
  0
MTEXT
  5
6C99
330
6B8B
100
AcDbEntity
  8
L200_
 62
     7
100
AcDbMText
 10
-9.508635796440898
 20
14.51167400460391
 30
0.0
 40
2.444193535853943
 41
0.0
 71
     1
 72
     2
  1
\W1.11;\fOsaka|b0|i0|c128;0.02
  7
STD
1001
ACAD
1000
MTEXTBEGIN
1070
    73
1070
     1
1070
    44
1040
1.0
1070
    74
1070
     0
1000
MTEXTEND
1000
MTEXTBEGIN
1070
    73
1070
     1
1070
    44
1040
1.0
1070
    74
1070
     0
1000
MTEXTEND
  0
MTEXT
  5
6C9A
330
6B8B
100
AcDbEntity
  8
L200_
 62
     7
100
AcDbMText
 10
-9.700872124565904
 20
22.15151775460378
 30
0.0
 40
2.444193535853943
 41
0.0
 71
     1
 72
     2
  1
\W1.14;\fOsaka|b0|i0|c128;0.03
  7
STD
1001
ACAD
1000
MTEXTBEGIN
1070
    73
1070
     1
1070
    44
1040
1.0
1070
    74
1070
     0
1000
MTEXTEND
1000
MTEXTBEGIN
1070
    73
1070
     1
1070
    44
1040
1.0
1070
    74
1070
     0
1000
MTEXTEND
  0
MTEXT
  5
6C9B
330
6B8B
100
AcDbEntity
  8
L200_
 62
     7
100
AcDbMText
 10
-9.700872124565904
 20
27.57409804974281
 30
0.0
 40
2.444193535853943
 41
0.0
 71
     1
 72
     2
  1
\W1.14;\fOsaka|b0|i0|c128;0.04
  7
STD
1001
ACAD
1000
MTEXTBEGIN
1070
    73
1070
     1
1070
    44
1040
1.0
1070
    74
1070
     0
1000
MTEXTEND
1000
MTEXTBEGIN
1070
    73
1070
     1
1070
    44
1040
1.0
1070
    74
1070
     0
1000
MTEXTEND
  0
MTEXT
  5
6C9C
330
6B8B
100
AcDbEntity
  8
L200_
 62
     7
100
AcDbMText
 10
-9.700872124565904
 20
31.7826266955762
 30
0.0
 40
2.444193535853943
 41
0.0
 71
     1
 72
     2
  1
\W1.14;\fOsaka|b0|i0|c128;0.05
  7
STD
1001
ACAD
1000
MTEXTBEGIN
1070
    73
1070
     1
1070
    44
1040
1.0
1070
    74
1070
     0
1000
MTEXTEND
1000
MTEXTBEGIN
1070
    73
1070
     1
1070
    44
1040
1.0
1070
    74
1070
     0
1000
MTEXTEND
  0
MTEXT
  5
6C9D
330
6B8B
100
AcDbEntity
  8
L200_
 62
     7
100
AcDbMText
 10
-6.816293674044999
 20
44.84918485529839
 30
0.0
 40
2.444193535853943
 41
0.0
 71
     1
 72
     2
  1
\W0.94;\fOsaka|b0|i0|c128;0.1
  7
STD
1001
ACAD
1000
MTEXTBEGIN
1070
    73
1070
     1
1070
    44
1040
1.0
1070
    74
1070
     0
1000
MTEXTEND
1000
MTEXTBEGIN
1070
    73
1070
     1
1070
    44
1040
1.0
1070
    74
1070
     0
1000
MTEXTEND
  0
MTEXT
  5
6C9E
330
6B8B
100
AcDbEntity
  8
L200_
 62
     7
100
AcDbMText
 10
-7.393174913194285
 20
57.90885282404833
 30
0.0
 40
2.444193535853943
 41
0.0
 71
     1
 72
     2
  1
\W1.05;\fOsaka|b0|i0|c128;0.2
  7
STD
1001
ACAD
1000
MTEXTBEGIN
1070
    73
1070
     1
1070
    44
1040
1.0
1070
    74
1070
     0
1000
MTEXTEND
1000
MTEXTBEGIN
1070
    73
1070
     1
1070
    44
1040
1.0
1070
    74
1070
     0
1000
MTEXTEND
  0
MTEXT
  5
6C9F
330
6B8B
100
AcDbEntity
  8
L200_
 62
     7
100
AcDbMText
 10
-7.585583496093589
 20
65.55145265043711
 30
0.0
 40
2.444193535853943
 41
0.0
 71
     1
 72
     2
  1
\W1.09;\fOsaka|b0|i0|c128;0.3
  7
STD
1001
ACAD
1000
MTEXTBEGIN
1070
    73
1070
     1
1070
    44
1040
1.0
1070
    74
1070
     0
1000
MTEXTEND
1000
MTEXTBEGIN
1070
    73
1070
     1
1070
    44
1040
1.0
1070
    74
1070
     0
1000
MTEXTEND
  0
MTEXT
  5
6CA0
330
6B8B
100
AcDbEntity
  8
L200_
 62
     7
100
AcDbMText
 10
-7.585583496093589
 20
70.97403294557614
 30
0.0
 40
2.444193535853943
 41
0.0
 71
     1
 72
     2
  1
\W1.09;\fOsaka|b0|i0|c128;0.4
  7
STD
1001
ACAD
1000
MTEXTBEGIN
1070
    73
1070
     1
1070
    44
1040
1.0
1070
    74
1070
     0
1000
MTEXTEND
1000
MTEXTBEGIN
1070
    73
1070
     1
1070
    44
1040
1.0
1070
    74
1070
     0
1000
MTEXTEND
  0
MTEXT
  5
6CA1
330
6B8B
100
AcDbEntity
  8
L200_
 62
     7
100
AcDbMText
 10
-7.585583496093589
 20
75.16258003759003
 30
0.0
 40
2.444193535853943
 41
0.0
 71
     1
 72
     2
  1
\W1.09;\fOsaka|b0|i0|c128;0.5
  7
STD
1001
ACAD
1000
MTEXTBEGIN
1070
    73
1070
     1
1070
    44
1040
1.0
1070
    74
1070
     0
1000
MTEXTEND
1000
MTEXTBEGIN
1070
    73
1070
     1
1070
    44
1040
1.0
1070
    74
1070
     0
1000
MTEXTEND
  0
MTEXT
  5
6CA2
330
6B8B
100
AcDbEntity
  8
L200_
 62
     7
100
AcDbMText
 10
-3.547070312499896
 20
88.23671740738173
 30
0.0
 40
2.444193535853943
 41
0.0
 71
     1
 72
     2
  1
\W0.82;\fOsaka|b0|i0|c128;1
  7
STD
1001
ACAD
1000
MTEXTBEGIN
1070
    73
1070
     1
1070
    44
1040
1.0
1070
    74
1070
     0
1000
MTEXTEND
1000
MTEXTBEGIN
1070
    73
1070
     1
1070
    44
1040
1.0
1070
    74
1070
     0
1000
MTEXTEND
  0
MTEXT
  5
6CA3
330
6B8B
100
AcDbEntity
  8
L200_
 62
     7
100
AcDbMText
 10
-4.123951551649184
 20
101.272958726826
 30
0.0
 40
2.444193535853943
 41
0.0
 71
     1
 72
     2
  1
\W1.17;\fOsaka|b0|i0|c128;2
  7
STD
1001
ACAD
1000
MTEXTBEGIN
1070
    73
1070
     1
1070
    44
1040
1.0
1070
    74
1070
     0
1000
MTEXTEND
1000
MTEXTBEGIN
1070
    73
1070
     1
1070
    44
1040
1.0
1070
    74
1070
     0
1000
MTEXTEND
  0
MTEXT
  5
6CA4
330
6B8B
100
AcDbEntity
  8
L200_
 62
     7
100
AcDbMText
 10
-4.316360134548516
 20
108.9517320558192
 30
0.0
 40
2.444193535853943
 41
0.0
 71
     1
 72
     2
  1
\W1.29;\fOsaka|b0|i0|c128;3
  7
STD
1001
ACAD
1000
MTEXTBEGIN
1070
    73
1070
     1
1070
    44
1040
1.0
1070
    74
1070
     0
1000
MTEXTEND
1000
MTEXTBEGIN
1070
    73
1070
     1
1070
    44
1040
1.0
1070
    74
1070
     0
1000
MTEXTEND
  0
MTEXT
  5
6CA5
330
6B8B
100
AcDbEntity
  8
L200_
 62
     7
100
AcDbMText
 10
-4.316360134548516
 20
114.374312350958
 30
0.0
 40
2.444193535853943
 41
0.0
 71
     1
 72
     2
  1
\W1.29;\fOsaka|b0|i0|c128;4
  7
STD
1001
ACAD
1000
MTEXTBEGIN
1070
    73
1070
     1
1070
    44
1040
1.0
1070
    74
1070
     0
1000
MTEXTEND
1000
MTEXTBEGIN
1070
    73
1070
     1
1070
    44
1040
1.0
1070
    74
1070
     0
1000
MTEXTEND
  0
MTEXT
  5
6CA6
330
6B8B
100
AcDbEntity
  8
L200_
 62
     7
100
AcDbMText
 10
-4.316360134548516
 20
118.5787068822081
 30
0.0
 40
2.444193535853943
 41
0.0
 71
     1
 72
     2
  1
\W1.29;\fOsaka|b0|i0|c128;5
  7
STD
1001
ACAD
1000
MTEXTBEGIN
1070
    73
1070
     1
1070
    44
1040
1.0
1070
    74
1070
     0
1000
MTEXTEND
1000
MTEXTBEGIN
1070
    73
1070
     1
1070
    44
1040
1.0
1070
    74
1070
     0
1000
MTEXTEND
  0
MTEXT
  5
6CA7
330
6B8B
100
AcDbEntity
  8
L200_
 62
     7
100
AcDbMText
 10
-5.662358940972097
 20
131.6445760228331
 30
0.0
 40
2.444193535853943
 41
0.0
 71
     1
 72
     2
  1
\W1.05;\fOsaka|b0|i0|c128;10
  7
STD
1001
ACAD
1000
MTEXTBEGIN
1070
    73
1070
     1
1070
    44
1040
1.0
1070
    74
1070
     0
1000
MTEXTEND
1000
MTEXTBEGIN
1070
    73
1070
     1
1070
    44
1040
1.0
1070
    74
1070
     0
1000
MTEXTEND
  0
MTEXT
  5
6CA8
330
6B8B
100
AcDbEntity
  8
L200_
 62
     7
100
AcDbMText
 10
-6.239412434895682
 20
144.7011434056455
 30
0.0
 40
2.444193535853943
 41
0.0
 71
     1
 72
     2
  1
\W1.23;\fOsaka|b0|i0|c128;20
  7
STD
1001
ACAD
1000
MTEXTBEGIN
1070
    73
1070
     1
1070
    44
1040
1.0
1070
    74
1070
     0
1000
MTEXTEND
1000
MTEXTBEGIN
1070
    73
1070
     1
1070
    44
1040
1.0
1070
    74
1070
     0
1000
MTEXTEND
  0
MTEXT
  5
6CA9
330
6B8B
100
AcDbEntity
  8
L200_
 62
     7
100
AcDbMText
 10
-6.431648763020688
 20
152.3516669516525
 30
0.0
 40
2.444193535853943
 41
0.0
 71
     1
 72
     2
  1
\W1.29;\fOsaka|b0|i0|c128;30
  7
STD
1001
ACAD
1000
MTEXTBEGIN
1070
    73
1070
     1
1070
    44
1040
1.0
1070
    74
1070
     0
1000
MTEXTEND
1000
MTEXTBEGIN
1070
    73
1070
     1
1070
    44
1040
1.0
1070
    74
1070
     0
1000
MTEXTEND
  0
MTEXT
  5
6CAA
330
6B8B
100
AcDbEntity
  8
L200_
 62
     7
100
AcDbMText
 10
-6.431648763020688
 20
157.774074992017
 30
0.0
 40
2.444193535853943
 41
0.0
 71
     1
 72
     2
  1
\W1.29;\fOsaka|b0|i0|c128;40
  7
STD
1001
ACAD
1000
MTEXTBEGIN
1070
    73
1070
     1
1070
    44
1040
1.0
1070
    74
1070
     0
1000
MTEXTEND
1000
MTEXTBEGIN
1070
    73
1070
     1
1070
    44
1040
1.0
1070
    74
1070
     0
1000
MTEXTEND
  0
MTEXT
  5
6CAB
330
6B8B
100
AcDbEntity
  8
L200_
 62
     7
100
AcDbMText
 10
-6.431648763020688
 20
161.9800198162358
 30
0.0
 40
2.444193535853943
 41
0.0
 71
     1
 72
     2
  1
\W1.29;\fOsaka|b0|i0|c128;50
  7
STD
1001
ACAD
1000
MTEXTBEGIN
1070
    73
1070
     1
1070
    44
1040
1.0
1070
    74
1070
     0
1000
MTEXTEND
1000
MTEXTBEGIN
1070
    73
1070
     1
1070
    44
1040
1.0
1070
    74
1070
     0
1000
MTEXTEND
  0
MTEXT
  5
6CAC
330
6B8B
100
AcDbEntity
  8
L200_
 62
     7
100
AcDbMText
 10
-6.431648763020688
 20
165.4070285510448
 30
0.0
 40
2.444193535853943
 41
0.0
 71
     1
 72
     2
  1
\W1.29;\fOsaka|b0|i0|c128;60
  7
STD
1001
ACAD
1000
MTEXTBEGIN
1070
    73
1070
     1
1070
    44
1040
1.0
1070
    74
1070
     0
1000
MTEXTEND
1000
MTEXTBEGIN
1070
    73
1070
     1
1070
    44
1040
1.0
1070
    74
1070
     0
1000
MTEXTEND
  0
MTEXT
  5
6CAD
330
6B8B
100
AcDbEntity
  8
L200_
 62
     7
100
AcDbMText
 10
-7.777819824218596
 20
175.0166056452289
 30
0.0
 40
2.444193535853943
 41
0.0
 71
     1
 72
     2
  1
\W1.13;\fOsaka|b0|i0|c128;100
  7
STD
1001
ACAD
1000
MTEXTBEGIN
1070
    73
1070
     1
1070
    44
1040
1.0
1070
    74
1070
     0
1000
MTEXTEND
1000
MTEXTBEGIN
1070
    73
1070
     1
1070
    44
1040
1.0
1070
    74
1070
     0
1000
MTEXTEND
  0
MTEXT
  5
6CAE
330
6B8B
100
AcDbEntity
  8
L200_
 62
     7
100
AcDbMText
 10
-8.354701063368111
 20
188.0997002632843
 30
0.0
 40
2.444193535853943
 41
0.0
 71
     1
 72
     2
  1
\W1.25;\fOsaka|b0|i0|c128;200
  7
STD
1001
ACAD
1000
MTEXTBEGIN
1070
    73
1070
     1
1070
    44
1040
1.0
1070
    74
1070
     0
1000
MTEXTEND
1000
MTEXTBEGIN
1070
    73
1070
     1
1070
    44
1040
1.0
1070
    74
1070
     0
1000
MTEXTEND
  0
MTEXT
  5
6CAF
330
6B8B
100
AcDbEntity
  8
L200_
 62
     7
100
AcDbMText
 10
-8.547109646267271
 20
195.75177410226
 30
0.0
 40
2.444193535853943
 41
0.0
 71
     1
 72
     2
  1
\W1.29;\fOsaka|b0|i0|c128;300
  7
STD
1001
ACAD
1000
MTEXTBEGIN
1070
    73
1070
     1
1070
    44
1040
1.0
1070
    74
1070
     0
1000
MTEXTEND
1000
MTEXTBEGIN
1070
    73
1070
     1
1070
    44
1040
1.0
1070
    74
1070
     0
1000
MTEXTEND
  0
MTEXT
  5
6CB0
330
6B8B
100
AcDbEntity
  8
L200_
 62
     7
100
AcDbMText
 10
-8.547109646267271
 20
201.1740098878505
 30
0.0
 40
2.444193535853943
 41
0.0
 71
     1
 72
     2
  1
\W1.29;\fOsaka|b0|i0|c128;400
  7
STD
1001
ACAD
1000
MTEXTBEGIN
1070
    73
1070
     1
1070
    44
1040
1.0
1070
    74
1070
     0
1000
MTEXTEND
1000
MTEXTBEGIN
1070
    73
1070
     1
1070
    44
1040
1.0
1070
    74
1070
     0
1000
MTEXTEND
  0
MTEXT
  5
6CB1
330
6B8B
100
AcDbEntity
  8
L200_
 62
     7
100
AcDbMText
 10
-8.547109646267271
 20
205.3885674507844
 30
0.0
 40
2.444193535853943
 41
0.0
 71
     1
 72
     2
  1
\W1.29;\fOsaka|b0|i0|c128;500
  7
STD
1001
ACAD
1000
MTEXTBEGIN
1070
    73
1070
     1
1070
    44
1040
1.0
1070
    74
1070
     0
1000
MTEXTEND
1000
MTEXTBEGIN
1070
    73
1070
     1
1070
    44
1040
1.0
1070
    74
1070
     0
1000
MTEXTEND
  0
MTEXT
  5
6CB2
330
6B8B
100
AcDbEntity
  8
L200_
 62
     7
100
AcDbMText
 10
-9.89328070746518
 20
218.4428955215309
 30
0.0
 40
2.444193535853943
 41
0.0
 71
     1
 72
     2
  1
\W1.17;\fOsaka|b0|i0|c128;1000
  7
STD
1001
ACAD
1000
MTEXTBEGIN
1070
    73
1070
     1
1070
    44
1040
1.0
1070
    74
1070
     0
1000
MTEXTEND
1000
MTEXTBEGIN
1070
    73
1070
     1
1070
    44
1040
1.0
1070
    74
1070
     0
1000
MTEXTEND
  0
MTEXT
  5
6CB3
330
6B8B
100
AcDbEntity
  8
L200_
 62
     7
100
AcDbMText
 10
-10.47016194661461
 20
231.509281426479
 30
0.0
 40
2.444193535853943
 41
0.0
 71
     1
 72
     2
  1
\W1.26;\fOsaka|b0|i0|c128;2000
  7
STD
1001
ACAD
1000
MTEXTBEGIN
1070
    73
1070
     1
1070
    44
1040
1.0
1070
    74
1070
     0
1000
MTEXTEND
1000
MTEXTBEGIN
1070
    73
1070
     1
1070
    44
1040
1.0
1070
    74
1070
     0
1000
MTEXTEND
  0
MTEXT
  5
6CB4
330
6B8B
100
AcDbEntity
  8
L200_
 62
     7
100
AcDbMText
 10
-10.66239827473961
 20
239.1517089980935
 30
0.0
 40
2.444193535853943
 41
0.0
 71
     1
 72
     2
  1
\W1.29;\fOsaka|b0|i0|c128;3000
  7
STD
1001
ACAD
1000
MTEXTBEGIN
1070
    73
1070
     1
1070
    44
1040
1.0
1070
    74
1070
     0
1000
MTEXTEND
1000
MTEXTBEGIN
1070
    73
1070
     1
1070
    44
1040
1.0
1070
    74
1070
     0
1000
MTEXTEND
  0
MTEXT
  5
6CB5
330
6B8B
100
AcDbEntity
  8
L200_
 62
     7
100
AcDbMText
 10
-10.66239827473961
 20
244.5741170384581
 30
0.0
 40
2.444193535853943
 41
0.0
 71
     1
 72
     2
  1
\W1.29;\fOsaka|b0|i0|c128;4000
  7
STD
1001
ACAD
1000
MTEXTBEGIN
1070
    73
1070
     1
1070
    44
1040
1.0
1070
    74
1070
     0
1000
MTEXTEND
1000
MTEXTBEGIN
1070
    73
1070
     1
1070
    44
1040
1.0
1070
    74
1070
     0
1000
MTEXTEND
  0
MTEXT
  5
6CB6
330
6B8B
100
AcDbEntity
  8
L200_
 62
     7
100
AcDbMText
 10
-10.66239827473961
 20
248.7800618626768
 30
0.0
 40
2.444193535853943
 41
0.0
 71
     1
 72
     2
  1
\W1.29;\fOsaka|b0|i0|c128;5000
  7
STD
1001
ACAD
1000
MTEXTBEGIN
1070
    73
1070
     1
1070
    44
1040
1.0
1070
    74
1070
     0
1000
MTEXTEND
1000
MTEXTBEGIN
1070
    73
1070
     1
1070
    44
1040
1.0
1070
    74
1070
     0
1000
MTEXTEND
  0
MTEXT
  5
6CB7
330
6B8B
100
AcDbEntity
  8
L200_
 62
     7
100
AcDbMText
 10
-12.00856933593749
 20
261.8447252198815
 30
0.0
 40
2.444193535853943
 41
0.0
 71
     1
 72
     2
  1
\W1.19;\fOsaka|b0|i0|c128;10000
  7
STD
1001
ACAD
1000
MTEXTBEGIN
1070
    73
1070
     1
1070
    44
1040
1.0
1070
    74
1070
     0
1000
MTEXTEND
1000
MTEXTBEGIN
1070
    73
1070
     1
1070
    44
1040
1.0
1070
    74
1070
     0
1000
MTEXTEND
  0
MTEXT
  5
6CB8
330
6B8B
100
AcDbEntity
  8
L200_
 62
     7
100
AcDbMText
 10
-15.88897723853579
 20
88.3928819444443
 30
0.0
 40
3.421865693396991
 41
0.0
 71
     1
 72
     2
  1
\fOsaka|b0|i0|c128;Operating time (sec)
  7
STD
 11
0.0
 21
1.0
 31
0.0
1001
ACAD
1000
MTEXTBEGIN
1070
    73
1070
     1
1070
    44
1040
1.0
1070
    74
1070
     0
1000
MTEXTEND
1000
MTEXTBEGIN
1070
    73
1070
     1
1070
    44
1040
1.0
1070
    74
1070
     0
1000
MTEXTEND
  0
MTEXT
  5
6CB9
330
6B8B
100
AcDbEntity
  8
L200_
 62
     7
100
AcDbMText
 10
32.42523871527776
 20
-17.48572979271409
 30
0.0
 40
3.421865693396991
 41
0.0
 71
     1
 72
     2
  1
\W0.96;\fOsaka|b0|i0|c128;Current (A)
  7
STD
1001
ACAD
1000
MTEXTBEGIN
1070
    73
1070
     1
1070
    44
1040
1.0
1070
    74
1070
     0
1000
MTEXTEND
1000
MTEXTBEGIN
1070
    73
1070
     1
1070
    44
1040
1.0
1070
    74
1070
     0
1000
MTEXTEND
  0
LINE
  5
6CBA
330
6B8B
100
AcDbEntity
  8
L200_
 62
     4
100
AcDbLine
 10
173.5999118381077
 20
230.0651991102431
 30
0.0
 11
173.5999118381077
 21
0.0
 31
0.0
  0
LINE
  5
6CBB
330
6B8B
100
AcDbEntity
  8
L200_
 62
     4
100
AcDbLine
 10
160.5354207356771
 20
230.0651991102431
 30
0.0
 11
160.5354207356771
 21
0.0
 31
0.0
  0
LINE
  5
6CBC
330
6B8B
100
AcDbEntity
  8
L200_
 62
     4
100
AcDbLine
 10
156.3296481662326
 20
230.0651991102431
 30
0.0
 11
156.3296481662326
 21
0.0
 31
0.0
  0
LINE
  5
6CBD
330
6B8B
100
AcDbEntity
  8
L200_
 62
     4
100
AcDbLine
 10
147.4709296332465
 20
230.0651991102431
 30
0.0
 11
147.4709296332465
 21
0.0
 31
0.0
  0
LINE
  5
6CBE
330
6B8B
100
AcDbEntity
  8
L200_
 62
     4
100
AcDbLine
 10
137.8425767686632
 20
230.0651991102431
 30
0.0
 11
137.8425767686632
 21
0.0
 31
0.0
  0
LINE
  5
6CBF
330
6B8B
100
AcDbEntity
  8
L200_
 62
     4
100
AcDbLine
 10
130.1999769422743
 20
230.0651991102431
 30
0.0
 11
130.1999769422743
 21
0.0
 31
0.0
  0
LINE
  5
6CC0
330
6B8B
100
AcDbEntity
  8
L200_
 62
     4
100
AcDbLine
 10
117.1354858398437
 20
237.7076266818576
 30
0.0
 11
0.0
 21
237.7076266818576
 31
0.0
  0
LINE
  5
6CC1
330
6B8B
100
AcDbEntity
  8
L200_
 62
     4
100
AcDbLine
 10
117.1354858398437
 20
243.1298624674476
 30
0.0
 11
0.0
 21
243.1298624674476
 31
0.0
  0
LINE
  5
6CC2
330
6B8B
100
AcDbEntity
  8
L200_
 62
     4
100
AcDbLine
 10
117.1354858398437
 20
247.3358072916666
 30
0.0
 11
0.0
 21
247.3358072916666
 31
0.0
  0
LINE
  5
6CC3
330
6B8B
100
AcDbEntity
  8
L200_
 62
     4
100
AcDbLine
 10
117.1354858398437
 20
250.7722900390624
 30
0.0
 11
0.0
 21
250.7722900390624
 31
0.0
  0
LINE
  5
6CC4
330
6B8B
100
AcDbEntity
  8
L200_
 62
     4
100
AcDbLine
 10
181.2425116644966
 20
260.4004706488714
 30
0.0
 11
0.0
 21
260.4004706488714
 31
0.0
  0
LINE
  5
6CC5
330
6B8B
100
AcDbEntity
  8
L200_
 62
     4
100
AcDbLine
 10
181.2425116644966
 20
256.1945258246526
 30
0.0
 11
0.0
 21
256.1945258246526
 31
0.0
  0
LINE
  5
6CC6
330
6B8B
100
AcDbEntity
  8
L200_
 62
     4
100
AcDbLine
 10
181.2425116644966
 20
230.0651991102431
 30
0.0
 11
0.0
 21
230.0651991102431
 31
0.0
  0
LINE
  5
6CC7
330
6B8B
100
AcDbEntity
  8
L200_
 62
     4
100
AcDbLine
 10
181.2425116644966
 20
217.0005357530381
 30
0.0
 11
0.0
 21
217.0005357530381
 31
0.0
  0
LINE
  5
6CC8
330
6B8B
100
AcDbEntity
  8
L200_
 62
     4
100
AcDbLine
 10
181.2425116644966
 20
212.7945909288194
 30
0.0
 11
0.0
 21
212.7945909288194
 31
0.0
  0
LINE
  5
6CC9
330
6B8B
100
AcDbEntity
  8
L200_
 62
     4
100
AcDbLine
 10
181.2425116644966
 20
207.3721828884548
 30
0.0
 11
0.0
 21
207.3721828884548
 31
0.0
  0
LINE
  5
6CCA
330
6B8B
100
AcDbEntity
  8
L200_
 62
     4
100
AcDbLine
 10
181.2425116644966
 20
203.9357001410589
 30
0.0
 11
0.0
 21
203.9357001410589
 31
0.0
  0
LINE
  5
6CCB
330
6B8B
100
AcDbEntity
  8
L200_
 62
     4
100
AcDbLine
 10
181.2425116644966
 20
199.7299275716146
 30
0.0
 11
0.0
 21
199.7299275716146
 31
0.0
  0
LINE
  5
6CCC
330
6B8B
100
AcDbEntity
  8
L200_
 62
     4
100
AcDbLine
 10
181.2425116644966
 20
194.30751953125
 30
0.0
 11
0.0
 21
194.30751953125
 31
0.0
  0
LINE
  5
6CCD
330
6B8B
100
AcDbEntity
  8
L200_
 62
     4
100
AcDbLine
 10
181.2425116644966
 20
186.6652642144096
 30
0.0
 11
0.0
 21
186.6652642144096
 31
0.0
  0
LINE
  5
6CCE
330
6B8B
100
AcDbEntity
  8
L200_
 62
     4
100
AcDbLine
 10
181.2425116644966
 20
173.6004286024305
 30
0.0
 11
0.0
 21
173.6004286024305
 31
0.0
  0
LINE
  5
6CCF
330
6B8B
100
AcDbEntity
  8
L200_
 62
     4
100
AcDbLine
 10
181.2425116644966
 20
169.394656032986
 30
0.0
 11
0.0
 21
169.394656032986
 31
0.0
  0
LINE
  5
6CD0
330
6B8B
100
AcDbEntity
  8
L200_
 62
     4
100
AcDbLine
 10
181.2425116644966
 20
163.9722479926216
 30
0.0
 11
0.0
 21
163.9722479926216
 31
0.0
  0
LINE
  5
6CD1
330
6B8B
100
AcDbEntity
  8
L200_
 62
     4
100
AcDbLine
 10
181.2425116644966
 20
160.5357652452257
 30
0.0
 11
0.0
 21
160.5357652452257
 31
0.0
  0
LINE
  5
6CD2
330
6B8B
100
AcDbEntity
  8
L200_
 62
     4
100
AcDbLine
 10
181.2425116644966
 20
156.329820421007
 30
0.0
 11
0.0
 21
156.329820421007
 31
0.0
  0
LINE
  5
6CD3
330
6B8B
100
AcDbEntity
  8
L200_
 62
     4
100
AcDbLine
 10
181.2425116644966
 20
150.9075846354164
 30
0.0
 11
0.0
 21
150.9075846354164
 31
0.0
  0
LINE
  5
6CD4
330
6B8B
100
AcDbEntity
  8
L200_
 62
     4
100
AcDbLine
 10
181.2425116644966
 20
143.265157063802
 30
0.0
 11
0.0
 21
143.265157063802
 31
0.0
  0
LINE
  5
6CD5
330
6B8B
100
AcDbEntity
  8
L200_
 62
     4
100
AcDbLine
 10
181.2425116644966
 20
130.200493706597
 30
0.0
 11
0.0
 21
130.200493706597
 31
0.0
  0
LINE
  5
6CD6
330
6B8B
100
AcDbEntity
  8
L200_
 62
     4
100
AcDbLine
 10
181.2425116644966
 20
125.9945488823783
 30
0.0
 11
0.0
 21
125.9945488823783
 31
0.0
  0
LINE
  5
6CD7
330
6B8B
100
AcDbEntity
  8
L200_
 62
     4
100
AcDbLine
 10
181.2425116644966
 20
120.5723130967881
 30
0.0
 11
0.0
 21
120.5723130967881
 31
0.0
  0
LINE
  5
6CD8
330
6B8B
100
AcDbEntity
  8
L200_
 62
     4
100
AcDbLine
 10
181.2425116644966
 20
117.1356580946181
 30
0.0
 11
0.0
 21
117.1356580946181
 31
0.0
  0
LINE
  5
6CD9
330
6B8B
100
AcDbEntity
  8
L200_
 62
     4
100
AcDbLine
 10
181.2425116644966
 20
112.9298855251734
 30
0.0
 11
0.0
 21
112.9298855251734
 31
0.0
  0
LINE
  5
6CDA
330
6B8B
100
AcDbEntity
  8
L200_
 62
     4
100
AcDbLine
 10
181.2425116644966
 20
107.5073052300346
 30
0.0
 11
0.0
 21
107.5073052300346
 31
0.0
  0
LINE
  5
6CDB
330
6B8B
100
AcDbEntity
  8
L200_
 62
     4
100
AcDbLine
 10
181.2425116644966
 20
99.86539442274313
 30
0.0
 11
0.0
 21
99.86539442274313
 31
0.0
  0
LINE
  5
6CDC
330
6B8B
100
AcDbEntity
  8
L200_
 62
     4
100
AcDbLine
 10
181.2425116644966
 20
86.80055881076389
 30
0.0
 11
0.0
 21
86.80055881076389
 31
0.0
  0
LINE
  5
6CDD
330
6B8B
100
AcDbEntity
  8
L200_
 62
     4
100
AcDbLine
 10
181.2425116644966
 20
82.59409722222221
 30
0.0
 11
0.0
 21
82.59409722222221
 31
0.0
  0
LINE
  5
6CDE
330
6B8B
100
AcDbEntity
  8
L200_
 62
     4
100
AcDbLine
 10
181.2425116644966
 20
77.17220594618066
 30
0.0
 11
0.0
 21
77.17220594618066
 31
0.0
  0
LINE
  5
6CDF
330
6B8B
100
AcDbEntity
  8
L200_
 62
     4
100
AcDbLine
 10
181.2425116644966
 20
73.73537868923614
 30
0.0
 11
0.0
 21
73.73537868923614
 31
0.0
  0
LINE
  5
6CE0
330
6B8B
100
AcDbEntity
  8
L200_
 62
     4
100
AcDbLine
 10
181.2425116644966
 20
69.52960611979165
 30
0.0
 11
0.0
 21
69.52960611979165
 31
0.0
  0
LINE
  5
6CE1
330
6B8B
100
AcDbEntity
  8
L200_
 62
     4
100
AcDbLine
 10
181.2425116644966
 20
64.1070258246528
 30
0.0
 11
0.0
 21
64.1070258246528
 31
0.0
  0
LINE
  5
6CE2
330
6B8B
100
AcDbEntity
  8
L200_
 62
     4
100
AcDbLine
 10
181.2425116644966
 20
56.46511501736114
 30
0.0
 11
0.0
 21
56.46511501736114
 31
0.0
  0
LINE
  5
6CE3
330
6B8B
100
AcDbEntity
  8
L200_
 62
     4
100
AcDbLine
 10
181.2425116644966
 20
43.40062391493041
 30
0.0
 11
0.0
 21
43.40062391493041
 31
0.0
  0
LINE
  5
6CE4
330
6B8B
100
AcDbEntity
  8
L200_
 62
     4
100
AcDbLine
 10
181.2425116644966
 20
39.19416232638893
 30
0.0
 11
0.0
 21
39.19416232638893
 31
0.0
  0
LINE
  5
6CE5
330
6B8B
100
AcDbEntity
  8
L200_
 62
     4
100
AcDbLine
 10
181.2425116644966
 20
33.77227105034723
 30
0.0
 11
0.0
 21
33.77227105034723
 31
0.0
  0
LINE
  5
6CE6
330
6B8B
100
AcDbEntity
  8
L200_
 62
     4
100
AcDbLine
 10
181.2425116644966
 20
30.3354437934028
 30
0.0
 11
0.0
 21
30.3354437934028
 31
0.0
  0
LINE
  5
6CE7
330
6B8B
100
AcDbEntity
  8
L200_
 62
     4
100
AcDbLine
 10
181.2425116644966
 20
26.12967122395832
 30
0.0
 11
0.0
 21
26.12967122395832
 31
0.0
  0
LINE
  5
6CE8
330
6B8B
100
AcDbEntity
  8
L200_
 62
     4
100
AcDbLine
 10
181.2425116644966
 20
20.7070909288193
 30
0.0
 11
0.0
 21
20.7070909288193
 31
0.0
  0
LINE
  5
6CE9
330
6B8B
100
AcDbEntity
  8
L200_
 62
     4
100
AcDbLine
 10
181.2425116644966
 20
13.06518012152781
 30
0.0
 11
0.0
 21
13.06518012152781
 31
0.0
  0
LINE
  5
6CEA
330
6B8B
100
AcDbEntity
  8
L200_
 62
     7
100
AcDbLine
 10
181.2425116644966
 20
0.0
 30
0.0
 11
0.0
 21
0.0
 31
0.0
  0
LINE
  5
6CEB
330
6B8B
100
AcDbEntity
  8
L200_
 62
     4
100
AcDbLine
 10
181.2425116644966
 20
260.4004706488714
 30
0.0
 11
181.2425116644966
 21
0.0
 31
0.0
  0
LINE
  5
6CEC
330
6B8B
100
AcDbEntity
  8
L200_
 62
     4
100
AcDbLine
 10
173.5999118381077
 20
260.4004706488714
 30
0.0
 11
173.5999118381077
 21
256.1945258246526
 31
0.0
  0
LINE
  5
6CED
330
6B8B
100
AcDbEntity
  8
L200_
 62
     4
100
AcDbLine
 10
160.5354207356771
 20
260.4004706488714
 30
0.0
 11
160.5354207356771
 21
256.1945258246526
 31
0.0
  0
LINE
  5
6CEE
330
6B8B
100
AcDbEntity
  8
L200_
 62
     4
100
AcDbLine
 10
156.3296481662326
 20
260.4004706488714
 30
0.0
 11
156.3296481662326
 21
256.1945258246526
 31
0.0
  0
LINE
  5
6CEF
330
6B8B
100
AcDbEntity
  8
L200_
 62
     4
100
AcDbLine
 10
147.4709296332465
 20
260.4004706488714
 30
0.0
 11
147.4709296332465
 21
256.1945258246526
 31
0.0
  0
LINE
  5
6CF0
330
6B8B
100
AcDbEntity
  8
L200_
 62
     4
100
AcDbLine
 10
137.8425767686632
 20
260.4004706488714
 30
0.0
 11
137.8425767686632
 21
256.1945258246526
 31
0.0
  0
LINE
  5
6CF1
330
6B8B
100
AcDbEntity
  8
L200_
 62
     4
100
AcDbLine
 10
130.1999769422743
 20
260.4004706488714
 30
0.0
 11
130.1999769422743
 21
256.1945258246526
 31
0.0
  0
LINE
  5
6CF2
330
6B8B
100
AcDbEntity
  8
L200_
 62
     4
100
AcDbLine
 10
117.1354858398437
 20
260.4004706488714
 30
0.0
 11
117.1354858398437
 21
0.0
 31
0.0
  0
LINE
  5
6CF3
330
6B8B
100
AcDbEntity
  8
L200_
 62
     4
100
AcDbLine
 10
112.9297132703994
 20
260.4004706488714
 30
0.0
 11
112.9297132703994
 21
0.0
 31
0.0
  0
LINE
  5
6CF4
330
6B8B
100
AcDbEntity
  8
L200_
 62
     4
100
AcDbLine
 10
104.0703057183161
 20
260.4004706488714
 30
0.0
 11
104.0703057183161
 21
0.0
 31
0.0
  0
LINE
  5
6CF5
330
6B8B
100
AcDbEntity
  8
L200_
 62
     4
100
AcDbLine
 10
94.44264187283001
 20
260.4004706488714
 30
0.0
 11
94.44264187283001
 21
0.0
 31
0.0
  0
LINE
  5
6CF6
330
6B8B
100
AcDbEntity
  8
L200_
 62
     4
100
AcDbLine
 10
86.80004204644102
 20
260.4004706488714
 30
0.0
 11
86.80004204644102
 21
0.0
 31
0.0
  0
LINE
  5
6CF7
330
6B8B
100
AcDbEntity
  8
L200_
 62
     4
100
AcDbLine
 10
73.73555094401059
 20
260.4004706488714
 30
0.0
 11
73.73555094401059
 21
0.0
 31
0.0
  0
LINE
  5
6CF8
330
6B8B
100
AcDbEntity
  8
L200_
 62
     4
100
AcDbLine
 10
69.52960611979179
 20
260.4004706488714
 30
0.0
 11
69.52960611979179
 21
0.0
 31
0.0
  0
LINE
  5
6CF9
330
6B8B
100
AcDbEntity
  8
L200_
 62
     4
100
AcDbLine
 10
60.670543077257
 20
260.4004706488714
 30
0.0
 11
60.670543077257
 21
0.0
 31
0.0
  0
LINE
  5
6CFA
330
6B8B
100
AcDbEntity
  8
L200_
 62
     4
100
AcDbLine
 10
51.04253472222229
 20
260.4004706488714
 30
0.0
 11
51.04253472222229
 21
0.0
 31
0.0
  0
LINE
  5
6CFB
330
6B8B
100
AcDbEntity
  8
L200_
 62
     4
100
AcDbLine
 10
43.39993489583348
 20
260.4004706488714
 30
0.0
 11
43.39993489583348
 21
0.0
 31
0.0
  0
LINE
  5
6CFC
330
6B8B
100
AcDbEntity
  8
L200_
 62
     4
100
AcDbLine
 10
30.3354437934029
 20
260.4004706488714
 30
0.0
 11
30.3354437934029
 21
0.0
 31
0.0
  0
LINE
  5
6CFD
330
6B8B
100
AcDbEntity
  8
L200_
 62
     4
100
AcDbLine
 10
26.1293267144097
 20
260.4004706488714
 30
0.0
 11
26.1293267144097
 21
0.0
 31
0.0
  0
LINE
  5
6CFE
330
6B8B
100
AcDbEntity
  8
L200_
 62
     4
100
AcDbLine
 10
17.27060818142371
 20
260.4004706488714
 30
0.0
 11
17.27060818142371
 21
0.0
 31
0.0
  0
LINE
  5
6CFF
330
6B8B
100
AcDbEntity
  8
L200_
 62
     4
100
AcDbLine
 10
7.642599826388987
 20
260.4004706488714
 30
0.0
 11
7.642599826388987
 21
0.0
 31
0.0
  0
LINE
  5
6D00
330
6B8B
100
AcDbEntity
  8
L200_
 62
     7
100
AcDbLine
 10
0.0
 20
260.4004706488714
 30
0.0
 11
0.0
 21
0.0
 31
0.0
  0
ENDBLK
  5
6C11
330
6B8B
100
AcDbEntity
  8
0
100
AcDbBlockEnd
  0
BLOCK
  5
6C13
330
6C12
100
AcDbEntity
  8
0
100
AcDbBlockBegin
  2
*U4
 70
     1
 10
0.0
 20
0.0
 30
0.0
  3
*U4
  1

  0
TEXT
  5
6C14
330
6C12
100
AcDbEntity
  8
0
  6
CONTINUOUS
100
AcDbText
 10
133.6907564695665
 20
374.1945258246526
 30
0.0
 40
2.0
  1
15A
 41
0.8
100
AcDbText
  0
TEXT
  5
6C15
330
6C12
100
AcDbEntity
  8
0
  6
CONTINUOUS
100
AcDbText
 10
133.6907564695665
 20
370.8611924913193
 30
0.0
 40
2.0
  1
ZAE50-NF
 41
0.8
100
AcDbText
  0
ENDBLK
  5
6C16
330
6C12
100
AcDbEntity
  8
0
100
AcDbBlockEnd
  0
ENDSEC
  0
SECTION
  2
ENTITIES
  0
INSERT
  5
6C17
330
6B64
100
AcDbEntity
  8
基準
  6
CONTINUOUS
 62
     7
100
AcDbBlockReference
  2
BASELINE
 10
0.0
 20
120.0
 30
0.0
  0
INSERT
  5
6C18
330
6B64
100
AcDbEntity
  8
0
  6
CONTINUOUS
100
AcDbBlockReference
  2
*U4
 10
0.0000000000000213
 20
0.0
 30
0.0
  0
POINT
  5
6C19
330
6B64
100
AcDbEntity
  8
0
  6
CONTINUOUS
100
AcDbPoint
 10
13.09997500000003
 20
120.0
 30
0.0
  0
POLYLINE
  5
6C1A
330
6B64
100
AcDbEntity
  8
M
  6
CONTINUOUS
 62
     7
100
AcDb2dPolyline
 66
     1
 10
0.0
 20
0.0
 30
0.0
 70
     4
  0
VERTEX
  5
6D04
330
6C1A
100
AcDbEntity
  8
M
  6
CONTINUOUS
 62
     7
100
AcDbVertex
100
AcDb2dVertex
 10
-10.88907206989883
 20
380.3999999999998
 30
0.0
 70
    16
  0
VERTEX
  5
6D2D
330
6C1A
100
AcDbEntity
  8
M
  6
CONTINUOUS
 62
     7
100
AcDbVertex
100
AcDb2dVertex
 10
-10.88907206989882
 20
380.3999999999998
 30
0.0
 70
     8
  0
VERTEX
  5
6D2E
330
6C1A
100
AcDbEntity
  8
M
  6
CONTINUOUS
 62
     7
100
AcDbVertex
100
AcDb2dVertex
 10
-10.88898851776401
 20
379.8220052083332
 30
0.0
 70
     8
  0
VERTEX
  5
6D2F
330
6C1A
100
AcDbEntity
  8
M
  6
CONTINUOUS
 62
     7
100
AcDbVertex
100
AcDb2dVertex
 10
-10.88881845630347
 20
378.4760416666666
 30
0.0
 70
     8
  0
VERTEX
  5
6D30
330
6C1A
100
AcDbEntity
  8
M
  6
CONTINUOUS
 62
     7
100
AcDbVertex
100
AcDb2dVertex
 10
-10.88857687066077
 20
376.494140625
 30
0.0
 70
     8
  0
VERTEX
  5
6D31
330
6C1A
100
AcDbEntity
  8
M
  6
CONTINUOUS
 62
     7
100
AcDbVertex
100
AcDb2dVertex
 10
-10.88827874597946
 20
374.0083333333334
 30
0.0
 70
     8
  0
VERTEX
  5
6D32
330
6C1A
100
AcDbEntity
  8
M
  6
CONTINUOUS
 62
     7
100
AcDbVertex
100
AcDb2dVertex
 10
-10.88793906740313
 20
371.1506510416666
 30
0.0
 70
     8
  0
VERTEX
  5
6D33
330
6C1A
100
AcDbEntity
  8
M
  6
CONTINUOUS
 62
     7
100
AcDbVertex
100
AcDb2dVertex
 10
-10.88757282007532
 20
368.0531249999998
 30
0.0
 70
     8
  0
VERTEX
  5
6D34
330
6C1A
100
AcDbEntity
  8
M
  6
CONTINUOUS
 62
     7
100
AcDbVertex
100
AcDb2dVertex
 10
-10.8871949891396
 20
364.8477864583333
 30
0.0
 70
     8
  0
VERTEX
  5
6D35
330
6C1A
100
AcDbEntity
  8
M
  6
CONTINUOUS
 62
     7
100
AcDbVertex
100
AcDb2dVertex
 10
-10.88682055973956
 20
361.6666666666667
 30
0.0
 70
     8
  0
VERTEX
  5
6D36
330
6C1A
100
AcDbEntity
  8
M
  6
CONTINUOUS
 62
     7
100
AcDbVertex
100
AcDb2dVertex
 10
-10.88619496745967
 20
358.6165364583332
 30
0.0
 70
     8
  0
VERTEX
  5
6D37
330
6C1A
100
AcDbEntity
  8
M
  6
CONTINUOUS
 62
     7
100
AcDbVertex
100
AcDb2dVertex
 10
-10.88398544964835
 20
355.703125
 30
0.0
 70
     8
  0
VERTEX
  5
6D38
330
6C1A
100
AcDbEntity
  8
M
  6
CONTINUOUS
 62
     7
100
AcDbVertex
100
AcDb2dVertex
 10
-10.87858969409488
 20
352.9069010416666
 30
0.0
 70
     8
  0
VERTEX
  5
6D39
330
6C1A
100
AcDbEntity
  8
M
  6
CONTINUOUS
 62
     7
100
AcDbVertex
100
AcDb2dVertex
 10
-10.8684053885886
 20
350.2083333333332
 30
0.0
 70
     8
  0
VERTEX
  5
6D3A
330
6C1A
100
AcDbEntity
  8
M
  6
CONTINUOUS
 62
     7
100
AcDbVertex
100
AcDb2dVertex
 10
-10.85183022091883
 20
347.587890625
 30
0.0
 70
     8
  0
VERTEX
  5
6D3B
330
6C1A
100
AcDbEntity
  8
M
  6
CONTINUOUS
 62
     7
100
AcDbVertex
100
AcDb2dVertex
 10
-10.82726187887491
 20
345.0260416666667
 30
0.0
 70
     8
  0
VERTEX
  5
6D3C
330
6C1A
100
AcDbEntity
  8
M
  6
CONTINUOUS
 62
     7
100
AcDbVertex
100
AcDb2dVertex
 10
-10.79309805024614
 20
342.5032552083333
 30
0.0
 70
     8
  0
VERTEX
  5
6D3D
330
6C1A
100
AcDbEntity
  8
M
  6
CONTINUOUS
 62
     7
100
AcDbVertex
100
AcDb2dVertex
 10
-10.74773642282184
 20
340.0
 30
0.0
 70
     8
  0
VERTEX
  5
6D3E
330
6C1A
100
AcDbEntity
  8
M
  6
CONTINUOUS
 62
     7
100
AcDbVertex
100
AcDb2dVertex
 10
-10.68925075612837
 20
337.5
 30
0.0
 70
     8
  0
VERTEX
  5
6D3F
330
6C1A
100
AcDbEntity
  8
M
  6
CONTINUOUS
 62
     7
100
AcDbVertex
100
AcDb2dVertex
 10
-10.61441909664003
 20
335.0
 30
0.0
 70
     8
  0
VERTEX
  5
6D40
330
6C1A
100
AcDbEntity
  8
M
  6
CONTINUOUS
 62
     7
100
AcDbVertex
100
AcDb2dVertex
 10
-10.5196955625682
 20
332.5
 30
0.0
 70
     8
  0
VERTEX
  5
6D41
330
6C1A
100
AcDbEntity
  8
M
  6
CONTINUOUS
 62
     7
100
AcDbVertex
100
AcDb2dVertex
 10
-10.40153427212419
 20
330.0
 30
0.0
 70
     8
  0
VERTEX
  5
6D42
330
6C1A
100
AcDbEntity
  8
M
  6
CONTINUOUS
 62
     7
100
AcDbVertex
100
AcDb2dVertex
 10
-10.25638934351934
 20
327.4999999999999
 30
0.0
 70
     8
  0
VERTEX
  5
6D43
330
6C1A
100
AcDbEntity
  8
M
  6
CONTINUOUS
 62
     7
100
AcDbVertex
100
AcDb2dVertex
 10
-10.08071489496502
 20
325.0
 30
0.0
 70
     8
  0
VERTEX
  5
6D44
330
6C1A
100
AcDbEntity
  8
M
  6
CONTINUOUS
 62
     7
100
AcDbVertex
100
AcDb2dVertex
 10
-9.870965044672567
 20
322.5
 30
0.0
 70
     8
  0
VERTEX
  5
6D45
330
6C1A
100
AcDbEntity
  8
M
  6
CONTINUOUS
 62
     7
100
AcDbVertex
100
AcDb2dVertex
 10
-9.623593910853301
 20
320.0
 30
0.0
 70
     8
  0
VERTEX
  5
6D46
330
6C1A
100
AcDbEntity
  8
M
  6
CONTINUOUS
 62
     7
100
AcDbVertex
100
AcDb2dVertex
 10
-9.335670104829562
 20
317.5
 30
0.0
 70
     8
  0
VERTEX
  5
6D47
330
6C1A
100
AcDbEntity
  8
M
  6
CONTINUOUS
 62
     7
100
AcDbVertex
100
AcDb2dVertex
 10
-9.006720210367618
 20
315.0
 30
0.0
 70
     8
  0
VERTEX
  5
6D48
330
6C1A
100
AcDbEntity
  8
M
  6
CONTINUOUS
 62
     7
100
AcDbVertex
100
AcDb2dVertex
 10
-8.636885304344732
 20
312.5
 30
0.0
 70
     8
  0
VERTEX
  5
6D49
330
6C1A
100
AcDbEntity
  8
M
  6
CONTINUOUS
 62
     7
100
AcDbVertex
100
AcDb2dVertex
 10
-8.226306463638161
 20
310.0
 30
0.0
 70
     8
  0
VERTEX
  5
6D4A
330
6C1A
100
AcDbEntity
  8
M
  6
CONTINUOUS
 62
     7
100
AcDbVertex
100
AcDb2dVertex
 10
-7.775124765125162
 20
307.5
 30
0.0
 70
     8
  0
VERTEX
  5
6D4B
330
6C1A
100
AcDbEntity
  8
M
  6
CONTINUOUS
 62
     7
100
AcDbVertex
100
AcDb2dVertex
 10
-7.283481285682992
 20
305.0
 30
0.0
 70
     8
  0
VERTEX
  5
6D4C
330
6C1A
100
AcDbEntity
  8
M
  6
CONTINUOUS
 62
     7
100
AcDbVertex
100
AcDb2dVertex
 10
-6.75151710218891
 20
302.4999999999999
 30
0.0
 70
     8
  0
VERTEX
  5
6D4D
330
6C1A
100
AcDbEntity
  8
M
  6
CONTINUOUS
 62
     7
100
AcDbVertex
100
AcDb2dVertex
 10
-6.179373291520173
 20
300.0
 30
0.0
 70
     8
  0
VERTEX
  5
6D4E
330
6C1A
100
AcDbEntity
  8
M
  6
CONTINUOUS
 62
     7
100
AcDbVertex
100
AcDb2dVertex
 10
-5.567381582559963
 20
297.5
 30
0.0
 70
     8
  0
VERTEX
  5
6D4F
330
6C1A
100
AcDbEntity
  8
M
  6
CONTINUOUS
 62
     7
100
AcDbVertex
100
AcDb2dVertex
 10
-4.916636312215148
 20
295.0
 30
0.0
 70
     8
  0
VERTEX
  5
6D50
330
6C1A
100
AcDbEntity
  8
M
  6
CONTINUOUS
 62
     7
100
AcDbVertex
100
AcDb2dVertex
 10
-4.228422469398524
 20
292.5
 30
0.0
 70
     8
  0
VERTEX
  5
6D51
330
6C1A
100
AcDbEntity
  8
M
  6
CONTINUOUS
 62
     7
100
AcDbVertex
100
AcDb2dVertex
 10
-3.504025043022883
 20
290.0
 30
0.0
 70
     8
  0
VERTEX
  5
6D52
330
6C1A
100
AcDbEntity
  8
M
  6
CONTINUOUS
 62
     7
100
AcDbVertex
100
AcDb2dVertex
 10
-2.74472902200102
 20
287.5
 30
0.0
 70
     8
  0
VERTEX
  5
6D53
330
6C1A
100
AcDbEntity
  8
M
  6
CONTINUOUS
 62
     7
100
AcDbVertex
100
AcDb2dVertex
 10
-1.951819395245726
 20
285.0
 30
0.0
 70
     8
  0
VERTEX
  5
6D54
330
6C1A
100
AcDbEntity
  8
M
  6
CONTINUOUS
 62
     7
100
AcDbVertex
100
AcDb2dVertex
 10
-1.126581151669795
 20
282.5
 30
0.0
 70
     8
  0
VERTEX
  5
6D55
330
6C1A
100
AcDbEntity
  8
M
  6
CONTINUOUS
 62
     7
100
AcDbVertex
100
AcDb2dVertex
 10
-0.2702992801860222
 20
280.0
 30
0.0
 70
     8
  0
VERTEX
  5
6D56
330
6C1A
100
AcDbEntity
  8
M
  6
CONTINUOUS
 62
     7
100
AcDbVertex
100
AcDb2dVertex
 10
0.6167929056851748
 20
277.4971945329065
 30
0.0
 70
     8
  0
VERTEX
  5
6D57
330
6C1A
100
AcDbEntity
  8
M
  6
CONTINUOUS
 62
     7
100
AcDbVertex
100
AcDb2dVertex
 10
1.538668793992861
 20
274.9775562632526
 30
0.0
 70
     8
  0
VERTEX
  5
6D58
330
6C1A
100
AcDbEntity
  8
M
  6
CONTINUOUS
 62
     7
100
AcDbVertex
100
AcDb2dVertex
 10
2.500353448178481
 20
272.424252388478
 30
0.0
 70
     8
  0
VERTEX
  5
6D59
330
6C1A
100
AcDbEntity
  8
M
  6
CONTINUOUS
 62
     7
100
AcDbVertex
100
AcDb2dVertex
 10
3.506871931683475
 20
269.8204501060223
 30
0.0
 70
     8
  0
VERTEX
  5
6D5A
330
6C1A
100
AcDbEntity
  8
M
  6
CONTINUOUS
 62
     7
100
AcDbVertex
100
AcDb2dVertex
 10
4.563249307949281
 20
267.1493166133247
 30
0.0
 70
     8
  0
VERTEX
  5
6D5B
330
6C1A
100
AcDbEntity
  8
M
  6
CONTINUOUS
 62
     7
100
AcDbVertex
100
AcDb2dVertex
 10
5.674510640417343
 20
264.3940191078252
 30
0.0
 70
     8
  0
VERTEX
  5
6D5C
330
6C1A
100
AcDbEntity
  8
M
  6
CONTINUOUS
 62
     7
100
AcDbVertex
100
AcDb2dVertex
 10
6.845680992529102
 20
261.5377247869631
 30
0.0
 70
     8
  0
VERTEX
  5
6D5D
330
6C1A
100
AcDbEntity
  8
M
  6
CONTINUOUS
 62
     7
100
AcDbVertex
100
AcDb2dVertex
 10
8.081785427725995
 20
258.5636008481781
 30
0.0
 70
     8
  0
VERTEX
  5
6D5E
330
6C1A
100
AcDbEntity
  8
M
  6
CONTINUOUS
 62
     7
100
AcDbVertex
100
AcDb2dVertex
 10
9.383408616020592
 20
255.4644945635754
 30
0.0
 70
     8
  0
VERTEX
  5
6D5F
330
6C1A
100
AcDbEntity
  8
M
  6
CONTINUOUS
 62
     7
100
AcDbVertex
100
AcDb2dVertex
 10
10.73337365370995
 20
252.2719735039208
 30
0.0
 70
     8
  0
VERTEX
  5
6D60
330
6C1A
100
AcDbEntity
  8
M
  6
CONTINUOUS
 62
     7
100
AcDbVertex
100
AcDb2dVertex
 10
12.11006324366227
 20
249.0272853146465
 30
0.0
 70
     8
  0
VERTEX
  5
6D61
330
6C1A
100
AcDbEntity
  8
M
  6
CONTINUOUS
 62
     7
100
AcDbVertex
100
AcDb2dVertex
 10
13.49186008874575
 20
245.771677641184
 30
0.0
 70
     8
  0
VERTEX
  5
6D62
330
6C1A
100
AcDbEntity
  8
M
  6
CONTINUOUS
 62
     7
100
AcDbVertex
100
AcDb2dVertex
 10
14.85714689182856
 20
242.5463981289649
 30
0.0
 70
     8
  0
VERTEX
  5
6D63
330
6C1A
100
AcDbEntity
  8
M
  6
CONTINUOUS
 62
     7
100
AcDbVertex
100
AcDb2dVertex
 10
16.1843063557789
 20
239.3926944234209
 30
0.0
 70
     8
  0
VERTEX
  5
6D64
330
6C1A
100
AcDbEntity
  8
M
  6
CONTINUOUS
 62
     7
100
AcDbVertex
100
AcDb2dVertex
 10
17.45172118346496
 20
236.3518141699838
 30
0.0
 70
     8
  0
VERTEX
  5
6D65
330
6C1A
100
AcDbEntity
  8
M
  6
CONTINUOUS
 62
     7
100
AcDbVertex
100
AcDb2dVertex
 10
18.63777407775493
 20
233.4650050140851
 30
0.0
 70
     8
  0
VERTEX
  5
6D66
330
6C1A
100
AcDbEntity
  8
M
  6
CONTINUOUS
 62
     7
100
AcDbVertex
100
AcDb2dVertex
 10
19.72586769085148
 20
230.7650626970007
 30
0.0
 70
     8
  0
VERTEX
  5
6D67
330
6C1A
100
AcDbEntity
  8
M
  6
CONTINUOUS
 62
     7
100
AcDbVertex
100
AcDb2dVertex
 10
20.7194844722953
 20
228.250975343381
 30
0.0
 70
     8
  0
VERTEX
  5
6D68
330
6C1A
100
AcDbEntity
  8
M
  6
CONTINUOUS
 62
     7
100
AcDbVertex
100
AcDb2dVertex
 10
21.62712682096155
 20
225.9132791737208
 30
0.0
 70
     8
  0
VERTEX
  5
6D69
330
6C1A
100
AcDbEntity
  8
M
  6
CONTINUOUS
 62
     7
100
AcDbVertex
100
AcDb2dVertex
 10
22.45729713572541
 20
223.742510408515
 30
0.0
 70
     8
  0
VERTEX
  5
6D6A
330
6C1A
100
AcDbEntity
  8
M
  6
CONTINUOUS
 62
     7
100
AcDbVertex
100
AcDb2dVertex
 10
23.21849781546202
 20
221.7292052682581
 30
0.0
 70
     8
  0
VERTEX
  5
6D6B
330
6C1A
100
AcDbEntity
  8
M
  6
CONTINUOUS
 62
     7
100
AcDbVertex
100
AcDb2dVertex
 10
23.91923125904655
 20
219.8638999734446
 30
0.0
 70
     8
  0
VERTEX
  5
6D6C
330
6C1A
100
AcDbEntity
  8
M
  6
CONTINUOUS
 62
     7
100
AcDbVertex
100
AcDb2dVertex
 10
24.56799986535417
 20
218.1371307445697
 30
0.0
 70
     8
  0
VERTEX
  5
6D6D
330
6C1A
100
AcDbEntity
  8
M
  6
CONTINUOUS
 62
     7
100
AcDbVertex
100
AcDb2dVertex
 10
25.17330603326004
 20
216.5394338021275
 30
0.0
 70
     8
  0
VERTEX
  5
6D6E
330
6C1A
100
AcDbEntity
  8
M
  6
CONTINUOUS
 62
     7
100
AcDbVertex
100
AcDb2dVertex
 10
25.74220798246894
 20
215.0563969592595
 30
0.0
 70
     8
  0
VERTEX
  5
6D6F
330
6C1A
100
AcDbEntity
  8
M
  6
CONTINUOUS
 62
     7
100
AcDbVertex
100
AcDb2dVertex
 10
26.27598721600413
 20
213.6538143996927
 30
0.0
 70
     8
  0
VERTEX
  5
6D70
330
6C1A
100
AcDbEntity
  8
M
  6
CONTINUOUS
 62
     7
100
AcDbVertex
100
AcDb2dVertex
 10
26.77448105771848
 20
212.2925318998006
 30
0.0
 70
     8
  0
VERTEX
  5
6D71
330
6C1A
100
AcDbEntity
  8
M
  6
CONTINUOUS
 62
     7
100
AcDbVertex
100
AcDb2dVertex
 10
27.23752683146485
 20
210.9333952359569
 30
0.0
 70
     8
  0
VERTEX
  5
6D72
330
6C1A
100
AcDbEntity
  8
M
  6
CONTINUOUS
 62
     7
100
AcDbVertex
100
AcDb2dVertex
 10
27.6649618610961
 20
209.5372501845353
 30
0.0
 70
     8
  0
VERTEX
  5
6D73
330
6C1A
100
AcDbEntity
  8
M
  6
CONTINUOUS
 62
     7
100
AcDbVertex
100
AcDb2dVertex
 10
28.05662347046511
 20
208.0649425219093
 30
0.0
 70
     8
  0
VERTEX
  5
6D74
330
6C1A
100
AcDbEntity
  8
M
  6
CONTINUOUS
 62
     7
100
AcDbVertex
100
AcDb2dVertex
 10
28.41234898342475
 20
206.4773180244523
 30
0.0
 70
     8
  0
VERTEX
  5
6D75
330
6C1A
100
AcDbEntity
  8
M
  6
CONTINUOUS
 62
     7
100
AcDbVertex
100
AcDb2dVertex
 10
28.73197572382787
 20
204.7352224685383
 30
0.0
 70
     8
  0
VERTEX
  5
6D76
330
6C1A
100
AcDbEntity
  8
M
  6
CONTINUOUS
 62
     7
100
AcDbVertex
100
AcDb2dVertex
 10
29.01586023283255
 20
202.8144484277354
 30
0.0
 70
     8
  0
VERTEX
  5
6D77
330
6C1A
100
AcDbEntity
  8
M
  6
CONTINUOUS
 62
     7
100
AcDbVertex
100
AcDb2dVertex
 10
29.26643592081753
 20
200.7505756643927
 30
0.0
 70
     8
  0
VERTEX
  5
6D78
330
6C1A
100
AcDbEntity
  8
M
  6
CONTINUOUS
 62
     7
100
AcDbVertex
100
AcDb2dVertex
 10
29.48665541546679
 20
198.5941307380534
 30
0.0
 70
     8
  0
VERTEX
  5
6D79
330
6C1A
100
AcDbEntity
  8
M
  6
CONTINUOUS
 62
     7
100
AcDbVertex
100
AcDb2dVertex
 10
29.67947134446429
 20
196.3956402082612
 30
0.0
 70
     8
  0
VERTEX
  5
6D7A
330
6C1A
100
AcDbEntity
  8
M
  6
CONTINUOUS
 62
     7
100
AcDbVertex
100
AcDb2dVertex
 10
29.84783633549398
 20
194.2056306345596
 30
0.0
 70
     8
  0
VERTEX
  5
6D7B
330
6C1A
100
AcDbEntity
  8
M
  6
CONTINUOUS
 62
     7
100
AcDbVertex
100
AcDb2dVertex
 10
29.9947030162398
 20
192.0746285764925
 30
0.0
 70
     8
  0
VERTEX
  5
6D7C
330
6C1A
100
AcDbEntity
  8
M
  6
CONTINUOUS
 62
     7
100
AcDbVertex
100
AcDb2dVertex
 10
30.12302401438573
 20
190.0531605936033
 30
0.0
 70
     8
  0
VERTEX
  5
6D7D
330
6C1A
100
AcDbEntity
  8
M
  6
CONTINUOUS
 62
     7
100
AcDbVertex
100
AcDb2dVertex
 10
30.23575195761571
 20
188.1917532454354
 30
0.0
 70
     8
  0
VERTEX
  5
6D7E
330
6C1A
100
AcDbEntity
  8
M
  6
CONTINUOUS
 62
     7
100
AcDbVertex
100
AcDb2dVertex
 10
30.33546656041062
 20
186.5305262912784
 30
0.0
 70
     8
  0
VERTEX
  5
6D7F
330
6C1A
100
AcDbEntity
  8
M
  6
CONTINUOUS
 62
     7
100
AcDbVertex
100
AcDb2dVertex
 10
30.42325588443889
 20
185.0679722894035
 30
0.0
 70
     8
  0
VERTEX
  5
6D80
330
6C1A
100
AcDbEntity
  8
M
  6
CONTINUOUS
 62
     7
100
AcDbVertex
100
AcDb2dVertex
 10
30.49983507816595
 20
183.7921769978288
 30
0.0
 70
     8
  0
VERTEX
  5
6D81
330
6C1A
100
AcDbEntity
  8
M
  6
CONTINUOUS
 62
     7
100
AcDbVertex
100
AcDb2dVertex
 10
30.56591929005714
 20
182.6912261745711
 30
0.0
 70
     8
  0
VERTEX
  5
6D82
330
6C1A
100
AcDbEntity
  8
M
  6
CONTINUOUS
 62
     7
100
AcDbVertex
100
AcDb2dVertex
 10
30.62222366857782
 20
181.753205577648
 30
0.0
 70
     8
  0
VERTEX
  5
6D83
330
6C1A
100
AcDbEntity
  8
M
  6
CONTINUOUS
 62
     7
100
AcDbVertex
100
AcDb2dVertex
 10
30.66946336219338
 20
180.9662009650768
 30
0.0
 70
     8
  0
VERTEX
  5
6D84
330
6C1A
100
AcDbEntity
  8
M
  6
CONTINUOUS
 62
     7
100
AcDbVertex
100
AcDb2dVertex
 10
30.70835351936919
 20
180.3182980948749
 30
0.0
 70
     8
  0
VERTEX
  5
6D85
330
6C1A
100
AcDbEntity
  8
M
  6
CONTINUOUS
 62
     7
100
AcDbVertex
100
AcDb2dVertex
 10
30.73960928857062
 20
179.7975827250597
 30
0.0
 70
     8
  0
VERTEX
  5
6D86
330
6C1A
100
AcDbEntity
  8
M
  6
CONTINUOUS
 62
     7
100
AcDbVertex
100
AcDb2dVertex
 10
30.76445526842125
 20
179.383653267654
 30
0.0
 70
     8
  0
VERTEX
  5
6D87
330
6C1A
100
AcDbEntity
  8
M
  6
CONTINUOUS
 62
     7
100
AcDbVertex
100
AcDb2dVertex
 10
30.78615385817744
 20
179.0221587507041
 30
0.0
 70
     8
  0
VERTEX
  5
6D88
330
6C1A
100
AcDbEntity
  8
M
  6
CONTINUOUS
 62
     7
100
AcDbVertex
100
AcDb2dVertex
 10
30.80847690725379
 20
178.6502608562614
 30
0.0
 70
     8
  0
VERTEX
  5
6D89
330
6C1A
100
AcDbEntity
  8
M
  6
CONTINUOUS
 62
     7
100
AcDbVertex
100
AcDb2dVertex
 10
30.8351962650649
 20
178.2051212663774
 30
0.0
 70
     8
  0
VERTEX
  5
6D8A
330
6C1A
100
AcDbEntity
  8
M
  6
CONTINUOUS
 62
     7
100
AcDbVertex
100
AcDb2dVertex
 10
30.87008378102533
 20
177.6239016631039
 30
0.0
 70
     8
  0
VERTEX
  5
6D8B
330
6C1A
100
AcDbEntity
  8
M
  6
CONTINUOUS
 62
     7
100
AcDbVertex
100
AcDb2dVertex
 10
30.91691130454966
 20
176.843763728492
 30
0.0
 70
     8
  0
VERTEX
  5
6D8C
330
6C1A
100
AcDbEntity
  8
M
  6
CONTINUOUS
 62
     7
100
AcDbVertex
100
AcDb2dVertex
 10
30.97945068505248
 20
175.8018691445939
 30
0.0
 70
     8
  0
VERTEX
  5
6D8D
330
6C1A
100
AcDbEntity
  8
M
  6
CONTINUOUS
 62
     7
100
AcDbVertex
100
AcDb2dVertex
 10
31.06147377194838
 20
174.4353795934605
 30
0.0
 70
     8
  0
VERTEX
  5
6D8E
330
6C1A
100
AcDbEntity
  8
M
  6
CONTINUOUS
 62
     7
100
AcDbVertex
100
AcDb2dVertex
 10
31.16515479159085
 20
172.7080728636848
 30
0.0
 70
     8
  0
VERTEX
  5
6D8F
330
6C1A
100
AcDbEntity
  8
M
  6
CONTINUOUS
 62
     7
100
AcDbVertex
100
AcDb2dVertex
 10
31.28627747808907
 20
170.6901911700214
 30
0.0
 70
     8
  0
VERTEX
  5
6D90
330
6C1A
100
AcDbEntity
  8
M
  6
CONTINUOUS
 62
     7
100
AcDbVertex
100
AcDb2dVertex
 10
31.41902794249111
 20
168.4785928337661
 30
0.0
 70
     8
  0
VERTEX
  5
6D91
330
6C1A
100
AcDbEntity
  8
M
  6
CONTINUOUS
 62
     7
100
AcDbVertex
100
AcDb2dVertex
 10
31.55759229584507
 20
166.1701361762152
 30
0.0
 70
     8
  0
VERTEX
  5
6D92
330
6C1A
100
AcDbEntity
  8
M
  6
CONTINUOUS
 62
     7
100
AcDbVertex
100
AcDb2dVertex
 10
31.69615664919903
 20
163.8616795186643
 30
0.0
 70
     8
  0
VERTEX
  5
6D93
330
6C1A
100
AcDbEntity
  8
M
  6
CONTINUOUS
 62
     7
100
AcDbVertex
100
AcDb2dVertex
 10
31.82890711360107
 20
161.6500811824091
 30
0.0
 70
     8
  0
VERTEX
  5
6D94
330
6C1A
100
AcDbEntity
  8
M
  6
CONTINUOUS
 62
     7
100
AcDbVertex
100
AcDb2dVertex
 10
31.95002980009928
 20
159.6321994887458
 30
0.0
 70
     8
  0
VERTEX
  5
6D95
330
6C1A
100
AcDbEntity
  8
M
  6
CONTINUOUS
 62
     7
100
AcDbVertex
100
AcDb2dVertex
 10
32.05371081974176
 20
157.9048927589699
 30
0.0
 70
     8
  0
VERTEX
  5
6D96
330
6C1A
100
AcDbEntity
  8
M
  6
CONTINUOUS
 62
     7
100
AcDbVertex
100
AcDb2dVertex
 10
32.13619104677063
 20
156.538726254145
 30
0.0
 70
     8
  0
VERTEX
  5
6D97
330
6C1A
100
AcDbEntity
  8
M
  6
CONTINUOUS
 62
     7
100
AcDbVertex
100
AcDb2dVertex
 10
32.20193040820429
 20
155.4990929944052
 30
0.0
 70
     8
  0
VERTEX
  5
6D98
330
6C1A
100
AcDbEntity
  8
M
  6
CONTINUOUS
 62
     7
100
AcDbVertex
100
AcDb2dVertex
 10
32.25744359425517
 20
154.725092939652
 30
0.0
 70
     8
  0
VERTEX
  5
6D99
330
6C1A
100
AcDbEntity
  8
M
  6
CONTINUOUS
 62
     7
100
AcDbVertex
100
AcDb2dVertex
 10
32.30924529513572
 20
154.1558260497874
 30
0.0
 70
     8
  0
VERTEX
  5
6D9A
330
6C1A
100
AcDbEntity
  8
M
  6
CONTINUOUS
 62
     7
100
AcDbVertex
100
AcDb2dVertex
 10
32.36385020105837
 20
153.7303922847128
 30
0.0
 70
     8
  0
VERTEX
  5
6D9B
330
6C1A
100
AcDbEntity
  8
M
  6
CONTINUOUS
 62
     7
100
AcDbVertex
100
AcDb2dVertex
 10
32.42777300223558
 20
153.38789160433
 30
0.0
 70
     8
  0
VERTEX
  5
6D9C
330
6C1A
100
AcDbEntity
  8
M
  6
CONTINUOUS
 62
     7
100
AcDbVertex
100
AcDb2dVertex
 10
32.50752838887978
 20
153.0674239685406
 30
0.0
 70
     8
  0
VERTEX
  5
6D9D
330
6C1A
100
AcDbEntity
  8
M
  6
CONTINUOUS
 62
     7
100
AcDbVertex
100
AcDb2dVertex
 10
32.6096310512034
 20
152.7080893372461
 30
0.0
 70
     8
  0
VERTEX
  5
6D9E
330
6C1A
100
AcDbEntity
  8
M
  6
CONTINUOUS
 62
     7
100
AcDbVertex
100
AcDb2dVertex
 10
32.73830731580466
 20
152.2632946368486
 30
0.0
 70
     8
  0
VERTEX
  5
6D9F
330
6C1A
100
AcDbEntity
  8
M
  6
CONTINUOUS
 62
     7
100
AcDbVertex
100
AcDb2dVertex
 10
32.88863005482482
 20
151.7436746597485
 30
0.0
 70
     8
  0
VERTEX
  5
6DA0
330
6C1A
100
AcDbEntity
  8
M
  6
CONTINUOUS
 62
     7
100
AcDbVertex
100
AcDb2dVertex
 10
33.05338377679093
 20
151.1741711648468
 30
0.0
 70
     8
  0
VERTEX
  5
6DA1
330
6C1A
100
AcDbEntity
  8
M
  6
CONTINUOUS
 62
     7
100
AcDbVertex
100
AcDb2dVertex
 10
33.22535299022998
 20
150.5797259110444
 30
0.0
 70
     8
  0
VERTEX
  5
6DA2
330
6C1A
100
AcDbEntity
  8
M
  6
CONTINUOUS
 62
     7
100
AcDbVertex
100
AcDb2dVertex
 10
33.39732220366904
 20
149.9852806572419
 30
0.0
 70
     8
  0
VERTEX
  5
6DA3
330
6C1A
100
AcDbEntity
  8
M
  6
CONTINUOUS
 62
     7
100
AcDbVertex
100
AcDb2dVertex
 10
33.56207592563516
 20
149.4157771623402
 30
0.0
 70
     8
  0
VERTEX
  5
6DA4
330
6C1A
100
AcDbEntity
  8
M
  6
CONTINUOUS
 62
     7
100
AcDbVertex
100
AcDb2dVertex
 10
33.71239866465531
 20
148.89615718524
 30
0.0
 70
     8
  0
VERTEX
  5
6DA5
330
6C1A
100
AcDbEntity
  8
M
  6
CONTINUOUS
 62
     7
100
AcDbVertex
100
AcDb2dVertex
 10
33.84107492925657
 20
148.4513624848425
 30
0.0
 70
     8
  0
VERTEX
  5
6DA6
330
6C1A
100
AcDbEntity
  8
M
  6
CONTINUOUS
 62
     7
100
AcDbVertex
100
AcDb2dVertex
 10
33.94269310083421
 20
148.1000993803228
 30
0.0
 70
     8
  0
VERTEX
  5
6DA7
330
6C1A
100
AcDbEntity
  8
M
  6
CONTINUOUS
 62
     7
100
AcDbVertex
100
AcDb2dVertex
 10
34.01905705225646
 20
147.836132431956
 30
0.0
 70
     8
  0
VERTEX
  5
6DA8
330
6C1A
100
AcDbEntity
  8
M
  6
CONTINUOUS
 62
     7
100
AcDbVertex
100
AcDb2dVertex
 10
34.0737745292598
 20
147.6469907602916
 30
0.0
 70
     8
  0
VERTEX
  5
6DA9
330
6C1A
100
AcDbEntity
  8
M
  6
CONTINUOUS
 62
     7
100
AcDbVertex
100
AcDb2dVertex
 10
34.11045327758071
 20
147.5202034858791
 30
0.0
 70
     8
  0
VERTEX
  5
6DAA
330
6C1A
100
AcDbEntity
  8
M
  6
CONTINUOUS
 62
     7
100
AcDbVertex
100
AcDb2dVertex
 10
34.1327010429557
 20
147.4432997292683
 30
0.0
 70
     8
  0
VERTEX
  5
6DAB
330
6C1A
100
AcDbEntity
  8
M
  6
CONTINUOUS
 62
     7
100
AcDbVertex
100
AcDb2dVertex
 10
34.14412557112123
 20
147.4038086110086
 30
0.0
 70
     8
  0
VERTEX
  5
6DAC
330
6C1A
100
AcDbEntity
  8
M
  6
CONTINUOUS
 62
     7
100
AcDbVertex
100
AcDb2dVertex
 10
34.1483346078138
 20
147.3892592516499
 30
0.0
 70
     8
  0
VERTEX
  5
6DAD
330
6C1A
100
AcDbEntity
  8
M
  6
CONTINUOUS
 62
     7
100
AcDbVertex
100
AcDb2dVertex
 10
34.14893589876987
 20
147.3871807717415
 30
0.0
 70
     8
  0
VERTEX
  5
6DAE
330
6C1A
100
AcDbEntity
  8
M
  6
CONTINUOUS
 62
     7
100
AcDbVertex
100
AcDb2dVertex
 10
34.14893589876987
 20
147.3871807717415
 30
0.0
 70
     8
  0
VERTEX
  5
6DAF
330
6C1A
100
AcDbEntity
  8
M
  6
CONTINUOUS
 62
     7
100
AcDbVertex
100
AcDb2dVertex
 10
34.14893589876987
 20
147.3871807717415
 30
0.0
 70
     8
  0
VERTEX
  5
6DB0
330
6C1A
100
AcDbEntity
  8
M
  6
CONTINUOUS
 62
     7
100
AcDbVertex
100
AcDb2dVertex
 10
34.14893589876987
 20
147.3871807717415
 30
0.0
 70
     8
  0
VERTEX
  5
6DB1
330
6C1A
100
AcDbEntity
  8
M
  6
CONTINUOUS
 62
     7
100
AcDbVertex
100
AcDb2dVertex
 10
34.14893589876987
 20
147.3871807717415
 30
0.0
 70
     8
  0
VERTEX
  5
6DB2
330
6C1A
100
AcDbEntity
  8
M
  6
CONTINUOUS
 62
     7
100
AcDbVertex
100
AcDb2dVertex
 10
34.14893589876987
 20
147.3871807717415
 30
0.0
 70
     8
  0
VERTEX
  5
6DB3
330
6C1A
100
AcDbEntity
  8
M
  6
CONTINUOUS
 62
     7
100
AcDbVertex
100
AcDb2dVertex
 10
34.14893589876987
 20
147.3871807717415
 30
0.0
 70
     8
  0
VERTEX
  5
6DB4
330
6C1A
100
AcDbEntity
  8
M
  6
CONTINUOUS
 62
     7
100
AcDbVertex
100
AcDb2dVertex
 10
34.14893589876987
 20
147.3871807717415
 30
0.0
 70
     8
  0
VERTEX
  5
6DB5
330
6C1A
100
AcDbEntity
  8
M
  6
CONTINUOUS
 62
     7
100
AcDbVertex
100
AcDb2dVertex
 10
34.14893589876987
 20
147.3871807717415
 30
0.0
 70
     8
  0
VERTEX
  5
6DB6
330
6C1A
100
AcDbEntity
  8
M
  6
CONTINUOUS
 62
     7
100
AcDbVertex
100
AcDb2dVertex
 10
34.14893589876987
 20
147.3871807717415
 30
0.0
 70
     8
  0
VERTEX
  5
6DB7
330
6C1A
100
AcDbEntity
  8
M
  6
CONTINUOUS
 62
     7
100
AcDbVertex
100
AcDb2dVertex
 10
34.14893589876987
 20
147.3871807717415
 30
0.0
 70
     8
  0
VERTEX
  5
6DB8
330
6C1A
100
AcDbEntity
  8
M
  6
CONTINUOUS
 62
     7
100
AcDbVertex
100
AcDb2dVertex
 10
34.14893589876987
 20
147.3871807717415
 30
0.0
 70
     8
  0
VERTEX
  5
6DB9
330
6C1A
100
AcDbEntity
  8
M
  6
CONTINUOUS
 62
     7
100
AcDbVertex
100
AcDb2dVertex
 10
34.14893589876987
 20
147.3871807717415
 30
0.0
 70
     8
  0
VERTEX
  5
6DBA
330
6C1A
100
AcDbEntity
  8
M
  6
CONTINUOUS
 62
     7
100
AcDbVertex
100
AcDb2dVertex
 10
34.14893589876987
 20
147.3871807717415
 30
0.0
 70
     8
  0
VERTEX
  5
6DBB
330
6C1A
100
AcDbEntity
  8
M
  6
CONTINUOUS
 62
     7
100
AcDbVertex
100
AcDb2dVertex
 10
34.14893589876987
 20
147.3871807717415
 30
0.0
 70
     8
  0
VERTEX
  5
6DBC
330
6C1A
100
AcDbEntity
  8
M
  6
CONTINUOUS
 62
     7
100
AcDbVertex
100
AcDb2dVertex
 10
34.14893589876987
 20
147.3871807717415
 30
0.0
 70
     8
  0
VERTEX
  5
6DBD
330
6C1A
100
AcDbEntity
  8
M
  6
CONTINUOUS
 62
     7
100
AcDbVertex
100
AcDb2dVertex
 10
34.14893589876987
 20
147.3871807717415
 30
0.0
 70
     8
  0
VERTEX
  5
6DBE
330
6C1A
100
AcDbEntity
  8
M
  6
CONTINUOUS
 62
     7
100
AcDbVertex
100
AcDb2dVertex
 10
34.14893589876987
 20
147.3871807717415
 30
0.0
 70
     8
  0
VERTEX
  5
6DBF
330
6C1A
100
AcDbEntity
  8
M
  6
CONTINUOUS
 62
     7
100
AcDbVertex
100
AcDb2dVertex
 10
34.14893589876987
 20
147.3871807717415
 30
0.0
 70
     8
  0
VERTEX
  5
6DC0
330
6C1A
100
AcDbEntity
  8
M
  6
CONTINUOUS
 62
     7
100
AcDbVertex
100
AcDb2dVertex
 10
34.14893589876987
 20
147.3871807717415
 30
0.0
 70
     8
  0
VERTEX
  5
6DC1
330
6C1A
100
AcDbEntity
  8
M
  6
CONTINUOUS
 62
     7
100
AcDbVertex
100
AcDb2dVertex
 10
34.14893589876987
 20
147.3871807717415
 30
0.0
 70
     8
  0
VERTEX
  5
6DC2
330
6C1A
100
AcDbEntity
  8
M
  6
CONTINUOUS
 62
     7
100
AcDbVertex
100
AcDb2dVertex
 10
34.14893589876987
 20
147.3871807717415
 30
0.0
 70
     8
  0
VERTEX
  5
6DC3
330
6C1A
100
AcDbEntity
  8
M
  6
CONTINUOUS
 62
     7
100
AcDbVertex
100
AcDb2dVertex
 10
34.14893589876987
 20
147.3871807717415
 30
0.0
 70
     8
  0
VERTEX
  5
6DC4
330
6C1A
100
AcDbEntity
  8
M
  6
CONTINUOUS
 62
     7
100
AcDbVertex
100
AcDb2dVertex
 10
34.14893589876987
 20
147.3871807717415
 30
0.0
 70
     8
  0
VERTEX
  5
6DC5
330
6C1A
100
AcDbEntity
  8
M
  6
CONTINUOUS
 62
     7
100
AcDbVertex
100
AcDb2dVertex
 10
34.14893589876987
 20
147.3871807717415
 30
0.0
 70
     8
  0
VERTEX
  5
6DC6
330
6C1A
100
AcDbEntity
  8
M
  6
CONTINUOUS
 62
     7
100
AcDbVertex
100
AcDb2dVertex
 10
34.14893589876987
 20
147.3871807717415
 30
0.0
 70
     8
  0
VERTEX
  5
6DC7
330
6C1A
100
AcDbEntity
  8
M
  6
CONTINUOUS
 62
     7
100
AcDbVertex
100
AcDb2dVertex
 10
34.14893589876987
 20
147.3871807717415
 30
0.0
 70
     8
  0
VERTEX
  5
6DC8
330
6C1A
100
AcDbEntity
  8
M
  6
CONTINUOUS
 62
     7
100
AcDbVertex
100
AcDb2dVertex
 10
34.14893589876987
 20
147.3871807717415
 30
0.0
 70
     8
  0
VERTEX
  5
6DC9
330
6C1A
100
AcDbEntity
  8
M
  6
CONTINUOUS
 62
     7
100
AcDbVertex
100
AcDb2dVertex
 10
34.14893589876987
 20
147.3871807717415
 30
0.0
 70
     8
  0
VERTEX
  5
6DCA
330
6C1A
100
AcDbEntity
  8
M
  6
CONTINUOUS
 62
     7
100
AcDbVertex
100
AcDb2dVertex
 10
34.14893589876987
 20
147.3871807717415
 30
0.0
 70
     8
  0
VERTEX
  5
6DCB
330
6C1A
100
AcDbEntity
  8
M
  6
CONTINUOUS
 62
     7
100
AcDbVertex
100
AcDb2dVertex
 10
34.14893589876987
 20
147.3871807717415
 30
0.0
 70
     8
  0
VERTEX
  5
6DCC
330
6C1A
100
AcDbEntity
  8
M
  6
CONTINUOUS
 62
     7
100
AcDbVertex
100
AcDb2dVertex
 10
34.14893589876987
 20
147.3871807717415
 30
0.0
 70
     8
  0
VERTEX
  5
6DCD
330
6C1A
100
AcDbEntity
  8
M
  6
CONTINUOUS
 62
     7
100
AcDbVertex
100
AcDb2dVertex
 10
34.14893589876987
 20
147.3871807717415
 30
0.0
 70
     8
  0
VERTEX
  5
6DCE
330
6C1A
100
AcDbEntity
  8
M
  6
CONTINUOUS
 62
     7
100
AcDbVertex
100
AcDb2dVertex
 10
34.14893589876987
 20
147.3871807717415
 30
0.0
 70
     8
  0
VERTEX
  5
6DCF
330
6C1A
100
AcDbEntity
  8
M
  6
CONTINUOUS
 62
     7
100
AcDbVertex
100
AcDb2dVertex
 10
34.14893589876987
 20
147.3871807717415
 30
0.0
 70
     8
  0
VERTEX
  5
6DD0
330
6C1A
100
AcDbEntity
  8
M
  6
CONTINUOUS
 62
     7
100
AcDbVertex
100
AcDb2dVertex
 10
34.14893589876987
 20
147.3871807717415
 30
0.0
 70
     8
  0
VERTEX
  5
6DD1
330
6C1A
100
AcDbEntity
  8
M
  6
CONTINUOUS
 62
     7
100
AcDbVertex
100
AcDb2dVertex
 10
34.14893589876987
 20
147.3871807717415
 30
0.0
 70
     8
  0
VERTEX
  5
6DD2
330
6C1A
100
AcDbEntity
  8
M
  6
CONTINUOUS
 62
     7
100
AcDbVertex
100
AcDb2dVertex
 10
34.14893589876987
 20
147.3871807717415
 30
0.0
 70
     8
  0
VERTEX
  5
6DD3
330
6C1A
100
AcDbEntity
  8
M
  6
CONTINUOUS
 62
     7
100
AcDbVertex
100
AcDb2dVertex
 10
34.14893589876987
 20
147.3871807717415
 30
0.0
 70
     8
  0
VERTEX
  5
6DD4
330
6C1A
100
AcDbEntity
  8
M
  6
CONTINUOUS
 62
     7
100
AcDbVertex
100
AcDb2dVertex
 10
34.14893589876987
 20
147.3871807717415
 30
0.0
 70
     8
  0
VERTEX
  5
6DD5
330
6C1A
100
AcDbEntity
  8
M
  6
CONTINUOUS
 62
     7
100
AcDbVertex
100
AcDb2dVertex
 10
34.14893589876987
 20
147.3871807717415
 30
0.0
 70
     8
  0
VERTEX
  5
6DD6
330
6C1A
100
AcDbEntity
  8
M
  6
CONTINUOUS
 62
     7
100
AcDbVertex
100
AcDb2dVertex
 10
34.14991523243886
 20
147.3857680765839
 30
0.0
 70
     8
  0
VERTEX
  5
6DD7
330
6C1A
100
AcDbEntity
  8
M
  6
CONTINUOUS
 62
     7
100
AcDbVertex
100
AcDb2dVertex
 10
34.15677056812175
 20
147.3758792104808
 30
0.0
 70
     8
  0
VERTEX
  5
6DD8
330
6C1A
100
AcDbEntity
  8
M
  6
CONTINUOUS
 62
     7
100
AcDbVertex
100
AcDb2dVertex
 10
34.17537790783243
 20
147.3490380024869
 30
0.0
 70
     8
  0
VERTEX
  5
6DD9
330
6C1A
100
AcDbEntity
  8
M
  6
CONTINUOUS
 62
     7
100
AcDbVertex
100
AcDb2dVertex
 10
34.21161325358482
 20
147.2967682816564
 30
0.0
 70
     8
  0
VERTEX
  5
6DDA
330
6C1A
100
AcDbEntity
  8
M
  6
CONTINUOUS
 62
     7
100
AcDbVertex
100
AcDb2dVertex
 10
34.27135260739282
 20
147.2105938770443
 30
0.0
 70
     8
  0
VERTEX
  5
6DDB
330
6C1A
100
AcDbEntity
  8
M
  6
CONTINUOUS
 62
     7
100
AcDbVertex
100
AcDb2dVertex
 10
34.36047197127032
 20
147.0820386177046
 30
0.0
 70
     8
  0
VERTEX
  5
6DDC
330
6C1A
100
AcDbEntity
  8
M
  6
CONTINUOUS
 62
     7
100
AcDbVertex
100
AcDb2dVertex
 10
34.48484734723123
 20
146.9026263326923
 30
0.0
 70
     8
  0
VERTEX
  5
6DDD
330
6C1A
100
AcDbEntity
  8
M
  6
CONTINUOUS
 62
     7
100
AcDbVertex
100
AcDb2dVertex
 10
34.65035473728944
 20
146.6638808510617
 30
0.0
 70
     8
  0
VERTEX
  5
6DDE
330
6C1A
100
AcDbEntity
  8
M
  6
CONTINUOUS
 62
     7
100
AcDbVertex
100
AcDb2dVertex
 10
34.85993214245193
 20
146.3615640873399
 30
0.0
 70
     8
  0
VERTEX
  5
6DDF
330
6C1A
100
AcDbEntity
  8
M
  6
CONTINUOUS
 62
     7
100
AcDbVertex
100
AcDb2dVertex
 10
35.10476555969781
 20
146.0083902979455
 30
0.0
 70
     8
  0
VERTEX
  5
6DE0
330
6C1A
100
AcDbEntity
  8
M
  6
CONTINUOUS
 62
     7
100
AcDbVertex
100
AcDb2dVertex
 10
35.3731029849993
 20
145.6213118247691
 30
0.0
 70
     8
  0
VERTEX
  5
6DE1
330
6C1A
100
AcDbEntity
  8
M
  6
CONTINUOUS
 62
     7
100
AcDbVertex
100
AcDb2dVertex
 10
35.6531924143286
 20
145.2172810097018
 30
0.0
 70
     8
  0
VERTEX
  5
6DE2
330
6C1A
100
AcDbEntity
  8
M
  6
CONTINUOUS
 62
     7
100
AcDbVertex
100
AcDb2dVertex
 10
35.93328184365788
 20
144.8132501946346
 30
0.0
 70
     8
  0
VERTEX
  5
6DE3
330
6C1A
100
AcDbEntity
  8
M
  6
CONTINUOUS
 62
     7
100
AcDbVertex
100
AcDb2dVertex
 10
36.20161926895938
 20
144.4261717214583
 30
0.0
 70
     8
  0
VERTEX
  5
6DE4
330
6C1A
100
AcDbEntity
  8
M
  6
CONTINUOUS
 62
     7
100
AcDbVertex
100
AcDb2dVertex
 10
36.44645268620527
 20
144.0729979320639
 30
0.0
 70
     8
  0
VERTEX
  5
6DE5
330
6C1A
100
AcDbEntity
  8
M
  6
CONTINUOUS
 62
     7
100
AcDbVertex
100
AcDb2dVertex
 10
36.65603009136773
 20
143.7706811683421
 30
0.0
 70
     8
  0
VERTEX
  5
6DE6
330
6C1A
100
AcDbEntity
  8
M
  6
CONTINUOUS
 62
     7
100
AcDbVertex
100
AcDb2dVertex
 10
36.82153748142597
 20
143.5319356867115
 30
0.0
 70
     8
  0
VERTEX
  5
6DE7
330
6C1A
100
AcDbEntity
  8
M
  6
CONTINUOUS
 62
     7
100
AcDbVertex
100
AcDb2dVertex
 10
36.94591285738688
 20
143.3525234016991
 30
0.0
 70
     8
  0
VERTEX
  5
6DE8
330
6C1A
100
AcDbEntity
  8
M
  6
CONTINUOUS
 62
     7
100
AcDbVertex
100
AcDb2dVertex
 10
37.03503222126438
 20
143.2239681423595
 30
0.0
 70
     8
  0
VERTEX
  5
6DE9
330
6C1A
100
AcDbEntity
  8
M
  6
CONTINUOUS
 62
     7
100
AcDbVertex
100
AcDb2dVertex
 10
37.09477157507238
 20
143.1377937377474
 30
0.0
 70
     8
  0
VERTEX
  5
6DEA
330
6C1A
100
AcDbEntity
  8
M
  6
CONTINUOUS
 62
     7
100
AcDbVertex
100
AcDb2dVertex
 10
37.13100692082476
 20
143.0855240169169
 30
0.0
 70
     8
  0
VERTEX
  5
6DEB
330
6C1A
100
AcDbEntity
  8
M
  6
CONTINUOUS
 62
     7
100
AcDbVertex
100
AcDb2dVertex
 10
37.14961426053545
 20
143.058682808923
 30
0.0
 70
     8
  0
VERTEX
  5
6DEC
330
6C1A
100
AcDbEntity
  8
M
  6
CONTINUOUS
 62
     7
100
AcDbVertex
100
AcDb2dVertex
 10
37.15646959621834
 20
143.0487939428199
 30
0.0
 70
     8
  0
VERTEX
  5
6DED
330
6C1A
100
AcDbEntity
  8
M
  6
CONTINUOUS
 62
     7
100
AcDbVertex
100
AcDb2dVertex
 10
37.15744892988731
 20
143.0473812476624
 30
0.0
 70
     8
  0
VERTEX
  5
6DEE
330
6C1A
100
AcDbEntity
  8
M
  6
CONTINUOUS
 62
     7
100
AcDbVertex
100
AcDb2dVertex
 10
37.15744892988731
 20
143.0473812476624
 30
0.0
 70
     8
  0
VERTEX
  5
6DEF
330
6C1A
100
AcDbEntity
  8
M
  6
CONTINUOUS
 62
     7
100
AcDbVertex
100
AcDb2dVertex
 10
37.15744892988731
 20
143.0473812476624
 30
0.0
 70
     8
  0
VERTEX
  5
6DF0
330
6C1A
100
AcDbEntity
  8
M
  6
CONTINUOUS
 62
     7
100
AcDbVertex
100
AcDb2dVertex
 10
37.15744892988731
 20
143.0473812476624
 30
0.0
 70
     8
  0
VERTEX
  5
6DF1
330
6C1A
100
AcDbEntity
  8
M
  6
CONTINUOUS
 62
     7
100
AcDbVertex
100
AcDb2dVertex
 10
37.15744892988731
 20
143.0473812476624
 30
0.0
 70
     8
  0
VERTEX
  5
6DF2
330
6C1A
100
AcDbEntity
  8
M
  6
CONTINUOUS
 62
     7
100
AcDbVertex
100
AcDb2dVertex
 10
37.15744892988731
 20
143.0473812476624
 30
0.0
 70
     8
  0
VERTEX
  5
6DF3
330
6C1A
100
AcDbEntity
  8
M
  6
CONTINUOUS
 62
     7
100
AcDbVertex
100
AcDb2dVertex
 10
37.15744892988731
 20
143.0473812476624
 30
0.0
 70
     8
  0
VERTEX
  5
6DF4
330
6C1A
100
AcDbEntity
  8
M
  6
CONTINUOUS
 62
     7
100
AcDbVertex
100
AcDb2dVertex
 10
37.15744892988731
 20
143.0473812476624
 30
0.0
 70
     8
  0
VERTEX
  5
6DF5
330
6C1A
100
AcDbEntity
  8
M
  6
CONTINUOUS
 62
     7
100
AcDbVertex
100
AcDb2dVertex
 10
37.15744892988731
 20
143.0473812476624
 30
0.0
 70
     8
  0
VERTEX
  5
6DF6
330
6C1A
100
AcDbEntity
  8
M
  6
CONTINUOUS
 62
     7
100
AcDbVertex
100
AcDb2dVertex
 10
37.15744892988731
 20
143.0473812476624
 30
0.0
 70
     8
  0
VERTEX
  5
6DF7
330
6C1A
100
AcDbEntity
  8
M
  6
CONTINUOUS
 62
     7
100
AcDbVertex
100
AcDb2dVertex
 10
37.15744892988731
 20
143.0473812476624
 30
0.0
 70
     8
  0
VERTEX
  5
6DF8
330
6C1A
100
AcDbEntity
  8
M
  6
CONTINUOUS
 62
     7
100
AcDbVertex
100
AcDb2dVertex
 10
37.15744892988731
 20
143.0473812476624
 30
0.0
 70
     8
  0
VERTEX
  5
6DF9
330
6C1A
100
AcDbEntity
  8
M
  6
CONTINUOUS
 62
     7
100
AcDbVertex
100
AcDb2dVertex
 10
37.15744892988731
 20
143.0473812476624
 30
0.0
 70
     8
  0
VERTEX
  5
6DFA
330
6C1A
100
AcDbEntity
  8
M
  6
CONTINUOUS
 62
     7
100
AcDbVertex
100
AcDb2dVertex
 10
37.15744892988731
 20
143.0473812476624
 30
0.0
 70
     8
  0
VERTEX
  5
6DFB
330
6C1A
100
AcDbEntity
  8
M
  6
CONTINUOUS
 62
     7
100
AcDbVertex
100
AcDb2dVertex
 10
37.15744892988731
 20
143.0473812476624
 30
0.0
 70
     8
  0
VERTEX
  5
6DFC
330
6C1A
100
AcDbEntity
  8
M
  6
CONTINUOUS
 62
     7
100
AcDbVertex
100
AcDb2dVertex
 10
37.15744892988731
 20
143.0473812476624
 30
0.0
 70
     8
  0
VERTEX
  5
6DFD
330
6C1A
100
AcDbEntity
  8
M
  6
CONTINUOUS
 62
     7
100
AcDbVertex
100
AcDb2dVertex
 10
37.15744892988731
 20
143.0473812476624
 30
0.0
 70
     8
  0
VERTEX
  5
6DFE
330
6C1A
100
AcDbEntity
  8
M
  6
CONTINUOUS
 62
     7
100
AcDbVertex
100
AcDb2dVertex
 10
37.15744892988731
 20
143.0473812476624
 30
0.0
 70
     8
  0
VERTEX
  5
6DFF
330
6C1A
100
AcDbEntity
  8
M
  6
CONTINUOUS
 62
     7
100
AcDbVertex
100
AcDb2dVertex
 10
37.15744892988731
 20
143.0473812476624
 30
0.0
 70
     8
  0
VERTEX
  5
6E00
330
6C1A
100
AcDbEntity
  8
M
  6
CONTINUOUS
 62
     7
100
AcDbVertex
100
AcDb2dVertex
 10
37.15744892988731
 20
143.0473812476624
 30
0.0
 70
     8
  0
VERTEX
  5
6E01
330
6C1A
100
AcDbEntity
  8
M
  6
CONTINUOUS
 62
     7
100
AcDbVertex
100
AcDb2dVertex
 10
37.15744892988731
 20
143.0473812476624
 30
0.0
 70
     8
  0
VERTEX
  5
6E02
330
6C1A
100
AcDbEntity
  8
M
  6
CONTINUOUS
 62
     7
100
AcDbVertex
100
AcDb2dVertex
 10
37.15744892988731
 20
143.0473812476624
 30
0.0
 70
     8
  0
VERTEX
  5
6E03
330
6C1A
100
AcDbEntity
  8
M
  6
CONTINUOUS
 62
     7
100
AcDbVertex
100
AcDb2dVertex
 10
37.15744892988731
 20
143.0473812476624
 30
0.0
 70
     8
  0
VERTEX
  5
6E04
330
6C1A
100
AcDbEntity
  8
M
  6
CONTINUOUS
 62
     7
100
AcDbVertex
100
AcDb2dVertex
 10
37.15744892988731
 20
143.0473812476624
 30
0.0
 70
     8
  0
VERTEX
  5
6E05
330
6C1A
100
AcDbEntity
  8
M
  6
CONTINUOUS
 62
     7
100
AcDbVertex
100
AcDb2dVertex
 10
37.15744892988731
 20
143.0473812476624
 30
0.0
 70
     8
  0
VERTEX
  5
6E06
330
6C1A
100
AcDbEntity
  8
M
  6
CONTINUOUS
 62
     7
100
AcDbVertex
100
AcDb2dVertex
 10
37.15744892988731
 20
143.0473812476624
 30
0.0
 70
     8
  0
VERTEX
  5
6E07
330
6C1A
100
AcDbEntity
  8
M
  6
CONTINUOUS
 62
     7
100
AcDbVertex
100
AcDb2dVertex
 10
37.15744892988731
 20
143.0473812476624
 30
0.0
 70
     8
  0
VERTEX
  5
6E08
330
6C1A
100
AcDbEntity
  8
M
  6
CONTINUOUS
 62
     7
100
AcDbVertex
100
AcDb2dVertex
 10
37.15744892988731
 20
143.0473812476624
 30
0.0
 70
     8
  0
VERTEX
  5
6E09
330
6C1A
100
AcDbEntity
  8
M
  6
CONTINUOUS
 62
     7
100
AcDbVertex
100
AcDb2dVertex
 10
37.15744892988731
 20
143.0473812476624
 30
0.0
 70
     8
  0
VERTEX
  5
6E0A
330
6C1A
100
AcDbEntity
  8
M
  6
CONTINUOUS
 62
     7
100
AcDbVertex
100
AcDb2dVertex
 10
37.15744892988731
 20
143.0473812476624
 30
0.0
 70
     8
  0
VERTEX
  5
6E0B
330
6C1A
100
AcDbEntity
  8
M
  6
CONTINUOUS
 62
     7
100
AcDbVertex
100
AcDb2dVertex
 10
37.15744892988731
 20
143.0473812476624
 30
0.0
 70
     8
  0
VERTEX
  5
6E0C
330
6C1A
100
AcDbEntity
  8
M
  6
CONTINUOUS
 62
     7
100
AcDbVertex
100
AcDb2dVertex
 10
37.15744892988731
 20
143.0473812476624
 30
0.0
 70
     8
  0
VERTEX
  5
6E0D
330
6C1A
100
AcDbEntity
  8
M
  6
CONTINUOUS
 62
     7
100
AcDbVertex
100
AcDb2dVertex
 10
37.15744892988731
 20
143.0473812476624
 30
0.0
 70
     8
  0
VERTEX
  5
6E0E
330
6C1A
100
AcDbEntity
  8
M
  6
CONTINUOUS
 62
     7
100
AcDbVertex
100
AcDb2dVertex
 10
37.15744892988731
 20
143.0473812476624
 30
0.0
 70
     8
  0
VERTEX
  5
6E0F
330
6C1A
100
AcDbEntity
  8
M
  6
CONTINUOUS
 62
     7
100
AcDbVertex
100
AcDb2dVertex
 10
37.15744892988731
 20
143.0473812476624
 30
0.0
 70
     8
  0
VERTEX
  5
6E10
330
6C1A
100
AcDbEntity
  8
M
  6
CONTINUOUS
 62
     7
100
AcDbVertex
100
AcDb2dVertex
 10
37.15744892988731
 20
143.0473812476624
 30
0.0
 70
     8
  0
VERTEX
  5
6E11
330
6C1A
100
AcDbEntity
  8
M
  6
CONTINUOUS
 62
     7
100
AcDbVertex
100
AcDb2dVertex
 10
37.15744892988731
 20
143.0473812476624
 30
0.0
 70
     8
  0
VERTEX
  5
6E12
330
6C1A
100
AcDbEntity
  8
M
  6
CONTINUOUS
 62
     7
100
AcDbVertex
100
AcDb2dVertex
 10
37.15744892988731
 20
143.0473812476624
 30
0.0
 70
     8
  0
VERTEX
  5
6E13
330
6C1A
100
AcDbEntity
  8
M
  6
CONTINUOUS
 62
     7
100
AcDbVertex
100
AcDb2dVertex
 10
37.15744892988731
 20
143.0473812476624
 30
0.0
 70
     8
  0
VERTEX
  5
6E14
330
6C1A
100
AcDbEntity
  8
M
  6
CONTINUOUS
 62
     7
100
AcDbVertex
100
AcDb2dVertex
 10
37.15744892988731
 20
143.0473812476624
 30
0.0
 70
     8
  0
VERTEX
  5
6E15
330
6C1A
100
AcDbEntity
  8
M
  6
CONTINUOUS
 62
     7
100
AcDbVertex
100
AcDb2dVertex
 10
37.15744892988731
 20
143.0473812476624
 30
0.0
 70
     8
  0
VERTEX
  5
6E16
330
6C1A
100
AcDbEntity
  8
M
  6
CONTINUOUS
 62
     7
100
AcDbVertex
100
AcDb2dVertex
 10
37.15744892988731
 20
143.0473812476624
 30
0.0
 70
     8
  0
VERTEX
  5
6E17
330
6C1A
100
AcDbEntity
  8
M
  6
CONTINUOUS
 62
     7
100
AcDbVertex
100
AcDb2dVertex
 10
37.15744892988731
 20
143.0473812476624
 30
0.0
 70
     8
  0
VERTEX
  5
6E18
330
6C1A
100
AcDbEntity
  8
M
  6
CONTINUOUS
 62
     7
100
AcDbVertex
100
AcDb2dVertex
 10
37.15744892988731
 20
143.0473812476624
 30
0.0
 70
     8
  0
VERTEX
  5
6E19
330
6C1A
100
AcDbEntity
  8
M
  6
CONTINUOUS
 62
     7
100
AcDbVertex
100
AcDb2dVertex
 10
37.15744892988731
 20
143.0473812476624
 30
0.0
 70
     8
  0
VERTEX
  5
6E1A
330
6C1A
100
AcDbEntity
  8
M
  6
CONTINUOUS
 62
     7
100
AcDbVertex
100
AcDb2dVertex
 10
37.15744892988731
 20
143.0473812476624
 30
0.0
 70
     8
  0
VERTEX
  5
6E1B
330
6C1A
100
AcDbEntity
  8
M
  6
CONTINUOUS
 62
     7
100
AcDbVertex
100
AcDb2dVertex
 10
37.15744892988731
 20
143.0473812476624
 30
0.0
 70
     8
  0
VERTEX
  5
6E1C
330
6C1A
100
AcDbEntity
  8
M
  6
CONTINUOUS
 62
     7
100
AcDbVertex
100
AcDb2dVertex
 10
37.15744892988731
 20
143.0473812476624
 30
0.0
 70
     8
  0
VERTEX
  5
6E1D
330
6C1A
100
AcDbEntity
  8
M
  6
CONTINUOUS
 62
     7
100
AcDbVertex
100
AcDb2dVertex
 10
37.15744892988731
 20
143.0473812476624
 30
0.0
 70
     8
  0
VERTEX
  5
6E1E
330
6C1A
100
AcDbEntity
  8
M
  6
CONTINUOUS
 62
     7
100
AcDbVertex
100
AcDb2dVertex
 10
37.15804355164447
 20
143.0466488325199
 30
0.0
 70
     8
  0
VERTEX
  5
6E1F
330
6C1A
100
AcDbEntity
  8
M
  6
CONTINUOUS
 62
     7
100
AcDbVertex
100
AcDb2dVertex
 10
37.16220590394452
 20
143.0415219265227
 30
0.0
 70
     8
  0
VERTEX
  5
6E20
330
6C1A
100
AcDbEntity
  8
M
  6
CONTINUOUS
 62
     7
100
AcDbVertex
100
AcDb2dVertex
 10
37.17350371733036
 20
143.027606038816
 30
0.0
 70
     8
  0
VERTEX
  5
6E21
330
6C1A
100
AcDbEntity
  8
M
  6
CONTINUOUS
 62
     7
100
AcDbVertex
100
AcDb2dVertex
 10
37.19550472234493
 20
143.000506678545
 30
0.0
 70
     8
  0
VERTEX
  5
6E22
330
6C1A
100
AcDbEntity
  8
M
  6
CONTINUOUS
 62
     7
100
AcDbVertex
100
AcDb2dVertex
 10
37.2317766495311
 20
142.955829354855
 30
0.0
 70
     8
  0
VERTEX
  5
6E23
330
6C1A
100
AcDbEntity
  8
M
  6
CONTINUOUS
 62
     7
100
AcDbVertex
100
AcDb2dVertex
 10
37.28588722943175
 20
142.8891795768912
 30
0.0
 70
     8
  0
VERTEX
  5
6E24
330
6C1A
100
AcDbEntity
  8
M
  6
CONTINUOUS
 62
     7
100
AcDbVertex
100
AcDb2dVertex
 10
37.36140419258982
 20
142.7961628537988
 30
0.0
 70
     8
  0
VERTEX
  5
6E25
330
6C1A
100
AcDbEntity
  8
M
  6
CONTINUOUS
 62
     7
100
AcDbVertex
100
AcDb2dVertex
 10
37.46189526954822
 20
142.6723846947231
 30
0.0
 70
     8
  0
VERTEX
  5
6E26
330
6C1A
100
AcDbEntity
  8
M
  6
CONTINUOUS
 62
     7
100
AcDbVertex
100
AcDb2dVertex
 10
37.59100089758604
 20
142.514486887666
 30
0.0
 70
     8
  0
VERTEX
  5
6E27
330
6C1A
100
AcDbEntity
  8
M
  6
CONTINUOUS
 62
     7
100
AcDbVertex
100
AcDb2dVertex
 10
37.75265234092744
 20
142.3232563360551
 30
0.0
 70
     8
  0
VERTEX
  5
6E28
330
6C1A
100
AcDbEntity
  8
M
  6
CONTINUOUS
 62
     7
100
AcDbVertex
100
AcDb2dVertex
 10
37.95085357053271
 20
142.1005162221751
 30
0.0
 70
     8
  0
VERTEX
  5
6E29
330
6C1A
100
AcDbEntity
  8
M
  6
CONTINUOUS
 62
     7
100
AcDbVertex
100
AcDb2dVertex
 10
38.18960855736224
 20
141.8480897283105
 30
0.0
 70
     8
  0
VERTEX
  5
6E2A
330
6C1A
100
AcDbEntity
  8
M
  6
CONTINUOUS
 62
     7
100
AcDbVertex
100
AcDb2dVertex
 10
38.47292127237635
 20
141.5678000367451
 30
0.0
 70
     8
  0
VERTEX
  5
6E2B
330
6C1A
100
AcDbEntity
  8
M
  6
CONTINUOUS
 62
     7
100
AcDbVertex
100
AcDb2dVertex
 10
38.80479568653538
 20
141.2614703297641
 30
0.0
 70
     8
  0
VERTEX
  5
6E2C
330
6C1A
100
AcDbEntity
  8
M
  6
CONTINUOUS
 62
     7
100
AcDbVertex
100
AcDb2dVertex
 10
39.18923577079969
 20
140.9309237896514
 30
0.0
 70
     8
  0
VERTEX
  5
6E2D
330
6C1A
100
AcDbEntity
  8
M
  6
CONTINUOUS
 62
     7
100
AcDbVertex
100
AcDb2dVertex
 10
39.63024549612961
 20
140.5779835986915
 30
0.0
 70
     8
  0
VERTEX
  5
6E2E
330
6C1A
100
AcDbEntity
  8
M
  6
CONTINUOUS
 62
     7
100
AcDbVertex
100
AcDb2dVertex
 10
40.13000366139837
 20
140.2050654791023
 30
0.0
 70
     8
  0
VERTEX
  5
6E2F
330
6C1A
100
AcDbEntity
  8
M
  6
CONTINUOUS
 62
     7
100
AcDbVertex
100
AcDb2dVertex
 10
40.6833883771307
 20
139.816955312835
 30
0.0
 70
     8
  0
VERTEX
  5
6E30
330
6C1A
100
AcDbEntity
  8
M
  6
CONTINUOUS
 62
     7
100
AcDbVertex
100
AcDb2dVertex
 10
41.28345258176425
 20
139.4190315217739
 30
0.0
 70
     8
  0
VERTEX
  5
6E31
330
6C1A
100
AcDbEntity
  8
M
  6
CONTINUOUS
 62
     7
100
AcDbVertex
100
AcDb2dVertex
 10
41.92324921373661
 20
139.0166725278037
 30
0.0
 70
     8
  0
VERTEX
  5
6E32
330
6C1A
100
AcDbEntity
  8
M
  6
CONTINUOUS
 62
     7
100
AcDbVertex
100
AcDb2dVertex
 10
42.59583121148545
 20
138.615256752809
 30
0.0
 70
     8
  0
VERTEX
  5
6E33
330
6C1A
100
AcDbEntity
  8
M
  6
CONTINUOUS
 62
     7
100
AcDbVertex
100
AcDb2dVertex
 10
43.29425151344834
 20
138.2201626186744
 30
0.0
 70
     8
  0
VERTEX
  5
6E34
330
6C1A
100
AcDbEntity
  8
M
  6
CONTINUOUS
 62
     7
100
AcDbVertex
100
AcDb2dVertex
 10
44.01156305806293
 20
137.8367685472843
 30
0.0
 70
     8
  0
VERTEX
  5
6E35
330
6C1A
100
AcDbEntity
  8
M
  6
CONTINUOUS
 62
     7
100
AcDbVertex
100
AcDb2dVertex
 10
44.74081878376686
 20
137.4704529605232
 30
0.0
 70
     8
  0
VERTEX
  5
6E36
330
6C1A
100
AcDbEntity
  8
M
  6
CONTINUOUS
 62
     7
100
AcDbVertex
100
AcDb2dVertex
 10
45.47638563307084
 20
137.1255072699817
 30
0.0
 70
     8
  0
VERTEX
  5
6E37
330
6C1A
100
AcDbEntity
  8
M
  6
CONTINUOUS
 62
     7
100
AcDbVertex
100
AcDb2dVertex
 10
46.21788656477818
 20
136.8018748460741
 30
0.0
 70
     8
  0
VERTEX
  5
6E38
330
6C1A
100
AcDbEntity
  8
M
  6
CONTINUOUS
 62
     7
100
AcDbVertex
100
AcDb2dVertex
 10
46.96625854176527
 20
136.4984120489207
 30
0.0
 70
     8
  0
VERTEX
  5
6E39
330
6C1A
100
AcDbEntity
  8
M
  6
CONTINUOUS
 62
     7
100
AcDbVertex
100
AcDb2dVertex
 10
47.72243852690851
 20
136.2139752386418
 30
0.0
 70
     8
  0
VERTEX
  5
6E3A
330
6C1A
100
AcDbEntity
  8
M
  6
CONTINUOUS
 62
     7
100
AcDbVertex
100
AcDb2dVertex
 10
48.48736348308429
 20
135.9474207753578
 30
0.0
 70
     8
  0
VERTEX
  5
6E3B
330
6C1A
100
AcDbEntity
  8
M
  6
CONTINUOUS
 62
     7
100
AcDbVertex
100
AcDb2dVertex
 10
49.26197037316905
 20
135.6976050191889
 30
0.0
 70
     8
  0
VERTEX
  5
6E3C
330
6C1A
100
AcDbEntity
  8
M
  6
CONTINUOUS
 62
     7
100
AcDbVertex
100
AcDb2dVertex
 10
50.04719616003916
 20
135.4633843302555
 30
0.0
 70
     8
  0
VERTEX
  5
6E3D
330
6C1A
100
AcDbEntity
  8
M
  6
CONTINUOUS
 62
     7
100
AcDbVertex
100
AcDb2dVertex
 10
50.843977806571
 20
135.2436150686779
 30
0.0
 70
     8
  0
VERTEX
  5
6E3E
330
6C1A
100
AcDbEntity
  8
M
  6
CONTINUOUS
 62
     7
100
AcDbVertex
100
AcDb2dVertex
 10
51.6506149022247
 20
135.0374828244299
 30
0.0
 70
     8
  0
VERTEX
  5
6E3F
330
6C1A
100
AcDbEntity
  8
M
  6
CONTINUOUS
 62
     7
100
AcDbVertex
100
AcDb2dVertex
 10
52.45485754279499
 20
134.8454901068999
 30
0.0
 70
     8
  0
VERTEX
  5
6E40
330
6C1A
100
AcDbEntity
  8
M
  6
CONTINUOUS
 62
     7
100
AcDbVertex
100
AcDb2dVertex
 10
53.24181845066036
 20
134.6684686553297
 30
0.0
 70
     8
  0
VERTEX
  5
6E41
330
6C1A
100
AcDbEntity
  8
M
  6
CONTINUOUS
 62
     7
100
AcDbVertex
100
AcDb2dVertex
 10
53.99661034819921
 20
134.5072502089612
 30
0.0
 70
     8
  0
VERTEX
  5
6E42
330
6C1A
100
AcDbEntity
  8
M
  6
CONTINUOUS
 62
     7
100
AcDbVertex
100
AcDb2dVertex
 10
54.70434595779
 20
134.3626665070362
 30
0.0
 70
     8
  0
VERTEX
  5
6E43
330
6C1A
100
AcDbEntity
  8
M
  6
CONTINUOUS
 62
     7
100
AcDbVertex
100
AcDb2dVertex
 10
55.35013800181117
 20
134.2355492887969
 30
0.0
 70
     8
  0
VERTEX
  5
6E44
330
6C1A
100
AcDbEntity
  8
M
  6
CONTINUOUS
 62
     7
100
AcDbVertex
100
AcDb2dVertex
 10
55.91909920264118
 20
134.1267302934848
 30
0.0
 70
     8
  0
VERTEX
  5
6E45
330
6C1A
100
AcDbEntity
  8
M
  6
CONTINUOUS
 62
     7
100
AcDbVertex
100
AcDb2dVertex
 10
56.39634228265848
 20
134.0370412603419
 30
0.0
 70
     8
  0
VERTEX
  5
6E46
330
6C1A
100
AcDbEntity
  8
M
  6
CONTINUOUS
 62
     7
100
AcDbVertex
100
AcDb2dVertex
 10
56.77643949036511
 20
133.9664427345255
 30
0.0
 70
     8
  0
VERTEX
  5
6E47
330
6C1A
100
AcDbEntity
  8
M
  6
CONTINUOUS
 62
     7
100
AcDbVertex
100
AcDb2dVertex
 10
57.09180117875749
 20
133.9114104848545
 30
0.0
 70
     8
  0
VERTEX
  5
6E48
330
6C1A
100
AcDbEntity
  8
M
  6
CONTINUOUS
 62
     7
100
AcDbVertex
100
AcDb2dVertex
 10
57.3842972269556
 20
133.8675490860637
 30
0.0
 70
     8
  0
VERTEX
  5
6E49
330
6C1A
100
AcDbEntity
  8
M
  6
CONTINUOUS
 62
     7
100
AcDbVertex
100
AcDb2dVertex
 10
57.69579751407952
 20
133.8304631128873
 30
0.0
 70
     8
  0
VERTEX
  5
6E4A
330
6C1A
100
AcDbEntity
  8
M
  6
CONTINUOUS
 62
     7
100
AcDbVertex
100
AcDb2dVertex
 10
58.0681719192492
 20
133.7957571400599
 30
0.0
 70
     8
  0
VERTEX
  5
6E4B
330
6C1A
100
AcDbEntity
  8
M
  6
CONTINUOUS
 62
     7
100
AcDbVertex
100
AcDb2dVertex
 10
58.54329032158472
 20
133.7590357423157
 30
0.0
 70
     8
  0
VERTEX
  5
6E4C
330
6C1A
100
AcDbEntity
  8
M
  6
CONTINUOUS
 62
     7
100
AcDbVertex
100
AcDb2dVertex
 10
59.16302260020606
 20
133.7159034943894
 30
0.0
 70
     8
  0
VERTEX
  5
6E4D
330
6C1A
100
AcDbEntity
  8
M
  6
CONTINUOUS
 62
     7
100
AcDbVertex
100
AcDb2dVertex
 10
59.96923863423324
 20
133.6619649710155
 30
0.0
 70
     8
  0
VERTEX
  5
6E4E
330
6C1A
100
AcDbEntity
  8
M
  6
CONTINUOUS
 62
     7
100
AcDbVertex
100
AcDb2dVertex
 10
60.99340636412328
 20
133.5942818175609
 30
0.0
 70
     8
  0
VERTEX
  5
6E4F
330
6C1A
100
AcDbEntity
  8
M
  6
CONTINUOUS
 62
     7
100
AcDbVertex
100
AcDb2dVertex
 10
62.22538597568109
 20
133.515743961924
 30
0.0
 70
     8
  0
VERTEX
  5
6E50
330
6C1A
100
AcDbEntity
  8
M
  6
CONTINUOUS
 62
     7
100
AcDbVertex
100
AcDb2dVertex
 10
63.64463571604863
 20
133.4306984026355
 30
0.0
 70
     8
  0
VERTEX
  5
6E51
330
6C1A
100
AcDbEntity
  8
M
  6
CONTINUOUS
 62
     7
100
AcDbVertex
100
AcDb2dVertex
 10
65.23061383236783
 20
133.3434921382264
 30
0.0
 70
     8
  0
VERTEX
  5
6E52
330
6C1A
100
AcDbEntity
  8
M
  6
CONTINUOUS
 62
     7
100
AcDbVertex
100
AcDb2dVertex
 10
66.96277857178062
 20
133.2584721672275
 30
0.0
 70
     8
  0
VERTEX
  5
6E53
330
6C1A
100
AcDbEntity
  8
M
  6
CONTINUOUS
 62
     7
100
AcDbVertex
100
AcDb2dVertex
 10
68.82058818142893
 20
133.1799854881694
 30
0.0
 70
     8
  0
VERTEX
  5
6E54
330
6C1A
100
AcDbEntity
  8
M
  6
CONTINUOUS
 62
     7
100
AcDbVertex
100
AcDb2dVertex
 10
70.7835009084547
 20
133.1123790995833
 30
0.0
 70
     8
  0
VERTEX
  5
6E55
330
6C1A
100
AcDbEntity
  8
M
  6
CONTINUOUS
 62
     7
100
AcDbVertex
100
AcDb2dVertex
 10
72.83097499999986
 20
133.0599999999999
 30
0.0
 70
     8
  0
VERTEX
  5
6D05
330
6C1A
100
AcDbEntity
  8
M
  6
CONTINUOUS
 62
     7
100
AcDbVertex
100
AcDb2dVertex
 10
-10.88897793010123
 20
380.0
 30
0.0
 70
    16
  0
VERTEX
  5
6D06
330
6C1A
100
AcDbEntity
  8
M
  6
CONTINUOUS
 62
     7
100
AcDbVertex
100
AcDb2dVertex
 10
-10.88662443516122
 20
360.0
 30
0.0
 70
    16
  0
VERTEX
  5
6D07
330
6C1A
100
AcDbEntity
  8
M
  6
CONTINUOUS
 62
     7
100
AcDbVertex
100
AcDb2dVertex
 10
-10.88427094022126
 20
340.0
 30
0.0
 70
    16
  0
VERTEX
  5
6D08
330
6C1A
100
AcDbEntity
  8
M
  6
CONTINUOUS
 62
     7
100
AcDbVertex
100
AcDb2dVertex
 10
-10.06271034088487
 20
320.0
 30
0.0
 70
    16
  0
VERTEX
  5
6D09
330
6C1A
100
AcDbEntity
  8
M
  6
CONTINUOUS
 62
     7
100
AcDbVertex
100
AcDb2dVertex
 10
-6.606451161359071
 20
300.0
 30
0.0
 70
    16
  0
VERTEX
  5
6D0A
330
6C1A
100
AcDbEntity
  8
M
  6
CONTINUOUS
 62
     7
100
AcDbVertex
100
AcDb2dVertex
 10
-0.5877247627998905
 20
280.0
 30
0.0
 70
    16
  0
VERTEX
  5
6D0B
330
6C1A
100
AcDbEntity
  8
M
  6
CONTINUOUS
 62
     7
100
AcDbVertex
100
AcDb2dVertex
 10
7.335554531442499
 20
260.0
 30
0.0
 70
    16
  0
VERTEX
  5
6D0C
330
6C1A
100
AcDbEntity
  8
M
  6
CONTINUOUS
 62
     7
100
AcDbVertex
100
AcDb2dVertex
 10
19.73621920338587
 20
231.3816050890696
 30
0.0
 70
    16
  0
VERTEX
  5
6D0D
330
6C1A
100
AcDbEntity
  8
M
  6
CONTINUOUS
 62
     7
100
AcDbVertex
100
AcDb2dVertex
 10
25.54621312154358
 20
215.2636097282329
 30
0.0
 70
    16
  0
VERTEX
  5
6D0E
330
6C1A
100
AcDbEntity
  8
M
  6
CONTINUOUS
 62
     7
100
AcDbVertex
100
AcDb2dVertex
 10
29.11876451000003
 20
206.8005588107638
 30
0.0
 70
    16
  0
VERTEX
  5
6D0F
330
6C1A
100
AcDbEntity
  8
M
  6
CONTINUOUS
 62
     7
100
AcDbVertex
100
AcDb2dVertex
 10
30.37058318142355
 20
185.9454898399413
 30
0.0
 70
    16
  0
VERTEX
  5
6D10
330
6C1A
100
AcDbEntity
  8
M
  6
CONTINUOUS
 62
     7
100
AcDbVertex
100
AcDb2dVertex
 10
30.81341451000003
 20
178.5680013020833
 30
0.0
 70
    16
  0
VERTEX
  5
6D11
330
6C1A
100
AcDbEntity
  8
M
  6
CONTINUOUS
 62
     7
100
AcDbVertex
100
AcDb2dVertex
 10
30.81341451000003
 20
178.5680013020833
 30
0.0
 70
    16
  0
VERTEX
  5
6D12
330
6C1A
100
AcDbEntity
  8
M
  6
CONTINUOUS
 62
     7
100
AcDbVertex
100
AcDb2dVertex
 10
32.30177008169011
 20
153.7722710503472
 30
0.0
 70
    16
  0
VERTEX
  5
6D13
330
6C1A
100
AcDbEntity
  8
M
  6
CONTINUOUS
 62
     7
100
AcDbVertex
100
AcDb2dVertex
 10
32.30177008169011
 20
153.7722710503472
 30
0.0
 70
    16
  0
VERTEX
  5
6D14
330
6C1A
100
AcDbEntity
  8
M
  6
CONTINUOUS
 62
     7
100
AcDbVertex
100
AcDb2dVertex
 10
34.14893589876987
 20
147.3871807717415
 30
0.0
 70
    16
  0
VERTEX
  5
6D15
330
6C1A
100
AcDbEntity
  8
M
  6
CONTINUOUS
 62
     7
100
AcDbVertex
100
AcDb2dVertex
 10
34.14893589876987
 20
147.3871807717415
 30
0.0
 70
    16
  0
VERTEX
  5
6D16
330
6C1A
100
AcDbEntity
  8
M
  6
CONTINUOUS
 62
     7
100
AcDbVertex
100
AcDb2dVertex
 10
34.14893589876987
 20
147.3871807717415
 30
0.0
 70
    16
  0
VERTEX
  5
6D17
330
6C1A
100
AcDbEntity
  8
M
  6
CONTINUOUS
 62
     7
100
AcDbVertex
100
AcDb2dVertex
 10
34.14893589876987
 20
147.3871807717415
 30
0.0
 70
    16
  0
VERTEX
  5
6D18
330
6C1A
100
AcDbEntity
  8
M
  6
CONTINUOUS
 62
     7
100
AcDbVertex
100
AcDb2dVertex
 10
34.14893589876987
 20
147.3871807717415
 30
0.0
 70
    16
  0
VERTEX
  5
6D19
330
6C1A
100
AcDbEntity
  8
M
  6
CONTINUOUS
 62
     7
100
AcDbVertex
100
AcDb2dVertex
 10
34.14893589876987
 20
147.3871807717415
 30
0.0
 70
    16
  0
VERTEX
  5
6D1A
330
6C1A
100
AcDbEntity
  8
M
  6
CONTINUOUS
 62
     7
100
AcDbVertex
100
AcDb2dVertex
 10
34.14893589876987
 20
147.3871807717415
 30
0.0
 70
    16
  0
VERTEX
  5
6D1B
330
6C1A
100
AcDbEntity
  8
M
  6
CONTINUOUS
 62
     7
100
AcDbVertex
100
AcDb2dVertex
 10
34.14893589876987
 20
147.3871807717415
 30
0.0
 70
    16
  0
VERTEX
  5
6D1C
330
6C1A
100
AcDbEntity
  8
M
  6
CONTINUOUS
 62
     7
100
AcDbVertex
100
AcDb2dVertex
 10
37.15744892988731
 20
143.0473812476624
 30
0.0
 70
    16
  0
VERTEX
  5
6D1D
330
6C1A
100
AcDbEntity
  8
M
  6
CONTINUOUS
 62
     7
100
AcDbVertex
100
AcDb2dVertex
 10
37.15744892988731
 20
143.0473812476624
 30
0.0
 70
    16
  0
VERTEX
  5
6D1E
330
6C1A
100
AcDbEntity
  8
M
  6
CONTINUOUS
 62
     7
100
AcDbVertex
100
AcDb2dVertex
 10
37.15744892988731
 20
143.0473812476624
 30
0.0
 70
    16
  0
VERTEX
  5
6D1F
330
6C1A
100
AcDbEntity
  8
M
  6
CONTINUOUS
 62
     7
100
AcDbVertex
100
AcDb2dVertex
 10
37.15744892988731
 20
143.0473812476624
 30
0.0
 70
    16
  0
VERTEX
  5
6D20
330
6C1A
100
AcDbEntity
  8
M
  6
CONTINUOUS
 62
     7
100
AcDbVertex
100
AcDb2dVertex
 10
37.15744892988731
 20
143.0473812476624
 30
0.0
 70
    16
  0
VERTEX
  5
6D21
330
6C1A
100
AcDbEntity
  8
M
  6
CONTINUOUS
 62
     7
100
AcDbVertex
100
AcDb2dVertex
 10
37.15744892988731
 20
143.0473812476624
 30
0.0
 70
    16
  0
VERTEX
  5
6D22
330
6C1A
100
AcDbEntity
  8
M
  6
CONTINUOUS
 62
     7
100
AcDbVertex
100
AcDb2dVertex
 10
37.15744892988731
 20
143.0473812476624
 30
0.0
 70
    16
  0
VERTEX
  5
6D23
330
6C1A
100
AcDbEntity
  8
M
  6
CONTINUOUS
 62
     7
100
AcDbVertex
100
AcDb2dVertex
 10
37.15744892988731
 20
143.0473812476624
 30
0.0
 70
    16
  0
VERTEX
  5
6D24
330
6C1A
100
AcDbEntity
  8
M
  6
CONTINUOUS
 62
     7
100
AcDbVertex
100
AcDb2dVertex
 10
37.15744892988731
 20
143.0473812476624
 30
0.0
 70
    16
  0
VERTEX
  5
6D25
330
6C1A
100
AcDbEntity
  8
M
  6
CONTINUOUS
 62
     7
100
AcDbVertex
100
AcDb2dVertex
 10
38.98412696785271
 20
140.7974019300271
 30
0.0
 70
    16
  0
VERTEX
  5
6D26
330
6C1A
100
AcDbEntity
  8
M
  6
CONTINUOUS
 62
     7
100
AcDbVertex
100
AcDb2dVertex
 10
44.68751617547946
 20
137.2309126243779
 30
0.0
 70
    16
  0
VERTEX
  5
6D27
330
6C1A
100
AcDbEntity
  8
M
  6
CONTINUOUS
 62
     7
100
AcDbVertex
100
AcDb2dVertex
 10
50.71072103283063
 20
135.1016653355997
 30
0.0
 70
    16
  0
VERTEX
  5
6D28
330
6C1A
100
AcDbEntity
  8
M
  6
CONTINUOUS
 62
     7
100
AcDbVertex
100
AcDb2dVertex
 10
57.53346653262406
 20
133.8241164452902
 30
0.0
 70
    16
  0
VERTEX
  5
6D29
330
6C1A
100
AcDbEntity
  8
M
  6
CONTINUOUS
 62
     7
100
AcDbVertex
100
AcDb2dVertex
 10
57.53346653262406
 20
133.8241164452902
 30
0.0
 70
    16
  0
VERTEX
  5
6D2A
330
6C1A
100
AcDbEntity
  8
M
  6
CONTINUOUS
 62
     7
100
AcDbVertex
100
AcDb2dVertex
 10
67.27655493906077
 20
133.1755105481913
 30
0.0
 70
    16
  0
VERTEX
  5
6D2B
330
6C1A
100
AcDbEntity
  8
M
  6
CONTINUOUS
 62
     7
100
AcDbVertex
100
AcDb2dVertex
 10
72.83097499999986
 20
133.06
 30
0.0
 70
    16
  0
SEQEND
  5
6D2C
330
6C1A
100
AcDbEntity
  8
M
  6
CONTINUOUS
 62
     7
  0
ENDSEC
  0
SECTION
  2
OBJECTS
  0
DICTIONARY
  5
6B52
330
0
100
AcDbDictionary
  3
ACAD_GROUP
350
6B53
  3
ACAD_LAYOUT
350
6B5F
  3
ACAD_MLINESTYLE
350
6B5C
  3
ACAD_PLOTSETTINGS
350
6B5E
  3
ACAD_PLOTSTYLENAME
350
6B54
  3
ACDBHEADERROUNDTRIPXREC
350
6EC9
  3
ACDBVARIABLEDICTIONARY
350
6C47
  0
DICTIONARY
  5
6C6C
330
6B64
100
AcDbDictionary
280
     1
  3
ACAD_LAYOUTSELFREF
360
6EEA
  0
DICTIONARY
  5
6C6A
330
6B60
100
AcDbDictionary
280
     1
  3
ACAD_LAYOUTSELFREF
360
6EE9
  0
DICTIONARY
  5
6B53
102
{ACAD_REACTORS
330
6B52
102
}
330
6B52
100
AcDbDictionary
  0
DICTIONARY
  5
6B5F
102
{ACAD_REACTORS
330
6B52
102
}
330
6B52
100
AcDbDictionary
  0
DICTIONARY
  5
6B5C
102
{ACAD_REACTORS
330
6B52
102
}
330
6B52
100
AcDbDictionary
  3
STANDARD
350
6B5D
  0
DICTIONARY
  5
6B5E
102
{ACAD_REACTORS
330
6B52
102
}
330
6B52
100
AcDbDictionary
  0
ACDBDICTIONARYWDFLT
  5
6B54
102
{ACAD_REACTORS
330
6B52
102
}
330
6B52
100
AcDbDictionary
281
     1
  3
Normal
350
6B55
100
AcDbDictionaryWithDefault
340
6B55
  0
DICTIONARY
  5
6EC9
102
{ACAD_REACTORS
330
6B52
102
}
330
6B52
100
AcDbDictionary
  3
CEPSNTYPE
350
6ED3
  3
FINGERPRINTGUID
350
6ED4
  3
HYPERLINKBASE
350
6ECC
  3
INSUNITS
350
6ED2
  3
LAYOUTDICT
350
6ECE
  3
LWETCUNION
350
6ED1
  3
PLOTSETDICT
350
6ECF
  3
PLOTSTYLNAMDICT
350
6ED0
  3
PSVPSCALE
350
6ED6
  3
PUCSBASE
350
6ED9
  3
PUCSORGBACK
350
6EDF
  3
PUCSORGBOTTOM
350
6EDB
  3
PUCSORGFRONT
350
6EDE
  3
PUCSORGLEFT
350
6EDC
  3
PUCSORGRIGHT
350
6EDD
  3
PUCSORGTOP
350
6EDA
  3
PUCSORTHOREF
350
6ED7
  3
PUCSORTHOVIEW
350
6ED8
  3
STYLESHEET
350
6ECD
  3
TSTACKALIGN
350
6ECA
  3
TSTACKSIZE
350
6ECB
  3
UCSBASE
350
6EE2
  3
UCSORGBACK
350
6EE8
  3
UCSORGBOTTOM
350
6EE4
  3
UCSORGFRONT
350
6EE7
  3
UCSORGLEFT
350
6EE5
  3
UCSORGRIGHT
350
6EE6
  3
UCSORGTOP
350
6EE3
  3
UCSORTHOREF
350
6EE0
  3
UCSORTHOVIEW
350
6EE1
  3
VERSIONGUID
350
6ED5
  0
DICTIONARY
  5
6C47
102
{ACAD_REACTORS
330
6B52
102
}
330
6B52
100
AcDbDictionary
  3
DIMASSOC
350
6C48
  0
XRECORD
  5
6EEA
102
{ACAD_REACTORS
330
6C6C
102
}
330
6C6C
100
AcDbXrecord
340
6B64
  0
XRECORD
  5
6EE9
102
{ACAD_REACTORS
330
6C6A
102
}
330
6C6A
100
AcDbXrecord
340
6B60
  0
MLINESTYLE
  5
6B5D
102
{ACAD_REACTORS
330
6B5C
102
}
330
6B5C
100
AcDbMlineStyle
  2
STANDARD
 70
     0
  3

 62
   256
 51
90.0
 52
90.0
 71
     2
 49
0.5
 62
   256
  6
BYLAYER
 49
-0.5
 62
   256
  6
BYLAYER
  0
ACDBPLACEHOLDER
  5
6B55
102
{ACAD_REACTORS
330
6B54
102
}
330
6B54
100
AcDbPlaceHolder
280
     0
  0
XRECORD
  5
6ED3
102
{ACAD_REACTORS
330
6EC9
102
}
330
6EC9
100
AcDbXrecord
 90
        0
  0
XRECORD
  5
6ED4
102
{ACAD_REACTORS
330
6EC9
102
}
330
6EC9
100
AcDbXrecord
  1
{2EABC058-E84A-4A1A-9263-F4AF58DD3F78}
  0
XRECORD
  5
6ECC
102
{ACAD_REACTORS
330
6EC9
102
}
330
6EC9
100
AcDbXrecord
  1

  0
XRECORD
  5
6ED2
102
{ACAD_REACTORS
330
6EC9
102
}
330
6EC9
100
AcDbXrecord
 90
        0
  0
XRECORD
  5
6ECE
102
{ACAD_REACTORS
330
6EC9
102
}
330
6EC9
100
AcDbXrecord
340
6B5F
  0
XRECORD
  5
6ED1
102
{ACAD_REACTORS
330
6EC9
102
}
330
6EC9
100
AcDbXrecord
 90
    10781
  0
XRECORD
  5
6ECF
102
{ACAD_REACTORS
330
6EC9
102
}
330
6EC9
100
AcDbXrecord
340
6B5E
  0
XRECORD
  5
6ED0
102
{ACAD_REACTORS
330
6EC9
102
}
330
6EC9
100
AcDbXrecord
340
6B54
  0
XRECORD
  5
6ED6
102
{ACAD_REACTORS
330
6EC9
102
}
330
6EC9
100
AcDbXrecord
 40
0.0
  0
XRECORD
  5
6ED9
102
{ACAD_REACTORS
330
6EC9
102
}
330
6EC9
100
AcDbXrecord
340
0
  0
XRECORD
  5
6EDF
102
{ACAD_REACTORS
330
6EC9
102
}
330
6EC9
100
AcDbXrecord
 10
0.0
 20
0.0
 30
0.0
  0
XRECORD
  5
6EDB
102
{ACAD_REACTORS
330
6EC9
102
}
330
6EC9
100
AcDbXrecord
 10
0.0
 20
0.0
 30
0.0
  0
XRECORD
  5
6EDE
102
{ACAD_REACTORS
330
6EC9
102
}
330
6EC9
100
AcDbXrecord
 10
0.0
 20
0.0
 30
0.0
  0
XRECORD
  5
6EDC
102
{ACAD_REACTORS
330
6EC9
102
}
330
6EC9
100
AcDbXrecord
 10
0.0
 20
0.0
 30
0.0
  0
XRECORD
  5
6EDD
102
{ACAD_REACTORS
330
6EC9
102
}
330
6EC9
100
AcDbXrecord
 10
0.0
 20
0.0
 30
0.0
  0
XRECORD
  5
6EDA
102
{ACAD_REACTORS
330
6EC9
102
}
330
6EC9
100
AcDbXrecord
 10
0.0
 20
0.0
 30
0.0
  0
XRECORD
  5
6ED7
102
{ACAD_REACTORS
330
6EC9
102
}
330
6EC9
100
AcDbXrecord
340
0
  0
XRECORD
  5
6ED8
102
{ACAD_REACTORS
330
6EC9
102
}
330
6EC9
100
AcDbXrecord
 70
     0
  0
XRECORD
  5
6ECD
102
{ACAD_REACTORS
330
6EC9
102
}
330
6EC9
100
AcDbXrecord
  1
monochrome.ctb
  0
XRECORD
  5
6ECA
102
{ACAD_REACTORS
330
6EC9
102
}
330
6EC9
100
AcDbXrecord
 90
        1
  0
XRECORD
  5
6ECB
102
{ACAD_REACTORS
330
6EC9
102
}
330
6EC9
100
AcDbXrecord
 90
       70
  0
XRECORD
  5
6EE2
102
{ACAD_REACTORS
330
6EC9
102
}
330
6EC9
100
AcDbXrecord
340
0
  0
XRECORD
  5
6EE8
102
{ACAD_REACTORS
330
6EC9
102
}
330
6EC9
100
AcDbXrecord
 10
0.0
 20
0.0
 30
0.0
  0
XRECORD
  5
6EE4
102
{ACAD_REACTORS
330
6EC9
102
}
330
6EC9
100
AcDbXrecord
 10
0.0
 20
0.0
 30
0.0
  0
XRECORD
  5
6EE7
102
{ACAD_REACTORS
330
6EC9
102
}
330
6EC9
100
AcDbXrecord
 10
0.0
 20
0.0
 30
0.0
  0
XRECORD
  5
6EE5
102
{ACAD_REACTORS
330
6EC9
102
}
330
6EC9
100
AcDbXrecord
 10
0.0
 20
0.0
 30
0.0
  0
XRECORD
  5
6EE6
102
{ACAD_REACTORS
330
6EC9
102
}
330
6EC9
100
AcDbXrecord
 10
0.0
 20
0.0
 30
0.0
  0
XRECORD
  5
6EE3
102
{ACAD_REACTORS
330
6EC9
102
}
330
6EC9
100
AcDbXrecord
 10
0.0
 20
0.0
 30
0.0
  0
XRECORD
  5
6EE0
102
{ACAD_REACTORS
330
6EC9
102
}
330
6EC9
100
AcDbXrecord
340
0
  0
XRECORD
  5
6EE1
102
{ACAD_REACTORS
330
6EC9
102
}
330
6EC9
100
AcDbXrecord
 70
     0
  0
XRECORD
  5
6ED5
102
{ACAD_REACTORS
330
6EC9
102
}
330
6EC9
100
AcDbXrecord
  1
{CF798F82-FC22-481B-8A0A-4D0C77601A95}
  0
DICTIONARYVAR
  5
6C48
102
{ACAD_REACTORS
330
6C47
102
}
330
6C47
100
DictionaryVariables
280
     0
  1
1
  0
ENDSEC
  0
EOF
