  0
SECTION
  2
HEADER
  9
$ACADVER
  1
AC1014
  9
$ACADMAINTVER
 70
     9
  9
$DWGCODEPAGE
  3
ANSI_932
  9
$INSBASE
 10
0.0
 20
0.0
 30
0.0
  9
$EXTMIN
 10
-17.21123830974795
 20
102.8111581268151
 30
-0.0015258207003583
  9
$EXTMAX
 10
221.2541961174218
 20
380.4100349793558
 30
0.0000000349246037
  9
$LIMMIN
 10
-3.5
 20
57.5
  9
$LIMMAX
 10
254.0
 20
421.4999999999998
  9
$ORTHOMODE
 70
     1
  9
$REGENMODE
 70
     1
  9
$FILLMODE
 70
     1
  9
$QTEXTMODE
 70
     0
  9
$MIRRTEXT
 70
     1
  9
$DRAGMODE
 70
     2
  9
$LTSCALE
 40
1.0
  9
$OSMODE
 70
    39
  9
$ATTMODE
 70
     1
  9
$TEXTSIZE
 40
20.0
  9
$TRACEWID
 40
0.05
  9
$TEXTSTYLE
  7
STANDARD
  9
$CLAYER
  8
7
  9
$CELTYPE
  6
CONTINUOUS
  9
$CECOLOR
 62
   256
  9
$CELTSCALE
 40
1.0
  9
$DELOBJ
 70
     1
  9
$DISPSILH
 70
     0
  9
$DIMSCALE
 40
1.0
  9
$DIMASZ
 40
0.18
  9
$DIMEXO
 40
0.0625
  9
$DIMDLI
 40
0.38
  9
$DIMRND
 40
0.0
  9
$DIMDLE
 40
0.0
  9
$DIMEXE
 40
0.18
  9
$DIMTP
 40
0.0
  9
$DIMTM
 40
0.0
  9
$DIMTXT
 40
0.18
  9
$DIMCEN
 40
0.09
  9
$DIMTSZ
 40
0.0
  9
$DIMTOL
 70
     0
  9
$DIMLIM
 70
     0
  9
$DIMTIH
 70
     1
  9
$DIMTOH
 70
     1
  9
$DIMSE1
 70
     0
  9
$DIMSE2
 70
     0
  9
$DIMTAD
 70
     0
  9
$DIMZIN
 70
     0
  9
$DIMBLK
  1

  9
$DIMASO
 70
     1
  9
$DIMSHO
 70
     1
  9
$DIMPOST
  1

  9
$DIMAPOST
  1

  9
$DIMALT
 70
     0
  9
$DIMALTD
 70
     2
  9
$DIMALTF
 40
25.4
  9
$DIMLFAC
 40
1.0
  9
$DIMTOFL
 70
     0
  9
$DIMTVP
 40
0.0
  9
$DIMTIX
 70
     0
  9
$DIMSOXD
 70
     0
  9
$DIMSAH
 70
     0
  9
$DIMBLK1
  1

  9
$DIMBLK2
  1

  9
$DIMSTYLE
  2
STANDARD
  9
$DIMCLRD
 70
     0
  9
$DIMCLRE
 70
     0
  9
$DIMCLRT
 70
     0
  9
$DIMTFAC
 40
1.0
  9
$DIMGAP
 40
0.09
  9
$DIMJUST
 70
     0
  9
$DIMSD1
 70
     0
  9
$DIMSD2
 70
     0
  9
$DIMTOLJ
 70
     1
  9
$DIMTZIN
 70
     0
  9
$DIMALTZ
 70
     0
  9
$DIMALTTZ
 70
     0
  9
$DIMFIT
 70
     3
  9
$DIMUPT
 70
     0
  9
$DIMUNIT
 70
     2
  9
$DIMDEC
 70
     4
  9
$DIMTDEC
 70
     4
  9
$DIMALTU
 70
     2
  9
$DIMALTTD
 70
     2
  9
$DIMTXSTY
  7
STANDARD
  9
$DIMAUNIT
 70
     0
  9
$LUNITS
 70
     2
  9
$LUPREC
 70
     4
  9
$SKETCHINC
 40
0.1
  9
$FILLETRAD
 40
0.0
  9
$AUNITS
 70
     0
  9
$AUPREC
 70
     0
  9
$MENU
  1
.
  9
$ELEVATION
 40
0.0
  9
$PELEVATION
 40
0.0
  9
$THICKNESS
 40
0.0
  9
$LIMCHECK
 70
     0
  9
$BLIPMODE
 70
     0
  9
$CHAMFERA
 40
0.0
  9
$CHAMFERB
 40
0.0
  9
$CHAMFERC
 40
0.0
  9
$CHAMFERD
 40
0.0
  9
$SKPOLY
 70
     0
  9
$TDCREATE
 40
2452523.402957292
  9
$TDUPDATE
 40
2453318.494648611
  9
$TDINDWG
 40
0.1449259491
  9
$TDUSRTIMER
 40
0.1449206829
  9
$USRTIMER
 70
     1
  9
$ANGBASE
 50
0.0
  9
$ANGDIR
 70
     0
  9
$PDMODE
 70
     3
  9
$PDSIZE
 40
-1.0
  9
$PLINEWID
 40
0.0
  9
$COORDS
 70
     0
  9
$SPLFRAME
 70
     0
  9
$SPLINETYPE
 70
     6
  9
$SPLINESEGS
 70
     8
  9
$ATTDIA
 70
     0
  9
$ATTREQ
 70
     1
  9
$HANDLING
 70
 22529
  9
$HANDSEED
  5
6D44
  9
$SURFTAB1
 70
     6
  9
$SURFTAB2
 70
     6
  9
$SURFTYPE
 70
     6
  9
$SURFU
 70
     6
  9
$SURFV
 70
     6
  9
$UCSNAME
  2

  9
$UCSORG
 10
0.0
 20
0.0
 30
0.0
  9
$UCSXDIR
 10
1.0
 20
0.0
 30
0.0
  9
$UCSYDIR
 10
0.0
 20
1.0
 30
0.0
  9
$PUCSNAME
  2

  9
$PUCSORG
 10
0.0
 20
0.0
 30
0.0
  9
$PUCSXDIR
 10
1.0
 20
0.0
 30
0.0
  9
$PUCSYDIR
 10
0.0
 20
1.0
 30
0.0
  9
$USERI1
 70
     0
  9
$USERI2
 70
     0
  9
$USERI3
 70
     0
  9
$USERI4
 70
     0
  9
$USERI5
 70
     0
  9
$USERR1
 40
0.0
  9
$USERR2
 40
0.0
  9
$USERR3
 40
0.0
  9
$USERR4
 40
0.0
  9
$USERR5
 40
0.0
  9
$WORLDVIEW
 70
     1
  9
$SHADEDGE
 70
     3
  9
$SHADEDIF
 70
    70
  9
$TILEMODE
 70
     1
  9
$MAXACTVP
 70
    64
  9
$PINSBASE
 10
0.0
 20
0.0
 30
0.0
  9
$PLIMCHECK
 70
     0
  9
$PEXTMIN
 10
1.000000000000000E+20
 20
1.000000000000000E+20
 30
1.000000000000000E+20
  9
$PEXTMAX
 10
-1.000000000000000E+20
 20
-1.000000000000000E+20
 30
-1.000000000000000E+20
  9
$PLIMMIN
 10
0.0
 20
0.0
  9
$PLIMMAX
 10
12.0
 20
9.0
  9
$UNITMODE
 70
     0
  9
$VISRETAIN
 70
     1
  9
$PLINEGEN
 70
     0
  9
$PSLTSCALE
 70
     1
  9
$TREEDEPTH
 70
  3020
  9
$PICKSTYLE
 70
     1
  9
$CMLSTYLE
  2
STANDARD
  9
$CMLJUST
 70
     0
  9
$CMLSCALE
 40
1.0
  9
$PROXYGRAPHICS
 70
     1
  9
$MEASUREMENT
 70
     0
  0
ENDSEC
  0
SECTION
  2
CLASSES
  0
CLASS
  1
ACDBDICTIONARYWDFLT
  2
AcDbDictionaryWithDefault
  3
AutoCAD 2000
 90
        0
280
     0
281
     0
  0
CLASS
  1
ACDBPLACEHOLDER
  2
AcDbPlaceHolder
  3
AutoCAD 2000
 90
        0
280
     0
281
     0
  0
CLASS
  1
LAYOUT
  2
AcDbLayout
  3
AutoCAD 2000
 90
        0
280
     0
281
     0
  0
CLASS
  1
DICTIONARYVAR
  2
AcDbDictionaryVar
  3
AutoCAD 2000
 90
        0
280
     0
281
     0
  0
CLASS
  1
LONG_TRANSACTION
  2
AcDbLongTransaction
  3
AutoCAD 2000
 90
        0
280
     0
281
     0
  0
CLASS
  1
LWPOLYLINE
  2
AcDbPolyline
  3
AutoCAD 2000
 90
        0
280
     0
281
     1
  0
CLASS
  1
HATCH
  2
AcDbHatch
  3
AutoCAD 2000
 90
        0
280
     0
281
     1
  0
CLASS
  1
XRECORD
  2
AcDbXrecord
  3
AutoCAD 2000
 90
        0
280
     0
281
     0
  0
CLASS
  1
LONG_TRANSACTION
  2
AcDbLongTransaction
  3
AutoCAD 2000
 90
        0
280
     0
281
     0
  0
CLASS
  1
LWPOLYLINE
  2
AcDbPolyline
  3
AutoCAD 2000
 90
        0
280
     0
281
     1
  0
CLASS
  1
HATCH
  2
AcDbHatch
  3
AutoCAD 2000
 90
        0
280
     0
281
     1
  0
CLASS
  1
XRECORD
  2
AcDbXrecord
  3
AutoCAD 2000
 90
        0
280
     0
281
     0
  0
CLASS
  1
LONG_TRANSACTION
  2
AcDbLongTransaction
  3
AutoCAD 2000
 90
        0
280
     0
281
     0
  0
CLASS
  1
LWPOLYLINE
  2
AcDbPolyline
  3
AutoCAD 2000
 90
        0
280
     0
281
     1
  0
CLASS
  1
HATCH
  2
AcDbHatch
  3
AutoCAD 2000
 90
        0
280
     0
281
     1
  0
CLASS
  1
XRECORD
  2
AcDbXrecord
  3
AutoCAD 2000
 90
        0
280
     0
281
     0
  0
ENDSEC
  0
SECTION
  2
TABLES
  0
TABLE
  2
VPORT
  5
6AB3
330
0
100
AcDbSymbolTable
 70
     2
  0
VPORT
  5
6D20
330
6AB3
100
AcDbSymbolTableRecord
100
AcDbViewportTableRecord
  2
*ACTIVE
 70
     0
 10
0.0
 20
0.0
 11
1.0
 21
1.0
 12
102.0214789038369
 22
241.6105965530854
 13
0.0
 23
0.0
 14
0.2
 24
0.2
 15
0.0
 25
0.0
 16
0.0
 26
0.0
 36
1.0
 17
0.0
 27
0.0
 37
0.0
 40
281.4904498925295
 41
2.348946135831381
 42
50.0
 43
0.0
 44
0.0
 50
0.0
 51
0.0
 71
     0
 72
   100
 73
     1
 74
     1
 75
     1
 76
     0
 77
     0
 78
     0
  0
ENDTAB
  0
TABLE
  2
LTYPE
  5
6AB0
330
0
100
AcDbSymbolTable
 70
     2
  0
LTYPE
  5
6ABE
330
6AB0
100
AcDbSymbolTableRecord
100
AcDbLinetypeTableRecord
  2
BYBLOCK
 70
     0
  3

 72
    65
 73
     0
 40
0.0
  0
LTYPE
  5
6ABF
330
6AB0
100
AcDbSymbolTableRecord
100
AcDbLinetypeTableRecord
  2
BYLAYER
 70
     0
  3

 72
    65
 73
     0
 40
0.0
  0
LTYPE
  5
6AC0
330
6AB0
100
AcDbSymbolTableRecord
100
AcDbLinetypeTableRecord
  2
CONTINUOUS
 70
     0
  3
Solid line
 72
    65
 73
     0
 40
0.0
  0
LTYPE
  5
6B58
330
6AB0
100
AcDbSymbolTableRecord
100
AcDbLinetypeTableRecord
  2
DOT2
 70
     0
  3
Dot (.5x) .....................................
 72
    65
 73
     2
 40
3.174999999999998
 49
0.0
 74
     0
 49
-3.174999999999998
 74
     0
  0
ENDTAB
  0
TABLE
  2
LAYER
  5
6AAD
330
0
100
AcDbSymbolTable
 70
     7
  0
LAYER
  5
6ABB
330
6AAD
100
AcDbSymbolTableRecord
100
AcDbLayerTableRecord
  2
0
 70
     0
 62
     7
  6
CONTINUOUS
  0
LAYER
  5
6ACD
330
6AAD
100
AcDbSymbolTableRecord
100
AcDbLayerTableRecord
  2
7
 70
     0
 62
     7
  6
CONTINUOUS
  0
LAYER
  5
6B4A
330
6AAD
100
AcDbSymbolTableRecord
100
AcDbLayerTableRecord
  2
基準
 70
     0
 62
     7
  6
CONTINUOUS
  0
LAYER
  5
6B59
330
6AAD
100
AcDbSymbolTableRecord
100
AcDbLayerTableRecord
  2
L0_
 70
     0
 62
     3
  6
CONTINUOUS
  0
LAYER
  5
6B5A
330
6AAD
100
AcDbSymbolTableRecord
100
AcDbLayerTableRecord
  2
L200_
 70
     0
 62
     4
  6
DOT2
  0
LAYER
  5
6C0B
330
6AAD
100
AcDbSymbolTableRecord
100
AcDbLayerTableRecord
  2
HOJYO
 70
     0
 62
     2
  6
CONTINUOUS
  0
LAYER
  5
6C49
330
6AAD
100
AcDbSymbolTableRecord
100
AcDbLayerTableRecord
  2
M
 70
     0
 62
     1
  6
CONTINUOUS
  0
ENDTAB
  0
TABLE
  2
STYLE
  5
6AAE
330
0
100
AcDbSymbolTable
 70
     3
  0
STYLE
  5
6ABC
330
6AAE
100
AcDbSymbolTableRecord
100
AcDbTextStyleTableRecord
  2
STANDARD
 70
     0
 40
0.0
 41
0.8
 50
0.0
 71
     0
 42
20.0
  3
MONOTXT
  4
BIGFONT
  0
STYLE
  5
6B4B
330
6AAE
100
AcDbSymbolTableRecord
100
AcDbTextStyleTableRecord
  2
STD
 70
     0
 40
0.0
 41
1.0
 50
0.0
 71
     0
 42
0.0
  3
txt
  4

  0
STYLE
  5
6B5B
330
6AAE
100
AcDbSymbolTableRecord
100
AcDbTextStyleTableRecord
  2

 70
     1
 40
0.0
 41
1.0
 50
0.0
 71
     0
 42
2.5
  3
ltypeshp.shx
  4

  0
ENDTAB
  0
TABLE
  2
VIEW
  5
6AB1
330
0
100
AcDbSymbolTable
 70
     0
  0
ENDTAB
  0
TABLE
  2
UCS
  5
6AB2
330
0
100
AcDbSymbolTable
 70
     0
  0
ENDTAB
  0
TABLE
  2
APPID
  5
6AB4
330
0
100
AcDbSymbolTable
 70
     2
  0
APPID
  5
6ABD
330
6AB4
100
AcDbSymbolTableRecord
100
AcDbRegAppTableRecord
  2
ACAD
 70
     0
  0
APPID
  5
6CE8
330
6AB4
100
AcDbSymbolTableRecord
100
AcDbRegAppTableRecord
  2
CONTENTBLOCKICON
 70
     0
  0
ENDTAB
  0
TABLE
  2
DIMSTYLE
  5
6AB5
330
0
100
AcDbSymbolTable
 70
     2
  0
DIMSTYLE
105
6ACF
330
6AB5
100
AcDbSymbolTableRecord
100
AcDbDimStyleTableRecord
  2
STANDARD
 70
     0
  3

  4

  5

  6

  7

 40
1.0
 41
0.18
 42
0.0625
 43
0.38
 44
0.18
 45
0.0
 46
0.0
 47
0.0
 48
0.0
140
0.18
141
0.09
142
0.0
143
25.4
144
1.0
145
0.0
146
1.0
147
0.09
 71
     0
 72
     0
 73
     1
 74
     1
 75
     0
 76
     0
 77
     0
 78
     0
170
     0
171
     2
172
     0
173
     0
174
     0
175
     0
176
     0
177
     0
178
     0
270
     2
271
     4
272
     4
273
     2
274
     2
340
6ABC
275
     0
280
     0
281
     0
282
     0
283
     1
284
     0
285
     0
286
     0
287
     3
288
     0
  0
DIMSTYLE
105
6B5C
330
6AB5
100
AcDbSymbolTableRecord
100
AcDbDimStyleTableRecord
  2
ISO-25
 70
     0
  3

  4

  5

  6

  7

 40
1.0
 41
2.5
 42
0.625
 43
3.75
 44
1.25
 45
0.0
 46
0.0
 47
0.0
 48
0.0
140
2.5
141
2.5
142
0.0
143
0.03937007874016
144
1.0
145
0.0
146
1.0
147
0.625
 71
     0
 72
     0
 73
     0
 74
     0
 75
     0
 76
     0
 77
     1
 78
     8
170
     0
171
     3
172
     1
173
     0
174
     0
175
     0
176
     0
177
     0
178
     0
270
     2
271
     2
272
     2
273
     2
274
     3
340
6ABC
275
     0
280
     0
281
     0
282
     0
283
     0
284
     8
285
     0
286
     0
287
     3
288
     0
  0
ENDTAB
  0
TABLE
  2
BLOCK_RECORD
  5
6AAC
330
0
100
AcDbSymbolTable
 70
     4
  0
BLOCK_RECORD
  5
6AC9
102
{ACAD_XDICTIONARY
360
6CE6
102
}
330
6AAC
100
AcDbSymbolTableRecord
100
AcDbBlockTableRecord
  2
*MODEL_SPACE
  0
BLOCK_RECORD
  5
6AC5
102
{ACAD_XDICTIONARY
360
6CE4
102
}
330
6AAC
100
AcDbSymbolTableRecord
100
AcDbBlockTableRecord
  2
*PAPER_SPACE
  0
BLOCK_RECORD
  5
6AD2
330
6AAC
100
AcDbSymbolTableRecord
100
AcDbBlockTableRecord
  2
$MODEL_SPACE
  0
BLOCK_RECORD
  5
6AD5
330
6AAC
100
AcDbSymbolTableRecord
100
AcDbBlockTableRecord
  2
$PAPER_SPACE
  0
BLOCK_RECORD
  5
6B3E
330
6AAC
100
AcDbSymbolTableRecord
100
AcDbBlockTableRecord
  2
BASELINE
1001
CONTENTBLOCKICON
1071
        0
1004
2800000020000000200000000100080000000000000400000000000000000000000000000000000000000000000080000080000000808000800000008000800080800000C0C0C000C0DCC000F0CAA6000020400000206000002080000020A0000020C0000020E00000400000004020000040400000406000004080000040A0
1004
000040C0000040E00000600000006020000060400000606000006080000060A0000060C0000060E00000800000008020000080400000806000008080000080A0000080C0000080E00000A0000000A0200000A0400000A0600000A0800000A0A00000A0C00000A0E00000C0000000C0200000C0400000C0600000C0800000C0
1004
A00000C0C00000C0E00000E0000000E0200000E0400000E0600000E0800000E0A00000E0C00000E0E00040000000400020004000400040006000400080004000A0004000C0004000E00040200000402020004020400040206000402080004020A0004020C0004020E000404000004040200040404000404060004040800040
1004
40A0004040C0004040E00040600000406020004060400040606000406080004060A0004060C0004060E00040800000408020004080400040806000408080004080A0004080C0004080E00040A0000040A0200040A0400040A0600040A0800040A0A00040A0C00040A0E00040C0000040C0200040C0400040C0600040C08000
1004
40C0A00040C0C00040C0E00040E0000040E0200040E0400040E0600040E0800040E0A00040E0C00040E0E00080000000800020008000400080006000800080008000A0008000C0008000E00080200000802020008020400080206000802080008020A0008020C0008020E00080400000804020008040400080406000804080
1004
008040A0008040C0008040E00080600000806020008060400080606000806080008060A0008060C0008060E00080800000808020008080400080806000808080008080A0008080C0008080E00080A0000080A0200080A0400080A0600080A0800080A0A00080A0C00080A0E00080C0000080C0200080C0400080C0600080C0
1004
800080C0A00080C0C00080C0E00080E0000080E0200080E0400080E0600080E0800080E0A00080E0C00080E0E000C0000000C0002000C0004000C0006000C0008000C000A000C000C000C000E000C0200000C0202000C0204000C0206000C0208000C020A000C020C000C020E000C0400000C0402000C0404000C0406000C0
1004
408000C040A000C040C000C040E000C0600000C0602000C0604000C0606000C0608000C060A000C060C000C060E000C0800000C0802000C0804000C0806000C0808000C080A000C080C000C080E000C0A00000C0A02000C0A04000C0A06000C0A08000C0A0A000C0A0C000C0A0E000C0C00000C0C02000C0C04000C0C06000
1004
C0C08000C0C0A000F0FBFF00A4A0A000808080000000FF0000FF000000FFFF00FF000000FF00FF00FFFF0000FFFFFF00000000000000000000000000000000000000000000000000000000000000000000000000000000FFFFFFFF00000000000000000000000000000000000000000000000000000000FFFFFFFF00000000
1004
00000000000000000000000000000000000000000000FFFFFFFCFCFCFCFCFCFCFCFCFCFCFCFCFCFCFCFCFCFC000000000000000000000000FCFCFC0000000000000000000000000000000000000000000000000000000000FCFCFC0000000000000000000000000000000000000000000000000000000000FCFCFC00000000
1004
00000000000000000000000000000000000000000000000000FCFCFC0000000000000000000000000000000000000000000000000000000000FCFCFC0000000000000000000000000000000000000000000000000000000000FCFCFC0000000000000000000000000000000000000000000000000000000000FCFCFC000000
1004
0000000000000000000000000000000000000000000000000000FCFCFC0000000000000000000000000000000000000000000000000000000000FCFCFC0000000000000000000000000000000000000000000000000000000000FCFCFC0000000000000000000000000000000000000000000000000000000000FCFCFC0000
1004
000000000000000000000000000000000000000000000000000000FCFCFC0000000000000000000000000000000000000000000000000000000000FCFCFC0000000000000000000000000000000000000000000000000000000000FCFCFC0000000000000000000000000000000000000000000000000000000000FCFCFC00
1004
00000000000000000000000000000000000000000000000000000000FCFCFC0000000000000000000000000000000000000000000000000000000000FCFCFC0000000000000000000000000000000000000000000000000000000000FCFCFC0000000000000000000000000000000000000000000000000000000000FCFCFC
1004
0000000000000000000000000000000000000000000000000000000000FCFCFC0000000000000000000000000000000000000000000000000000000000FCFCFC0000000000000000000000000000000000000000000000000000000000FCFCFC0000000000000000000000000000000000000000000000000000000000FCFC
1004
FC0000000000000000000000000000000000000000000000000000000000FCFCFC0000000000000000000000000000000000000000000000000000000000FCFCFC0000000000000000000000000000000000000000000000000000000000FCFCFC0000000000000000000000000000000000000000000000000000000000FC
1004
FCFC000000000000000000000000000000000000000000000000000000000000000000000000000000000000000000000000000000000000
  0
BLOCK_RECORD
  5
6B5D
330
6AAC
100
AcDbSymbolTableRecord
100
AcDbBlockTableRecord
  2
GRAPHBASE
1001
ACAD
1000
DesignCenter Data
1002
{
1070
     1
1070
     4
1002
}
  0
ENDTAB
  0
ENDSEC
  0
SECTION
  2
BLOCKS
  0
BLOCK
  5
6ACA
330
6AC9
100
AcDbEntity
  8
0
100
AcDbBlockBegin
  2
*MODEL_SPACE
 70
     0
 10
0.0
 20
0.0
 30
0.0
  3
*MODEL_SPACE
  1

  0
ENDBLK
  5
6ACB
330
6AC9
100
AcDbEntity
  8
0
100
AcDbBlockEnd
  0
BLOCK
  5
6AC6
330
6AC5
100
AcDbEntity
 67
     1
  8
0
100
AcDbBlockBegin
  2
*PAPER_SPACE
 70
     0
 10
0.0
 20
0.0
 30
0.0
  3
*PAPER_SPACE
  1

  0
ENDBLK
  5
6AC7
330
6AC5
100
AcDbEntity
 67
     1
  8
0
100
AcDbBlockEnd
  0
BLOCK
  5
6AD3
330
6AD2
100
AcDbEntity
  8
0
100
AcDbBlockBegin
  2
$MODEL_SPACE
 70
     0
 10
0.0
 20
0.0
 30
0.0
  3
$MODEL_SPACE
  1

  0
ENDBLK
  5
6AD4
330
6AD2
100
AcDbEntity
  8
0
100
AcDbBlockEnd
  0
BLOCK
  5
6AD6
330
6AD5
100
AcDbEntity
  8
0
100
AcDbBlockBegin
  2
$PAPER_SPACE
 70
     0
 10
0.0
 20
0.0
 30
0.0
  3
$PAPER_SPACE
  1

  0
ENDBLK
  5
6AD7
330
6AD5
100
AcDbEntity
  8
0
100
AcDbBlockEnd
  0
BLOCK
  5
6B48
330
6B3E
100
AcDbEntity
  8
0
100
AcDbBlockBegin
  2
BASELINE
 70
     0
 10
0.0
 20
0.0
 30
0.0
  3
BASELINE
  1

  0
MTEXT
  5
6B3F
330
6B3E
100
AcDbEntity
  8
基準
 62
     7
100
AcDbMText
 10
-1.444082999999975
 20
-17.18482499999999
 30
0.0
 40
2.444193999999999
 41
0.0
 71
     1
 72
     2
  1
\fOsaka|b0|i0|c128;440V
  7
STD
 11
0.0
 21
1.0
 31
0.0
1001
ACAD
1000
MTEXTBEGIN
1070
    73
1070
     1
1070
    44
1040
1.0
1070
    74
1070
     0
1000
MTEXTEND
1000
MTEXTBEGIN
1070
    73
1070
     1
1070
    44
1040
1.0
1070
    74
1070
     0
1000
MTEXTEND
1000
MTEXTBEGIN
1070
    73
1070
     1
1070
    44
1040
1.0
1070
    74
1070
     0
1000
MTEXTEND
  0
MTEXT
  5
6B40
330
6B3E
100
AcDbEntity
  8
基準
 62
     7
100
AcDbMText
 10
11.65589299999999
 20
-17.18482499999999
 30
0.0
 40
2.444193999999999
 41
0.0
 71
     1
 72
     2
  1
\fOsaka|b0|i0|c128;220V
  7
STD
 11
0.0
 21
1.0
 31
0.0
1001
ACAD
1000
MTEXTBEGIN
1070
    73
1070
     1
1070
    44
1040
1.0
1070
    74
1070
     0
1000
MTEXTEND
1000
MTEXTBEGIN
1070
    73
1070
     1
1070
    44
1040
1.0
1070
    74
1070
     0
1000
MTEXTEND
1000
MTEXTBEGIN
1070
    73
1070
     1
1070
    44
1040
1.0
1070
    74
1070
     0
1000
MTEXTEND
  0
MTEXT
  5
6B41
330
6B3E
100
AcDbEntity
  8
基準
 62
     7
100
AcDbMText
 10
25.237837
 20
-17.18482499999999
 30
0.0
 40
2.444193999999999
 41
0.0
 71
     1
 72
     2
  1
\fOsaka|b0|i0|c128;110V
  7
STD
 11
0.0
 21
1.0
 31
0.0
1001
ACAD
1000
MTEXTBEGIN
1070
    73
1070
     1
1070
    44
1040
1.0
1070
    74
1070
     0
1000
MTEXTEND
1000
MTEXTBEGIN
1070
    73
1070
     1
1070
    44
1040
1.0
1070
    74
1070
     0
1000
MTEXTEND
1000
MTEXTBEGIN
1070
    73
1070
     1
1070
    44
1040
1.0
1070
    74
1070
     0
1000
MTEXTEND
  0
LINE
  5
6B42
330
6B3E
100
AcDbEntity
  8
基準
100
AcDbLine
 10
194.342487
 20
0.0
 30
0.0
 11
0.0
 21
0.0
 31
0.0
  0
LINE
  5
6B43
330
6B3E
100
AcDbEntity
  8
基準
100
AcDbLine
 10
0.0
 20
260.400299
 30
0.0
 11
0.0
 21
0.0
 31
0.0
  0
LINE
  5
6B44
330
6B3E
100
AcDbEntity
  8
基準
100
AcDbLine
 10
13.09997500000003
 20
260.400299
 30
0.0
 11
13.09997500000003
 21
0.0
 31
0.0
  0
MTEXT
  5
6B45
330
6B3E
100
AcDbEntity
  8
基準
 62
     7
100
AcDbMText
 10
-21.45484899999999
 20
1.440292999999995
 30
0.0
 40
2.444193999999999
 41
0.0
 71
     1
 72
     2
  1
\W1.02;\fOsaka|b0|i0|c128;0.01S
  7
STD
1001
ACAD
1000
MTEXTBEGIN
1070
    73
1070
     1
1070
    44
1040
1.0
1070
    74
1070
     0
1000
MTEXTEND
1000
MTEXTBEGIN
1070
    73
1070
     1
1070
    44
1040
1.0
1070
    74
1070
     0
1000
MTEXTEND
1000
MTEXTBEGIN
1070
    73
1070
     1
1070
    44
1040
1.0
1070
    74
1070
     0
1000
MTEXTEND
  0
LINE
  5
6B46
330
6B3E
100
AcDbEntity
  8
7
  6
CONTINUOUS
100
AcDbLine
 10
0.0
 20
0.0
 30
0.0
 11
0.0
 21
0.0
 31
0.0
  0
LINE
  5
6B47
330
6B3E
100
AcDbEntity
  8
基準
100
AcDbLine
 10
26.199951
 20
260.400299
 30
0.0
 11
26.199951
 21
0.0
 31
0.0
  0
ENDBLK
  5
6B49
330
6B3E
100
AcDbEntity
  8
0
100
AcDbBlockEnd
  0
BLOCK
  5
6BE2
330
6B5D
100
AcDbEntity
  8
0
100
AcDbBlockBegin
  2
GRAPHBASE
 70
     0
 10
0.0
 20
0.0
 30
0.0
  3
GRAPHBASE
  1

  0
MTEXT
  5
6B5E
330
6B5D
100
AcDbEntity
  8
L0_
 62
     7
100
AcDbMText
 10
78.42846001519101
 20
-35.53907349729348
 30
0.0
 40
3.910714914164845
 41
0.0
 71
     1
 72
     2
  1
\W1.14;\fOsaka|b0|i0|c128;TERASAKI ELECTRIC CO.,LTD.
  7
STD
1001
ACAD
1000
MTEXTBEGIN
1070
    73
1070
     1
1070
    44
1040
1.0
1070
    74
1070
     0
1000
MTEXTEND
1000
MTEXTBEGIN
1070
    73
1070
     1
1070
    44
1040
1.0
1070
    74
1070
     0
1000
MTEXTEND
1000
MTEXTBEGIN
1070
    73
1070
     1
1070
    44
1040
1.0
1070
    74
1070
     0
1000
MTEXTEND
  0
MTEXT
  5
6B5F
330
6B5D
100
AcDbEntity
  8
L0_
 62
     7
100
AcDbMText
 10
43.39993489583347
 20
279.3113035643385
 30
0.0
 40
3.910714914164845
 41
0.0
 71
     1
 72
     2
  1
\W0.97;\fOsaka|b0|i0|c128;Time/Current characteristic curves
  7
STD
1001
ACAD
1000
MTEXTBEGIN
1070
    73
1070
     1
1070
    44
1040
1.0
1070
    74
1070
     0
1000
MTEXTEND
1000
MTEXTBEGIN
1070
    73
1070
     1
1070
    44
1040
1.0
1070
    74
1070
     0
1000
MTEXTEND
1000
MTEXTBEGIN
1070
    73
1070
     1
1070
    44
1040
1.0
1070
    74
1070
     0
1000
MTEXTEND
  0
MTEXT
  5
6B60
330
6B5D
100
AcDbEntity
  8
L0_
 62
     7
100
AcDbMText
 10
0.0
 20
279.3113035643385
 30
0.0
 40
3.910714914164845
 41
0.0
 71
     1
 72
     2
  1
\W1.12;\fOsaka|b0|i0|c128;TemBreak2
  7
STD
1001
ACAD
1000
MTEXTBEGIN
1070
    73
1070
     1
1070
    44
1040
1.0
1070
    74
1070
     0
1000
MTEXTEND
1000
MTEXTBEGIN
1070
    73
1070
     1
1070
    44
1040
1.0
1070
    74
1070
     0
1000
MTEXTEND
1000
MTEXTBEGIN
1070
    73
1070
     1
1070
    44
1040
1.0
1070
    74
1070
     0
1000
MTEXTEND
  0
MTEXT
  5
6B61
330
6B5D
100
AcDbEntity
  8
L200_
 62
     7
100
AcDbMText
 10
91.78991834852439
 20
-22.24611679400732
 30
0.0
 40
2.444193535853943
 41
0.0
 71
     1
 72
     2
  1
\W1.09;\fOsaka|b0|i0|c128;secondary == 110,220,440V
  7
STD
1001
ACAD
1000
MTEXTBEGIN
1070
    73
1070
     1
1070
    44
1040
1.0
1070
    74
1070
     0
1000
MTEXTEND
1000
MTEXTBEGIN
1070
    73
1070
     1
1070
    44
1040
1.0
1070
    74
1070
     0
1000
MTEXTEND
1000
MTEXTBEGIN
1070
    73
1070
     1
1070
    44
1040
1.0
1070
    74
1070
     0
1000
MTEXTEND
  0
MTEXT
  5
6B62
330
6B5D
100
AcDbEntity
  8
L200_
 62
     7
100
AcDbMText
 10
91.78991834852439
 20
-18.38898788775708
 30
0.0
 40
2.444193535853943
 41
0.0
 71
     1
 72
     2
  1
\W1.08;\fOsaka|b0|i0|c128;primary ==== 6.6kV
  7
STD
1001
ACAD
1000
MTEXTBEGIN
1070
    73
1070
     1
1070
    44
1040
1.0
1070
    74
1070
     0
1000
MTEXTEND
1000
MTEXTBEGIN
1070
    73
1070
     1
1070
    44
1040
1.0
1070
    74
1070
     0
1000
MTEXTEND
1000
MTEXTBEGIN
1070
    73
1070
     1
1070
    44
1040
1.0
1070
    74
1070
     0
1000
MTEXTEND
  0
MTEXT
  5
6B63
330
6B5D
100
AcDbEntity
  8
L200_
 62
     7
100
AcDbMText
 10
179.7980848387119
 20
-10.78314887152791
 30
0.0
 40
2.444193535853943
 41
0.0
 71
     1
 72
     2
  1
\fOsaka|b0|i0|c128;30000
  7
STD
 11
0.0
 21
1.0
 31
0.0
1001
ACAD
1000
MTEXTBEGIN
1070
    73
1070
     1
1070
    44
1040
1.0
1070
    74
1070
     0
1000
MTEXTEND
1000
MTEXTBEGIN
1070
    73
1070
     1
1070
    44
1040
1.0
1070
    74
1070
     0
1000
MTEXTEND
1000
MTEXTBEGIN
1070
    73
1070
     1
1070
    44
1040
1.0
1070
    74
1070
     0
1000
MTEXTEND
  0
MTEXT
  5
6B64
330
6B5D
100
AcDbEntity
  8
L200_
 62
     7
100
AcDbMText
 10
172.1554850123232
 20
-10.78314887152791
 30
0.0
 40
2.444193535853943
 41
0.0
 71
     1
 72
     2
  1
\fOsaka|b0|i0|c128;20000
  7
STD
 11
0.0
 21
1.0
 31
0.0
1001
ACAD
1000
MTEXTBEGIN
1070
    73
1070
     1
1070
    44
1040
1.0
1070
    74
1070
     0
1000
MTEXTEND
1000
MTEXTBEGIN
1070
    73
1070
     1
1070
    44
1040
1.0
1070
    74
1070
     0
1000
MTEXTEND
1000
MTEXTBEGIN
1070
    73
1070
     1
1070
    44
1040
1.0
1070
    74
1070
     0
1000
MTEXTEND
  0
MTEXT
  5
6B65
330
6B5D
100
AcDbEntity
  8
L200_
 62
     7
100
AcDbMText
 10
159.0909939098924
 20
-10.78314887152791
 30
0.0
 40
2.444193535853943
 41
0.0
 71
     1
 72
     2
  1
\fOsaka|b0|i0|c128;10000
  7
STD
 11
0.0
 21
1.0
 31
0.0
1001
ACAD
1000
MTEXTBEGIN
1070
    73
1070
     1
1070
    44
1040
1.0
1070
    74
1070
     0
1000
MTEXTEND
1000
MTEXTBEGIN
1070
    73
1070
     1
1070
    44
1040
1.0
1070
    74
1070
     0
1000
MTEXTEND
1000
MTEXTBEGIN
1070
    73
1070
     1
1070
    44
1040
1.0
1070
    74
1070
     0
1000
MTEXTEND
  0
MTEXT
  5
6B66
330
6B5D
100
AcDbEntity
  8
L200_
 62
     7
100
AcDbMText
 10
154.8852213404479
 20
-9.140871853298591
 30
0.0
 40
2.444193535853943
 41
0.0
 71
     1
 72
     2
  1
\fOsaka|b0|i0|c128;8000
  7
STD
 11
0.0
 21
1.0
 31
0.0
1001
ACAD
1000
MTEXTBEGIN
1070
    73
1070
     1
1070
    44
1040
1.0
1070
    74
1070
     0
1000
MTEXTEND
1000
MTEXTBEGIN
1070
    73
1070
     1
1070
    44
1040
1.0
1070
    74
1070
     0
1000
MTEXTEND
1000
MTEXTBEGIN
1070
    73
1070
     1
1070
    44
1040
1.0
1070
    74
1070
     0
1000
MTEXTEND
  0
MTEXT
  5
6B67
330
6B5D
100
AcDbEntity
  8
L200_
 62
     7
100
AcDbMText
 10
146.026502807462
 20
-9.140871853298591
 30
0.0
 40
2.444193535853943
 41
0.0
 71
     1
 72
     2
  1
\fOsaka|b0|i0|c128;5000
  7
STD
 11
0.0
 21
1.0
 31
0.0
1001
ACAD
1000
MTEXTBEGIN
1070
    73
1070
     1
1070
    44
1040
1.0
1070
    74
1070
     0
1000
MTEXTEND
1000
MTEXTBEGIN
1070
    73
1070
     1
1070
    44
1040
1.0
1070
    74
1070
     0
1000
MTEXTEND
1000
MTEXTBEGIN
1070
    73
1070
     1
1070
    44
1040
1.0
1070
    74
1070
     0
1000
MTEXTEND
  0
MTEXT
  5
6B68
330
6B5D
100
AcDbEntity
  8
L200_
 62
     7
100
AcDbMText
 10
136.3981499428787
 20
-9.140871853298591
 30
0.0
 40
2.444193535853943
 41
0.0
 71
     1
 72
     2
  1
\fOsaka|b0|i0|c128;3000
  7
STD
 11
0.0
 21
1.0
 31
0.0
1001
ACAD
1000
MTEXTBEGIN
1070
    73
1070
     1
1070
    44
1040
1.0
1070
    74
1070
     0
1000
MTEXTEND
1000
MTEXTBEGIN
1070
    73
1070
     1
1070
    44
1040
1.0
1070
    74
1070
     0
1000
MTEXTEND
1000
MTEXTBEGIN
1070
    73
1070
     1
1070
    44
1040
1.0
1070
    74
1070
     0
1000
MTEXTEND
  0
MTEXT
  5
6B69
330
6B5D
100
AcDbEntity
  8
L200_
 62
     7
100
AcDbMText
 10
128.7555501164897
 20
-9.140871853298591
 30
0.0
 40
2.444193535853943
 41
0.0
 71
     1
 72
     2
  1
\fOsaka|b0|i0|c128;2000
  7
STD
 11
0.0
 21
1.0
 31
0.0
1001
ACAD
1000
MTEXTBEGIN
1070
    73
1070
     1
1070
    44
1040
1.0
1070
    74
1070
     0
1000
MTEXTEND
1000
MTEXTBEGIN
1070
    73
1070
     1
1070
    44
1040
1.0
1070
    74
1070
     0
1000
MTEXTEND
1000
MTEXTBEGIN
1070
    73
1070
     1
1070
    44
1040
1.0
1070
    74
1070
     0
1000
MTEXTEND
  0
MTEXT
  5
6B6A
330
6B5D
100
AcDbEntity
  8
L200_
 62
     7
100
AcDbMText
 10
115.6910590140592
 20
-9.140871853298591
 30
0.0
 40
2.444193535853943
 41
0.0
 71
     1
 72
     2
  1
\fOsaka|b0|i0|c128;1000
  7
STD
 11
0.0
 21
1.0
 31
0.0
1001
ACAD
1000
MTEXTBEGIN
1070
    73
1070
     1
1070
    44
1040
1.0
1070
    74
1070
     0
1000
MTEXTEND
1000
MTEXTBEGIN
1070
    73
1070
     1
1070
    44
1040
1.0
1070
    74
1070
     0
1000
MTEXTEND
1000
MTEXTBEGIN
1070
    73
1070
     1
1070
    44
1040
1.0
1070
    74
1070
     0
1000
MTEXTEND
  0
MTEXT
  5
6B6B
330
6B5D
100
AcDbEntity
  8
L200_
 62
     7
100
AcDbMText
 10
111.4852864446149
 20
-7.498250325520896
 30
0.0
 40
2.444193535853943
 41
0.0
 71
     1
 72
     2
  1
\fOsaka|b0|i0|c128;800
  7
STD
 11
0.0
 21
1.0
 31
0.0
1001
ACAD
1000
MTEXTBEGIN
1070
    73
1070
     1
1070
    44
1040
1.0
1070
    74
1070
     0
1000
MTEXTEND
1000
MTEXTBEGIN
1070
    73
1070
     1
1070
    44
1040
1.0
1070
    74
1070
     0
1000
MTEXTEND
1000
MTEXTBEGIN
1070
    73
1070
     1
1070
    44
1040
1.0
1070
    74
1070
     0
1000
MTEXTEND
  0
MTEXT
  5
6B6C
330
6B5D
100
AcDbEntity
  8
L200_
 62
     7
100
AcDbMText
 10
102.6265679116288
 20
-7.498250325520896
 30
0.0
 40
2.444193535853943
 41
0.0
 71
     1
 72
     2
  1
\fOsaka|b0|i0|c128;500
  7
STD
 11
0.0
 21
1.0
 31
0.0
1001
ACAD
1000
MTEXTBEGIN
1070
    73
1070
     1
1070
    44
1040
1.0
1070
    74
1070
     0
1000
MTEXTEND
1000
MTEXTBEGIN
1070
    73
1070
     1
1070
    44
1040
1.0
1070
    74
1070
     0
1000
MTEXTEND
1000
MTEXTBEGIN
1070
    73
1070
     1
1070
    44
1040
1.0
1070
    74
1070
     0
1000
MTEXTEND
  0
MTEXT
  5
6B6D
330
6B5D
100
AcDbEntity
  8
L200_
 62
     7
100
AcDbMText
 10
92.9982150470454
 20
-7.498250325520896
 30
0.0
 40
2.444193535853943
 41
0.0
 71
     1
 72
     2
  1
\fOsaka|b0|i0|c128;300
  7
STD
 11
0.0
 21
1.0
 31
0.0
1001
ACAD
1000
MTEXTBEGIN
1070
    73
1070
     1
1070
    44
1040
1.0
1070
    74
1070
     0
1000
MTEXTEND
1000
MTEXTBEGIN
1070
    73
1070
     1
1070
    44
1040
1.0
1070
    74
1070
     0
1000
MTEXTEND
1000
MTEXTBEGIN
1070
    73
1070
     1
1070
    44
1040
1.0
1070
    74
1070
     0
1000
MTEXTEND
  0
MTEXT
  5
6B6E
330
6B5D
100
AcDbEntity
  8
L200_
 62
     7
100
AcDbMText
 10
85.35561522065652
 20
-7.498250325520896
 30
0.0
 40
2.444193535853943
 41
0.0
 71
     1
 72
     2
  1
\fOsaka|b0|i0|c128;200
  7
STD
 11
0.0
 21
1.0
 31
0.0
1001
ACAD
1000
MTEXTBEGIN
1070
    73
1070
     1
1070
    44
1040
1.0
1070
    74
1070
     0
1000
MTEXTEND
1000
MTEXTBEGIN
1070
    73
1070
     1
1070
    44
1040
1.0
1070
    74
1070
     0
1000
MTEXTEND
1000
MTEXTBEGIN
1070
    73
1070
     1
1070
    44
1040
1.0
1070
    74
1070
     0
1000
MTEXTEND
  0
MTEXT
  5
6B6F
330
6B5D
100
AcDbEntity
  8
L200_
 62
     7
100
AcDbMText
 10
72.2911241182259
 20
-7.498250325520896
 30
0.0
 40
2.444193535853943
 41
0.0
 71
     1
 72
     2
  1
\fOsaka|b0|i0|c128;100
  7
STD
 11
0.0
 21
1.0
 31
0.0
1001
ACAD
1000
MTEXTBEGIN
1070
    73
1070
     1
1070
    44
1040
1.0
1070
    74
1070
     0
1000
MTEXTEND
1000
MTEXTBEGIN
1070
    73
1070
     1
1070
    44
1040
1.0
1070
    74
1070
     0
1000
MTEXTEND
1000
MTEXTBEGIN
1070
    73
1070
     1
1070
    44
1040
1.0
1070
    74
1070
     0
1000
MTEXTEND
  0
MTEXT
  5
6B70
330
6B5D
100
AcDbEntity
  8
L200_
 62
     7
100
AcDbMText
 10
68.0851792940073
 20
-5.855628797743205
 30
0.0
 40
2.444193535853943
 41
0.0
 71
     1
 72
     2
  1
\fOsaka|b0|i0|c128;80
  7
STD
 11
0.0
 21
1.0
 31
0.0
1001
ACAD
1000
MTEXTBEGIN
1070
    73
1070
     1
1070
    44
1040
1.0
1070
    74
1070
     0
1000
MTEXTEND
1000
MTEXTBEGIN
1070
    73
1070
     1
1070
    44
1040
1.0
1070
    74
1070
     0
1000
MTEXTEND
1000
MTEXTBEGIN
1070
    73
1070
     1
1070
    44
1040
1.0
1070
    74
1070
     0
1000
MTEXTEND
  0
MTEXT
  5
6B71
330
6B5D
100
AcDbEntity
  8
L200_
 62
     7
100
AcDbMText
 10
59.2264607610212
 20
-5.855628797743205
 30
0.0
 40
2.444193535853943
 41
0.0
 71
     1
 72
     2
  1
\fOsaka|b0|i0|c128;50
  7
STD
 11
0.0
 21
1.0
 31
0.0
1001
ACAD
1000
MTEXTBEGIN
1070
    73
1070
     1
1070
    44
1040
1.0
1070
    74
1070
     0
1000
MTEXTEND
1000
MTEXTBEGIN
1070
    73
1070
     1
1070
    44
1040
1.0
1070
    74
1070
     0
1000
MTEXTEND
1000
MTEXTBEGIN
1070
    73
1070
     1
1070
    44
1040
1.0
1070
    74
1070
     0
1000
MTEXTEND
  0
MTEXT
  5
6B72
330
6B5D
100
AcDbEntity
  8
L200_
 62
     7
100
AcDbMText
 10
49.59810789643778
 20
-5.855628797743205
 30
0.0
 40
2.444193535853943
 41
0.0
 71
     1
 72
     2
  1
\fOsaka|b0|i0|c128;30
  7
STD
 11
0.0
 21
1.0
 31
0.0
1001
ACAD
1000
MTEXTBEGIN
1070
    73
1070
     1
1070
    44
1040
1.0
1070
    74
1070
     0
1000
MTEXTEND
1000
MTEXTBEGIN
1070
    73
1070
     1
1070
    44
1040
1.0
1070
    74
1070
     0
1000
MTEXTEND
1000
MTEXTBEGIN
1070
    73
1070
     1
1070
    44
1040
1.0
1070
    74
1070
     0
1000
MTEXTEND
  0
MTEXT
  5
6B73
330
6B5D
100
AcDbEntity
  8
L200_
 62
     7
100
AcDbMText
 10
41.9558525795975
 20
-5.855628797743205
 30
0.0
 40
2.444193535853943
 41
0.0
 71
     1
 72
     2
  1
\fOsaka|b0|i0|c128;20
  7
STD
 11
0.0
 21
1.0
 31
0.0
1001
ACAD
1000
MTEXTBEGIN
1070
    73
1070
     1
1070
    44
1040
1.0
1070
    74
1070
     0
1000
MTEXTEND
1000
MTEXTBEGIN
1070
    73
1070
     1
1070
    44
1040
1.0
1070
    74
1070
     0
1000
MTEXTEND
1000
MTEXTBEGIN
1070
    73
1070
     1
1070
    44
1040
1.0
1070
    74
1070
     0
1000
MTEXTEND
  0
MTEXT
  5
6B74
330
6B5D
100
AcDbEntity
  8
L200_
 62
     7
100
AcDbMText
 10
28.89101696761841
 20
-5.855628797743205
 30
0.0
 40
2.444193535853943
 41
0.0
 71
     1
 72
     2
  1
\fOsaka|b0|i0|c128;10
  7
STD
 11
0.0
 21
1.0
 31
0.0
1001
ACAD
1000
MTEXTBEGIN
1070
    73
1070
     1
1070
    44
1040
1.0
1070
    74
1070
     0
1000
MTEXTEND
1000
MTEXTBEGIN
1070
    73
1070
     1
1070
    44
1040
1.0
1070
    74
1070
     0
1000
MTEXTEND
1000
MTEXTBEGIN
1070
    73
1070
     1
1070
    44
1040
1.0
1070
    74
1070
     0
1000
MTEXTEND
  0
MTEXT
  5
6B75
330
6B5D
100
AcDbEntity
  8
L200_
 62
     7
100
AcDbMText
 10
24.68524439817389
 20
-4.213351779513912
 30
0.0
 40
2.444193535853943
 41
0.0
 71
     1
 72
     2
  1
\fOsaka|b0|i0|c128;8
  7
STD
 11
0.0
 21
1.0
 31
0.0
1001
ACAD
1000
MTEXTBEGIN
1070
    73
1070
     1
1070
    44
1040
1.0
1070
    74
1070
     0
1000
MTEXTEND
1000
MTEXTBEGIN
1070
    73
1070
     1
1070
    44
1040
1.0
1070
    74
1070
     0
1000
MTEXTEND
1000
MTEXTBEGIN
1070
    73
1070
     1
1070
    44
1040
1.0
1070
    74
1070
     0
1000
MTEXTEND
  0
MTEXT
  5
6B76
330
6B5D
100
AcDbEntity
  8
L200_
 62
     7
100
AcDbMText
 10
15.82652586518777
 20
-4.213351779513912
 30
0.0
 40
2.444193535853943
 41
0.0
 71
     1
 72
     2
  1
\fOsaka|b0|i0|c128;5
  7
STD
 11
0.0
 21
1.0
 31
0.0
1001
ACAD
1000
MTEXTBEGIN
1070
    73
1070
     1
1070
    44
1040
1.0
1070
    74
1070
     0
1000
MTEXTEND
1000
MTEXTBEGIN
1070
    73
1070
     1
1070
    44
1040
1.0
1070
    74
1070
     0
1000
MTEXTEND
1000
MTEXTBEGIN
1070
    73
1070
     1
1070
    44
1040
1.0
1070
    74
1070
     0
1000
MTEXTEND
  0
MTEXT
  5
6B77
330
6B5D
100
AcDbEntity
  8
L200_
 62
     7
100
AcDbMText
 10
6.198173000604382
 20
-4.213351779513912
 30
0.0
 40
2.444193535853943
 41
0.0
 71
     1
 72
     2
  1
\fOsaka|b0|i0|c128;3
  7
STD
 11
0.0
 21
1.0
 31
0.0
1001
ACAD
1000
MTEXTBEGIN
1070
    73
1070
     1
1070
    44
1040
1.0
1070
    74
1070
     0
1000
MTEXTEND
1000
MTEXTBEGIN
1070
    73
1070
     1
1070
    44
1040
1.0
1070
    74
1070
     0
1000
MTEXTEND
1000
MTEXTBEGIN
1070
    73
1070
     1
1070
    44
1040
1.0
1070
    74
1070
     0
1000
MTEXTEND
  0
MTEXT
  5
6B78
330
6B5D
100
AcDbEntity
  8
L200_
 62
     7
100
AcDbMText
 10
-1.332977986808797
 20
-4.213351779513912
 30
0.0
 40
2.444193535853943
 41
0.0
 71
     1
 72
     2
  1
\fOsaka|b0|i0|c128;2
  7
STD
 11
0.0
 21
1.0
 31
0.0
1001
ACAD
1000
MTEXTBEGIN
1070
    73
1070
     1
1070
    44
1040
1.0
1070
    74
1070
     0
1000
MTEXTEND
1000
MTEXTBEGIN
1070
    73
1070
     1
1070
    44
1040
1.0
1070
    74
1070
     0
1000
MTEXTEND
1000
MTEXTBEGIN
1070
    73
1070
     1
1070
    44
1040
1.0
1070
    74
1070
     0
1000
MTEXTEND
  0
MTEXT
  5
6B79
330
6B5D
100
AcDbEntity
  8
L200_
 62
     7
100
AcDbMText
 10
-8.931582302517282
 20
1.440292711201209
 30
0.0
 40
2.444193535853943
 41
0.0
 71
     1
 72
     2
  1
\W1.02;\fOsaka|b0|i0|c128;0.01
  7
STD
1001
ACAD
1000
MTEXTBEGIN
1070
    73
1070
     1
1070
    44
1040
1.0
1070
    74
1070
     0
1000
MTEXTEND
1000
MTEXTBEGIN
1070
    73
1070
     1
1070
    44
1040
1.0
1070
    74
1070
     0
1000
MTEXTEND
1000
MTEXTBEGIN
1070
    73
1070
     1
1070
    44
1040
1.0
1070
    74
1070
     0
1000
MTEXTEND
  0
MTEXT
  5
6B7A
330
6B5D
100
AcDbEntity
  8
L200_
 62
     7
100
AcDbMText
 10
-9.508635796440898
 20
14.51167400460391
 30
0.0
 40
2.444193535853943
 41
0.0
 71
     1
 72
     2
  1
\W1.11;\fOsaka|b0|i0|c128;0.02
  7
STD
1001
ACAD
1000
MTEXTBEGIN
1070
    73
1070
     1
1070
    44
1040
1.0
1070
    74
1070
     0
1000
MTEXTEND
1000
MTEXTBEGIN
1070
    73
1070
     1
1070
    44
1040
1.0
1070
    74
1070
     0
1000
MTEXTEND
1000
MTEXTBEGIN
1070
    73
1070
     1
1070
    44
1040
1.0
1070
    74
1070
     0
1000
MTEXTEND
  0
MTEXT
  5
6B7B
330
6B5D
100
AcDbEntity
  8
L200_
 62
     7
100
AcDbMText
 10
-9.700872124565904
 20
22.15151775460378
 30
0.0
 40
2.444193535853943
 41
0.0
 71
     1
 72
     2
  1
\W1.14;\fOsaka|b0|i0|c128;0.03
  7
STD
1001
ACAD
1000
MTEXTBEGIN
1070
    73
1070
     1
1070
    44
1040
1.0
1070
    74
1070
     0
1000
MTEXTEND
1000
MTEXTBEGIN
1070
    73
1070
     1
1070
    44
1040
1.0
1070
    74
1070
     0
1000
MTEXTEND
1000
MTEXTBEGIN
1070
    73
1070
     1
1070
    44
1040
1.0
1070
    74
1070
     0
1000
MTEXTEND
  0
MTEXT
  5
6B7C
330
6B5D
100
AcDbEntity
  8
L200_
 62
     7
100
AcDbMText
 10
-9.700872124565904
 20
27.57409804974281
 30
0.0
 40
2.444193535853943
 41
0.0
 71
     1
 72
     2
  1
\W1.14;\fOsaka|b0|i0|c128;0.04
  7
STD
1001
ACAD
1000
MTEXTBEGIN
1070
    73
1070
     1
1070
    44
1040
1.0
1070
    74
1070
     0
1000
MTEXTEND
1000
MTEXTBEGIN
1070
    73
1070
     1
1070
    44
1040
1.0
1070
    74
1070
     0
1000
MTEXTEND
1000
MTEXTBEGIN
1070
    73
1070
     1
1070
    44
1040
1.0
1070
    74
1070
     0
1000
MTEXTEND
  0
MTEXT
  5
6B7D
330
6B5D
100
AcDbEntity
  8
L200_
 62
     7
100
AcDbMText
 10
-9.700872124565904
 20
31.7826266955762
 30
0.0
 40
2.444193535853943
 41
0.0
 71
     1
 72
     2
  1
\W1.14;\fOsaka|b0|i0|c128;0.05
  7
STD
1001
ACAD
1000
MTEXTBEGIN
1070
    73
1070
     1
1070
    44
1040
1.0
1070
    74
1070
     0
1000
MTEXTEND
1000
MTEXTBEGIN
1070
    73
1070
     1
1070
    44
1040
1.0
1070
    74
1070
     0
1000
MTEXTEND
1000
MTEXTBEGIN
1070
    73
1070
     1
1070
    44
1040
1.0
1070
    74
1070
     0
1000
MTEXTEND
  0
MTEXT
  5
6B7E
330
6B5D
100
AcDbEntity
  8
L200_
 62
     7
100
AcDbMText
 10
-6.816293674044999
 20
44.84918485529839
 30
0.0
 40
2.444193535853943
 41
0.0
 71
     1
 72
     2
  1
\W0.94;\fOsaka|b0|i0|c128;0.1
  7
STD
1001
ACAD
1000
MTEXTBEGIN
1070
    73
1070
     1
1070
    44
1040
1.0
1070
    74
1070
     0
1000
MTEXTEND
1000
MTEXTBEGIN
1070
    73
1070
     1
1070
    44
1040
1.0
1070
    74
1070
     0
1000
MTEXTEND
1000
MTEXTBEGIN
1070
    73
1070
     1
1070
    44
1040
1.0
1070
    74
1070
     0
1000
MTEXTEND
  0
MTEXT
  5
6B7F
330
6B5D
100
AcDbEntity
  8
L200_
 62
     7
100
AcDbMText
 10
-7.393174913194285
 20
57.90885282404833
 30
0.0
 40
2.444193535853943
 41
0.0
 71
     1
 72
     2
  1
\W1.05;\fOsaka|b0|i0|c128;0.2
  7
STD
1001
ACAD
1000
MTEXTBEGIN
1070
    73
1070
     1
1070
    44
1040
1.0
1070
    74
1070
     0
1000
MTEXTEND
1000
MTEXTBEGIN
1070
    73
1070
     1
1070
    44
1040
1.0
1070
    74
1070
     0
1000
MTEXTEND
1000
MTEXTBEGIN
1070
    73
1070
     1
1070
    44
1040
1.0
1070
    74
1070
     0
1000
MTEXTEND
  0
MTEXT
  5
6B80
330
6B5D
100
AcDbEntity
  8
L200_
 62
     7
100
AcDbMText
 10
-7.585583496093589
 20
65.55145265043711
 30
0.0
 40
2.444193535853943
 41
0.0
 71
     1
 72
     2
  1
\W1.09;\fOsaka|b0|i0|c128;0.3
  7
STD
1001
ACAD
1000
MTEXTBEGIN
1070
    73
1070
     1
1070
    44
1040
1.0
1070
    74
1070
     0
1000
MTEXTEND
1000
MTEXTBEGIN
1070
    73
1070
     1
1070
    44
1040
1.0
1070
    74
1070
     0
1000
MTEXTEND
1000
MTEXTBEGIN
1070
    73
1070
     1
1070
    44
1040
1.0
1070
    74
1070
     0
1000
MTEXTEND
  0
MTEXT
  5
6B81
330
6B5D
100
AcDbEntity
  8
L200_
 62
     7
100
AcDbMText
 10
-7.585583496093589
 20
70.97403294557614
 30
0.0
 40
2.444193535853943
 41
0.0
 71
     1
 72
     2
  1
\W1.09;\fOsaka|b0|i0|c128;0.4
  7
STD
1001
ACAD
1000
MTEXTBEGIN
1070
    73
1070
     1
1070
    44
1040
1.0
1070
    74
1070
     0
1000
MTEXTEND
1000
MTEXTBEGIN
1070
    73
1070
     1
1070
    44
1040
1.0
1070
    74
1070
     0
1000
MTEXTEND
1000
MTEXTBEGIN
1070
    73
1070
     1
1070
    44
1040
1.0
1070
    74
1070
     0
1000
MTEXTEND
  0
MTEXT
  5
6B82
330
6B5D
100
AcDbEntity
  8
L200_
 62
     7
100
AcDbMText
 10
-7.585583496093589
 20
75.16258003759003
 30
0.0
 40
2.444193535853943
 41
0.0
 71
     1
 72
     2
  1
\W1.09;\fOsaka|b0|i0|c128;0.5
  7
STD
1001
ACAD
1000
MTEXTBEGIN
1070
    73
1070
     1
1070
    44
1040
1.0
1070
    74
1070
     0
1000
MTEXTEND
1000
MTEXTBEGIN
1070
    73
1070
     1
1070
    44
1040
1.0
1070
    74
1070
     0
1000
MTEXTEND
1000
MTEXTBEGIN
1070
    73
1070
     1
1070
    44
1040
1.0
1070
    74
1070
     0
1000
MTEXTEND
  0
MTEXT
  5
6B83
330
6B5D
100
AcDbEntity
  8
L200_
 62
     7
100
AcDbMText
 10
-3.547070312499896
 20
88.23671740738173
 30
0.0
 40
2.444193535853943
 41
0.0
 71
     1
 72
     2
  1
\W0.82;\fOsaka|b0|i0|c128;1
  7
STD
1001
ACAD
1000
MTEXTBEGIN
1070
    73
1070
     1
1070
    44
1040
1.0
1070
    74
1070
     0
1000
MTEXTEND
1000
MTEXTBEGIN
1070
    73
1070
     1
1070
    44
1040
1.0
1070
    74
1070
     0
1000
MTEXTEND
1000
MTEXTBEGIN
1070
    73
1070
     1
1070
    44
1040
1.0
1070
    74
1070
     0
1000
MTEXTEND
  0
MTEXT
  5
6B84
330
6B5D
100
AcDbEntity
  8
L200_
 62
     7
100
AcDbMText
 10
-4.123951551649184
 20
101.272958726826
 30
0.0
 40
2.444193535853943
 41
0.0
 71
     1
 72
     2
  1
\W1.17;\fOsaka|b0|i0|c128;2
  7
STD
1001
ACAD
1000
MTEXTBEGIN
1070
    73
1070
     1
1070
    44
1040
1.0
1070
    74
1070
     0
1000
MTEXTEND
1000
MTEXTBEGIN
1070
    73
1070
     1
1070
    44
1040
1.0
1070
    74
1070
     0
1000
MTEXTEND
1000
MTEXTBEGIN
1070
    73
1070
     1
1070
    44
1040
1.0
1070
    74
1070
     0
1000
MTEXTEND
  0
MTEXT
  5
6B85
330
6B5D
100
AcDbEntity
  8
L200_
 62
     7
100
AcDbMText
 10
-4.316360134548515
 20
108.9517320558192
 30
0.0
 40
2.444193535853943
 41
0.0
 71
     1
 72
     2
  1
\W1.29;\fOsaka|b0|i0|c128;3
  7
STD
1001
ACAD
1000
MTEXTBEGIN
1070
    73
1070
     1
1070
    44
1040
1.0
1070
    74
1070
     0
1000
MTEXTEND
1000
MTEXTBEGIN
1070
    73
1070
     1
1070
    44
1040
1.0
1070
    74
1070
     0
1000
MTEXTEND
1000
MTEXTBEGIN
1070
    73
1070
     1
1070
    44
1040
1.0
1070
    74
1070
     0
1000
MTEXTEND
  0
MTEXT
  5
6B86
330
6B5D
100
AcDbEntity
  8
L200_
 62
     7
100
AcDbMText
 10
-4.316360134548515
 20
114.374312350958
 30
0.0
 40
2.444193535853943
 41
0.0
 71
     1
 72
     2
  1
\W1.29;\fOsaka|b0|i0|c128;4
  7
STD
1001
ACAD
1000
MTEXTBEGIN
1070
    73
1070
     1
1070
    44
1040
1.0
1070
    74
1070
     0
1000
MTEXTEND
1000
MTEXTBEGIN
1070
    73
1070
     1
1070
    44
1040
1.0
1070
    74
1070
     0
1000
MTEXTEND
1000
MTEXTBEGIN
1070
    73
1070
     1
1070
    44
1040
1.0
1070
    74
1070
     0
1000
MTEXTEND
  0
MTEXT
  5
6B87
330
6B5D
100
AcDbEntity
  8
L200_
 62
     7
100
AcDbMText
 10
-4.316360134548515
 20
118.5787068822081
 30
0.0
 40
2.444193535853943
 41
0.0
 71
     1
 72
     2
  1
\W1.29;\fOsaka|b0|i0|c128;5
  7
STD
1001
ACAD
1000
MTEXTBEGIN
1070
    73
1070
     1
1070
    44
1040
1.0
1070
    74
1070
     0
1000
MTEXTEND
1000
MTEXTBEGIN
1070
    73
1070
     1
1070
    44
1040
1.0
1070
    74
1070
     0
1000
MTEXTEND
1000
MTEXTBEGIN
1070
    73
1070
     1
1070
    44
1040
1.0
1070
    74
1070
     0
1000
MTEXTEND
  0
MTEXT
  5
6B88
330
6B5D
100
AcDbEntity
  8
L200_
 62
     7
100
AcDbMText
 10
-5.662358940972097
 20
131.6445760228331
 30
0.0
 40
2.444193535853943
 41
0.0
 71
     1
 72
     2
  1
\W1.05;\fOsaka|b0|i0|c128;10
  7
STD
1001
ACAD
1000
MTEXTBEGIN
1070
    73
1070
     1
1070
    44
1040
1.0
1070
    74
1070
     0
1000
MTEXTEND
1000
MTEXTBEGIN
1070
    73
1070
     1
1070
    44
1040
1.0
1070
    74
1070
     0
1000
MTEXTEND
1000
MTEXTBEGIN
1070
    73
1070
     1
1070
    44
1040
1.0
1070
    74
1070
     0
1000
MTEXTEND
  0
MTEXT
  5
6B89
330
6B5D
100
AcDbEntity
  8
L200_
 62
     7
100
AcDbMText
 10
-6.239412434895682
 20
144.7011434056455
 30
0.0
 40
2.444193535853943
 41
0.0
 71
     1
 72
     2
  1
\W1.23;\fOsaka|b0|i0|c128;20
  7
STD
1001
ACAD
1000
MTEXTBEGIN
1070
    73
1070
     1
1070
    44
1040
1.0
1070
    74
1070
     0
1000
MTEXTEND
1000
MTEXTBEGIN
1070
    73
1070
     1
1070
    44
1040
1.0
1070
    74
1070
     0
1000
MTEXTEND
1000
MTEXTBEGIN
1070
    73
1070
     1
1070
    44
1040
1.0
1070
    74
1070
     0
1000
MTEXTEND
  0
MTEXT
  5
6B8A
330
6B5D
100
AcDbEntity
  8
L200_
 62
     7
100
AcDbMText
 10
-6.431648763020686
 20
152.3516669516524
 30
0.0
 40
2.444193535853943
 41
0.0
 71
     1
 72
     2
  1
\W1.29;\fOsaka|b0|i0|c128;30
  7
STD
1001
ACAD
1000
MTEXTBEGIN
1070
    73
1070
     1
1070
    44
1040
1.0
1070
    74
1070
     0
1000
MTEXTEND
1000
MTEXTBEGIN
1070
    73
1070
     1
1070
    44
1040
1.0
1070
    74
1070
     0
1000
MTEXTEND
1000
MTEXTBEGIN
1070
    73
1070
     1
1070
    44
1040
1.0
1070
    74
1070
     0
1000
MTEXTEND
  0
MTEXT
  5
6B8B
330
6B5D
100
AcDbEntity
  8
L200_
 62
     7
100
AcDbMText
 10
-6.431648763020686
 20
157.774074992017
 30
0.0
 40
2.444193535853943
 41
0.0
 71
     1
 72
     2
  1
\W1.29;\fOsaka|b0|i0|c128;40
  7
STD
1001
ACAD
1000
MTEXTBEGIN
1070
    73
1070
     1
1070
    44
1040
1.0
1070
    74
1070
     0
1000
MTEXTEND
1000
MTEXTBEGIN
1070
    73
1070
     1
1070
    44
1040
1.0
1070
    74
1070
     0
1000
MTEXTEND
1000
MTEXTBEGIN
1070
    73
1070
     1
1070
    44
1040
1.0
1070
    74
1070
     0
1000
MTEXTEND
  0
MTEXT
  5
6B8C
330
6B5D
100
AcDbEntity
  8
L200_
 62
     7
100
AcDbMText
 10
-6.431648763020686
 20
161.9800198162358
 30
0.0
 40
2.444193535853943
 41
0.0
 71
     1
 72
     2
  1
\W1.29;\fOsaka|b0|i0|c128;50
  7
STD
1001
ACAD
1000
MTEXTBEGIN
1070
    73
1070
     1
1070
    44
1040
1.0
1070
    74
1070
     0
1000
MTEXTEND
1000
MTEXTBEGIN
1070
    73
1070
     1
1070
    44
1040
1.0
1070
    74
1070
     0
1000
MTEXTEND
1000
MTEXTBEGIN
1070
    73
1070
     1
1070
    44
1040
1.0
1070
    74
1070
     0
1000
MTEXTEND
  0
MTEXT
  5
6B8D
330
6B5D
100
AcDbEntity
  8
L200_
 62
     7
100
AcDbMText
 10
-6.431648763020686
 20
165.4070285510448
 30
0.0
 40
2.444193535853943
 41
0.0
 71
     1
 72
     2
  1
\W1.29;\fOsaka|b0|i0|c128;60
  7
STD
1001
ACAD
1000
MTEXTBEGIN
1070
    73
1070
     1
1070
    44
1040
1.0
1070
    74
1070
     0
1000
MTEXTEND
1000
MTEXTBEGIN
1070
    73
1070
     1
1070
    44
1040
1.0
1070
    74
1070
     0
1000
MTEXTEND
1000
MTEXTBEGIN
1070
    73
1070
     1
1070
    44
1040
1.0
1070
    74
1070
     0
1000
MTEXTEND
  0
MTEXT
  5
6B8E
330
6B5D
100
AcDbEntity
  8
L200_
 62
     7
100
AcDbMText
 10
-7.777819824218596
 20
175.0166056452289
 30
0.0
 40
2.444193535853943
 41
0.0
 71
     1
 72
     2
  1
\W1.13;\fOsaka|b0|i0|c128;100
  7
STD
1001
ACAD
1000
MTEXTBEGIN
1070
    73
1070
     1
1070
    44
1040
1.0
1070
    74
1070
     0
1000
MTEXTEND
1000
MTEXTBEGIN
1070
    73
1070
     1
1070
    44
1040
1.0
1070
    74
1070
     0
1000
MTEXTEND
1000
MTEXTBEGIN
1070
    73
1070
     1
1070
    44
1040
1.0
1070
    74
1070
     0
1000
MTEXTEND
  0
MTEXT
  5
6B8F
330
6B5D
100
AcDbEntity
  8
L200_
 62
     7
100
AcDbMText
 10
-8.354701063368111
 20
188.0997002632842
 30
0.0
 40
2.444193535853943
 41
0.0
 71
     1
 72
     2
  1
\W1.25;\fOsaka|b0|i0|c128;200
  7
STD
1001
ACAD
1000
MTEXTBEGIN
1070
    73
1070
     1
1070
    44
1040
1.0
1070
    74
1070
     0
1000
MTEXTEND
1000
MTEXTBEGIN
1070
    73
1070
     1
1070
    44
1040
1.0
1070
    74
1070
     0
1000
MTEXTEND
1000
MTEXTBEGIN
1070
    73
1070
     1
1070
    44
1040
1.0
1070
    74
1070
     0
1000
MTEXTEND
  0
MTEXT
  5
6B90
330
6B5D
100
AcDbEntity
  8
L200_
 62
     7
100
AcDbMText
 10
-8.547109646267271
 20
195.75177410226
 30
0.0
 40
2.444193535853943
 41
0.0
 71
     1
 72
     2
  1
\W1.29;\fOsaka|b0|i0|c128;300
  7
STD
1001
ACAD
1000
MTEXTBEGIN
1070
    73
1070
     1
1070
    44
1040
1.0
1070
    74
1070
     0
1000
MTEXTEND
1000
MTEXTBEGIN
1070
    73
1070
     1
1070
    44
1040
1.0
1070
    74
1070
     0
1000
MTEXTEND
1000
MTEXTBEGIN
1070
    73
1070
     1
1070
    44
1040
1.0
1070
    74
1070
     0
1000
MTEXTEND
  0
MTEXT
  5
6B91
330
6B5D
100
AcDbEntity
  8
L200_
 62
     7
100
AcDbMText
 10
-8.547109646267271
 20
201.1740098878505
 30
0.0
 40
2.444193535853943
 41
0.0
 71
     1
 72
     2
  1
\W1.29;\fOsaka|b0|i0|c128;400
  7
STD
1001
ACAD
1000
MTEXTBEGIN
1070
    73
1070
     1
1070
    44
1040
1.0
1070
    74
1070
     0
1000
MTEXTEND
1000
MTEXTBEGIN
1070
    73
1070
     1
1070
    44
1040
1.0
1070
    74
1070
     0
1000
MTEXTEND
1000
MTEXTBEGIN
1070
    73
1070
     1
1070
    44
1040
1.0
1070
    74
1070
     0
1000
MTEXTEND
  0
MTEXT
  5
6B92
330
6B5D
100
AcDbEntity
  8
L200_
 62
     7
100
AcDbMText
 10
-8.547109646267271
 20
205.3885674507844
 30
0.0
 40
2.444193535853943
 41
0.0
 71
     1
 72
     2
  1
\W1.29;\fOsaka|b0|i0|c128;500
  7
STD
1001
ACAD
1000
MTEXTBEGIN
1070
    73
1070
     1
1070
    44
1040
1.0
1070
    74
1070
     0
1000
MTEXTEND
1000
MTEXTBEGIN
1070
    73
1070
     1
1070
    44
1040
1.0
1070
    74
1070
     0
1000
MTEXTEND
1000
MTEXTBEGIN
1070
    73
1070
     1
1070
    44
1040
1.0
1070
    74
1070
     0
1000
MTEXTEND
  0
MTEXT
  5
6B93
330
6B5D
100
AcDbEntity
  8
L200_
 62
     7
100
AcDbMText
 10
-9.89328070746518
 20
218.4428955215309
 30
0.0
 40
2.444193535853943
 41
0.0
 71
     1
 72
     2
  1
\W1.17;\fOsaka|b0|i0|c128;1000
  7
STD
1001
ACAD
1000
MTEXTBEGIN
1070
    73
1070
     1
1070
    44
1040
1.0
1070
    74
1070
     0
1000
MTEXTEND
1000
MTEXTBEGIN
1070
    73
1070
     1
1070
    44
1040
1.0
1070
    74
1070
     0
1000
MTEXTEND
1000
MTEXTBEGIN
1070
    73
1070
     1
1070
    44
1040
1.0
1070
    74
1070
     0
1000
MTEXTEND
  0
MTEXT
  5
6B94
330
6B5D
100
AcDbEntity
  8
L200_
 62
     7
100
AcDbMText
 10
-10.47016194661461
 20
231.509281426479
 30
0.0
 40
2.444193535853943
 41
0.0
 71
     1
 72
     2
  1
\W1.26;\fOsaka|b0|i0|c128;2000
  7
STD
1001
ACAD
1000
MTEXTBEGIN
1070
    73
1070
     1
1070
    44
1040
1.0
1070
    74
1070
     0
1000
MTEXTEND
1000
MTEXTBEGIN
1070
    73
1070
     1
1070
    44
1040
1.0
1070
    74
1070
     0
1000
MTEXTEND
1000
MTEXTBEGIN
1070
    73
1070
     1
1070
    44
1040
1.0
1070
    74
1070
     0
1000
MTEXTEND
  0
MTEXT
  5
6B95
330
6B5D
100
AcDbEntity
  8
L200_
 62
     7
100
AcDbMText
 10
-10.66239827473961
 20
239.1517089980935
 30
0.0
 40
2.444193535853943
 41
0.0
 71
     1
 72
     2
  1
\W1.29;\fOsaka|b0|i0|c128;3000
  7
STD
1001
ACAD
1000
MTEXTBEGIN
1070
    73
1070
     1
1070
    44
1040
1.0
1070
    74
1070
     0
1000
MTEXTEND
1000
MTEXTBEGIN
1070
    73
1070
     1
1070
    44
1040
1.0
1070
    74
1070
     0
1000
MTEXTEND
1000
MTEXTBEGIN
1070
    73
1070
     1
1070
    44
1040
1.0
1070
    74
1070
     0
1000
MTEXTEND
  0
MTEXT
  5
6B96
330
6B5D
100
AcDbEntity
  8
L200_
 62
     7
100
AcDbMText
 10
-10.66239827473961
 20
244.5741170384581
 30
0.0
 40
2.444193535853943
 41
0.0
 71
     1
 72
     2
  1
\W1.29;\fOsaka|b0|i0|c128;4000
  7
STD
1001
ACAD
1000
MTEXTBEGIN
1070
    73
1070
     1
1070
    44
1040
1.0
1070
    74
1070
     0
1000
MTEXTEND
1000
MTEXTBEGIN
1070
    73
1070
     1
1070
    44
1040
1.0
1070
    74
1070
     0
1000
MTEXTEND
1000
MTEXTBEGIN
1070
    73
1070
     1
1070
    44
1040
1.0
1070
    74
1070
     0
1000
MTEXTEND
  0
MTEXT
  5
6B97
330
6B5D
100
AcDbEntity
  8
L200_
 62
     7
100
AcDbMText
 10
-10.66239827473961
 20
248.7800618626768
 30
0.0
 40
2.444193535853943
 41
0.0
 71
     1
 72
     2
  1
\W1.29;\fOsaka|b0|i0|c128;5000
  7
STD
1001
ACAD
1000
MTEXTBEGIN
1070
    73
1070
     1
1070
    44
1040
1.0
1070
    74
1070
     0
1000
MTEXTEND
1000
MTEXTBEGIN
1070
    73
1070
     1
1070
    44
1040
1.0
1070
    74
1070
     0
1000
MTEXTEND
1000
MTEXTBEGIN
1070
    73
1070
     1
1070
    44
1040
1.0
1070
    74
1070
     0
1000
MTEXTEND
  0
MTEXT
  5
6B98
330
6B5D
100
AcDbEntity
  8
L200_
 62
     7
100
AcDbMText
 10
-12.00856933593749
 20
261.8447252198815
 30
0.0
 40
2.444193535853943
 41
0.0
 71
     1
 72
     2
  1
\W1.19;\fOsaka|b0|i0|c128;10000
  7
STD
1001
ACAD
1000
MTEXTBEGIN
1070
    73
1070
     1
1070
    44
1040
1.0
1070
    74
1070
     0
1000
MTEXTEND
1000
MTEXTBEGIN
1070
    73
1070
     1
1070
    44
1040
1.0
1070
    74
1070
     0
1000
MTEXTEND
1000
MTEXTBEGIN
1070
    73
1070
     1
1070
    44
1040
1.0
1070
    74
1070
     0
1000
MTEXTEND
  0
MTEXT
  5
6B99
330
6B5D
100
AcDbEntity
  8
L200_
 62
     7
100
AcDbMText
 10
-15.88897723853578
 20
88.3928819444443
 30
0.0
 40
3.421865693396991
 41
0.0
 71
     1
 72
     2
  1
\fOsaka|b0|i0|c128;Operating time (sec)
  7
STD
 11
0.0
 21
1.0
 31
0.0
1001
ACAD
1000
MTEXTBEGIN
1070
    73
1070
     1
1070
    44
1040
1.0
1070
    74
1070
     0
1000
MTEXTEND
1000
MTEXTBEGIN
1070
    73
1070
     1
1070
    44
1040
1.0
1070
    74
1070
     0
1000
MTEXTEND
1000
MTEXTBEGIN
1070
    73
1070
     1
1070
    44
1040
1.0
1070
    74
1070
     0
1000
MTEXTEND
  0
MTEXT
  5
6B9A
330
6B5D
100
AcDbEntity
  8
L200_
 62
     7
100
AcDbMText
 10
32.42523871527776
 20
-17.48572979271409
 30
0.0
 40
3.421865693396991
 41
0.0
 71
     1
 72
     2
  1
\W0.96;\fOsaka|b0|i0|c128;Current (A)
  7
STD
1001
ACAD
1000
MTEXTBEGIN
1070
    73
1070
     1
1070
    44
1040
1.0
1070
    74
1070
     0
1000
MTEXTEND
1000
MTEXTBEGIN
1070
    73
1070
     1
1070
    44
1040
1.0
1070
    74
1070
     0
1000
MTEXTEND
1000
MTEXTBEGIN
1070
    73
1070
     1
1070
    44
1040
1.0
1070
    74
1070
     0
1000
MTEXTEND
  0
LINE
  5
6B9B
330
6B5D
100
AcDbEntity
  8
L200_
 62
     4
100
AcDbLine
 10
173.5999118381077
 20
230.0651991102431
 30
0.0
 11
173.5999118381077
 21
0.0
 31
0.0
  0
LINE
  5
6B9C
330
6B5D
100
AcDbEntity
  8
L200_
 62
     4
100
AcDbLine
 10
160.5354207356771
 20
230.0651991102431
 30
0.0
 11
160.5354207356771
 21
0.0
 31
0.0
  0
LINE
  5
6B9D
330
6B5D
100
AcDbEntity
  8
L200_
 62
     4
100
AcDbLine
 10
156.3296481662325
 20
230.0651991102431
 30
0.0
 11
156.3296481662325
 21
0.0
 31
0.0
  0
LINE
  5
6B9E
330
6B5D
100
AcDbEntity
  8
L200_
 62
     4
100
AcDbLine
 10
147.4709296332465
 20
230.0651991102431
 30
0.0
 11
147.4709296332465
 21
0.0
 31
0.0
  0
LINE
  5
6B9F
330
6B5D
100
AcDbEntity
  8
L200_
 62
     4
100
AcDbLine
 10
137.8425767686632
 20
230.0651991102431
 30
0.0
 11
137.8425767686632
 21
0.0
 31
0.0
  0
LINE
  5
6BA0
330
6B5D
100
AcDbEntity
  8
L200_
 62
     4
100
AcDbLine
 10
130.1999769422742
 20
230.0651991102431
 30
0.0
 11
130.1999769422742
 21
0.0
 31
0.0
  0
LINE
  5
6BA1
330
6B5D
100
AcDbEntity
  8
L200_
 62
     4
100
AcDbLine
 10
117.1354858398437
 20
237.7076266818576
 30
0.0
 11
0.0
 21
237.7076266818576
 31
0.0
  0
LINE
  5
6BA2
330
6B5D
100
AcDbEntity
  8
L200_
 62
     4
100
AcDbLine
 10
117.1354858398437
 20
243.1298624674476
 30
0.0
 11
0.0
 21
243.1298624674476
 31
0.0
  0
LINE
  5
6BA3
330
6B5D
100
AcDbEntity
  8
L200_
 62
     4
100
AcDbLine
 10
117.1354858398437
 20
247.3358072916666
 30
0.0
 11
0.0
 21
247.3358072916666
 31
0.0
  0
LINE
  5
6BA4
330
6B5D
100
AcDbEntity
  8
L200_
 62
     4
100
AcDbLine
 10
117.1354858398437
 20
250.7722900390624
 30
0.0
 11
0.0
 21
250.7722900390624
 31
0.0
  0
LINE
  5
6BA5
330
6B5D
100
AcDbEntity
  8
L200_
 62
     4
100
AcDbLine
 10
181.2425116644966
 20
260.4004706488714
 30
0.0
 11
0.0
 21
260.4004706488714
 31
0.0
  0
LINE
  5
6BA6
330
6B5D
100
AcDbEntity
  8
L200_
 62
     4
100
AcDbLine
 10
181.2425116644966
 20
256.1945258246526
 30
0.0
 11
0.0
 21
256.1945258246526
 31
0.0
  0
LINE
  5
6BA7
330
6B5D
100
AcDbEntity
  8
L200_
 62
     4
100
AcDbLine
 10
181.2425116644966
 20
230.0651991102431
 30
0.0
 11
0.0
 21
230.0651991102431
 31
0.0
  0
LINE
  5
6BA8
330
6B5D
100
AcDbEntity
  8
L200_
 62
     4
100
AcDbLine
 10
181.2425116644966
 20
217.0005357530381
 30
0.0
 11
0.0
 21
217.0005357530381
 31
0.0
  0
LINE
  5
6BA9
330
6B5D
100
AcDbEntity
  8
L200_
 62
     4
100
AcDbLine
 10
181.2425116644966
 20
212.7945909288194
 30
0.0
 11
0.0
 21
212.7945909288194
 31
0.0
  0
LINE
  5
6BAA
330
6B5D
100
AcDbEntity
  8
L200_
 62
     4
100
AcDbLine
 10
181.2425116644966
 20
207.3721828884548
 30
0.0
 11
0.0
 21
207.3721828884548
 31
0.0
  0
LINE
  5
6BAB
330
6B5D
100
AcDbEntity
  8
L200_
 62
     4
100
AcDbLine
 10
181.2425116644966
 20
203.9357001410589
 30
0.0
 11
0.0
 21
203.9357001410589
 31
0.0
  0
LINE
  5
6BAC
330
6B5D
100
AcDbEntity
  8
L200_
 62
     4
100
AcDbLine
 10
181.2425116644966
 20
199.7299275716146
 30
0.0
 11
0.0
 21
199.7299275716146
 31
0.0
  0
LINE
  5
6BAD
330
6B5D
100
AcDbEntity
  8
L200_
 62
     4
100
AcDbLine
 10
181.2425116644966
 20
194.30751953125
 30
0.0
 11
0.0
 21
194.30751953125
 31
0.0
  0
LINE
  5
6BAE
330
6B5D
100
AcDbEntity
  8
L200_
 62
     4
100
AcDbLine
 10
181.2425116644966
 20
186.6652642144096
 30
0.0
 11
0.0
 21
186.6652642144096
 31
0.0
  0
LINE
  5
6BAF
330
6B5D
100
AcDbEntity
  8
L200_
 62
     4
100
AcDbLine
 10
181.2425116644966
 20
173.6004286024305
 30
0.0
 11
0.0
 21
173.6004286024305
 31
0.0
  0
LINE
  5
6BB0
330
6B5D
100
AcDbEntity
  8
L200_
 62
     4
100
AcDbLine
 10
181.2425116644966
 20
169.394656032986
 30
0.0
 11
0.0
 21
169.394656032986
 31
0.0
  0
LINE
  5
6BB1
330
6B5D
100
AcDbEntity
  8
L200_
 62
     4
100
AcDbLine
 10
181.2425116644966
 20
163.9722479926216
 30
0.0
 11
0.0
 21
163.9722479926216
 31
0.0
  0
LINE
  5
6BB2
330
6B5D
100
AcDbEntity
  8
L200_
 62
     4
100
AcDbLine
 10
181.2425116644966
 20
160.5357652452257
 30
0.0
 11
0.0
 21
160.5357652452257
 31
0.0
  0
LINE
  5
6BB3
330
6B5D
100
AcDbEntity
  8
L200_
 62
     4
100
AcDbLine
 10
181.2425116644966
 20
156.329820421007
 30
0.0
 11
0.0
 21
156.329820421007
 31
0.0
  0
LINE
  5
6BB4
330
6B5D
100
AcDbEntity
  8
L200_
 62
     4
100
AcDbLine
 10
181.2425116644966
 20
150.9075846354164
 30
0.0
 11
0.0
 21
150.9075846354164
 31
0.0
  0
LINE
  5
6BB5
330
6B5D
100
AcDbEntity
  8
L200_
 62
     4
100
AcDbLine
 10
181.2425116644966
 20
143.265157063802
 30
0.0
 11
0.0
 21
143.265157063802
 31
0.0
  0
LINE
  5
6BB6
330
6B5D
100
AcDbEntity
  8
L200_
 62
     4
100
AcDbLine
 10
181.2425116644966
 20
130.200493706597
 30
0.0
 11
0.0
 21
130.200493706597
 31
0.0
  0
LINE
  5
6BB7
330
6B5D
100
AcDbEntity
  8
L200_
 62
     4
100
AcDbLine
 10
181.2425116644966
 20
125.9945488823783
 30
0.0
 11
0.0
 21
125.9945488823783
 31
0.0
  0
LINE
  5
6BB8
330
6B5D
100
AcDbEntity
  8
L200_
 62
     4
100
AcDbLine
 10
181.2425116644966
 20
120.5723130967881
 30
0.0
 11
0.0
 21
120.5723130967881
 31
0.0
  0
LINE
  5
6BB9
330
6B5D
100
AcDbEntity
  8
L200_
 62
     4
100
AcDbLine
 10
181.2425116644966
 20
117.1356580946181
 30
0.0
 11
0.0
 21
117.1356580946181
 31
0.0
  0
LINE
  5
6BBA
330
6B5D
100
AcDbEntity
  8
L200_
 62
     4
100
AcDbLine
 10
181.2425116644966
 20
112.9298855251734
 30
0.0
 11
0.0
 21
112.9298855251734
 31
0.0
  0
LINE
  5
6BBB
330
6B5D
100
AcDbEntity
  8
L200_
 62
     4
100
AcDbLine
 10
181.2425116644966
 20
107.5073052300345
 30
0.0
 11
0.0
 21
107.5073052300345
 31
0.0
  0
LINE
  5
6BBC
330
6B5D
100
AcDbEntity
  8
L200_
 62
     4
100
AcDbLine
 10
181.2425116644966
 20
99.86539442274313
 30
0.0
 11
0.0
 21
99.86539442274313
 31
0.0
  0
LINE
  5
6BBD
330
6B5D
100
AcDbEntity
  8
L200_
 62
     4
100
AcDbLine
 10
181.2425116644966
 20
86.80055881076389
 30
0.0
 11
0.0
 21
86.80055881076389
 31
0.0
  0
LINE
  5
6BBE
330
6B5D
100
AcDbEntity
  8
L200_
 62
     4
100
AcDbLine
 10
181.2425116644966
 20
82.59409722222221
 30
0.0
 11
0.0
 21
82.59409722222221
 31
0.0
  0
LINE
  5
6BBF
330
6B5D
100
AcDbEntity
  8
L200_
 62
     4
100
AcDbLine
 10
181.2425116644966
 20
77.17220594618066
 30
0.0
 11
0.0
 21
77.17220594618066
 31
0.0
  0
LINE
  5
6BC0
330
6B5D
100
AcDbEntity
  8
L200_
 62
     4
100
AcDbLine
 10
181.2425116644966
 20
73.73537868923614
 30
0.0
 11
0.0
 21
73.73537868923614
 31
0.0
  0
LINE
  5
6BC1
330
6B5D
100
AcDbEntity
  8
L200_
 62
     4
100
AcDbLine
 10
181.2425116644966
 20
69.52960611979165
 30
0.0
 11
0.0
 21
69.52960611979165
 31
0.0
  0
LINE
  5
6BC2
330
6B5D
100
AcDbEntity
  8
L200_
 62
     4
100
AcDbLine
 10
181.2425116644966
 20
64.1070258246528
 30
0.0
 11
0.0
 21
64.1070258246528
 31
0.0
  0
LINE
  5
6BC3
330
6B5D
100
AcDbEntity
  8
L200_
 62
     4
100
AcDbLine
 10
181.2425116644966
 20
56.46511501736114
 30
0.0
 11
0.0
 21
56.46511501736114
 31
0.0
  0
LINE
  5
6BC4
330
6B5D
100
AcDbEntity
  8
L200_
 62
     4
100
AcDbLine
 10
181.2425116644966
 20
43.40062391493041
 30
0.0
 11
0.0
 21
43.40062391493041
 31
0.0
  0
LINE
  5
6BC5
330
6B5D
100
AcDbEntity
  8
L200_
 62
     4
100
AcDbLine
 10
181.2425116644966
 20
39.19416232638893
 30
0.0
 11
0.0
 21
39.19416232638893
 31
0.0
  0
LINE
  5
6BC6
330
6B5D
100
AcDbEntity
  8
L200_
 62
     4
100
AcDbLine
 10
181.2425116644966
 20
33.77227105034723
 30
0.0
 11
0.0
 21
33.77227105034723
 31
0.0
  0
LINE
  5
6BC7
330
6B5D
100
AcDbEntity
  8
L200_
 62
     4
100
AcDbLine
 10
181.2425116644966
 20
30.3354437934028
 30
0.0
 11
0.0
 21
30.3354437934028
 31
0.0
  0
LINE
  5
6BC8
330
6B5D
100
AcDbEntity
  8
L200_
 62
     4
100
AcDbLine
 10
181.2425116644966
 20
26.12967122395832
 30
0.0
 11
0.0
 21
26.12967122395832
 31
0.0
  0
LINE
  5
6BC9
330
6B5D
100
AcDbEntity
  8
L200_
 62
     4
100
AcDbLine
 10
181.2425116644966
 20
20.7070909288193
 30
0.0
 11
0.0
 21
20.7070909288193
 31
0.0
  0
LINE
  5
6BCA
330
6B5D
100
AcDbEntity
  8
L200_
 62
     4
100
AcDbLine
 10
181.2425116644966
 20
13.06518012152781
 30
0.0
 11
0.0
 21
13.06518012152781
 31
0.0
  0
LINE
  5
6BCB
330
6B5D
100
AcDbEntity
  8
L200_
 62
     7
100
AcDbLine
 10
181.2425116644966
 20
0.0
 30
0.0
 11
0.0
 21
0.0
 31
0.0
  0
LINE
  5
6BCC
330
6B5D
100
AcDbEntity
  8
L200_
 62
     4
100
AcDbLine
 10
181.2425116644966
 20
260.4004706488714
 30
0.0
 11
181.2425116644966
 21
0.0
 31
0.0
  0
LINE
  5
6BCD
330
6B5D
100
AcDbEntity
  8
L200_
 62
     4
100
AcDbLine
 10
173.5999118381077
 20
260.4004706488714
 30
0.0
 11
173.5999118381077
 21
256.1945258246526
 31
0.0
  0
LINE
  5
6BCE
330
6B5D
100
AcDbEntity
  8
L200_
 62
     4
100
AcDbLine
 10
160.5354207356771
 20
260.4004706488714
 30
0.0
 11
160.5354207356771
 21
256.1945258246526
 31
0.0
  0
LINE
  5
6BCF
330
6B5D
100
AcDbEntity
  8
L200_
 62
     4
100
AcDbLine
 10
156.3296481662325
 20
260.4004706488714
 30
0.0
 11
156.3296481662325
 21
256.1945258246526
 31
0.0
  0
LINE
  5
6BD0
330
6B5D
100
AcDbEntity
  8
L200_
 62
     4
100
AcDbLine
 10
147.4709296332465
 20
260.4004706488714
 30
0.0
 11
147.4709296332465
 21
256.1945258246526
 31
0.0
  0
LINE
  5
6BD1
330
6B5D
100
AcDbEntity
  8
L200_
 62
     4
100
AcDbLine
 10
137.8425767686632
 20
260.4004706488714
 30
0.0
 11
137.8425767686632
 21
256.1945258246526
 31
0.0
  0
LINE
  5
6BD2
330
6B5D
100
AcDbEntity
  8
L200_
 62
     4
100
AcDbLine
 10
130.1999769422742
 20
260.4004706488714
 30
0.0
 11
130.1999769422742
 21
256.1945258246526
 31
0.0
  0
LINE
  5
6BD3
330
6B5D
100
AcDbEntity
  8
L200_
 62
     4
100
AcDbLine
 10
117.1354858398437
 20
260.4004706488714
 30
0.0
 11
117.1354858398437
 21
0.0
 31
0.0
  0
LINE
  5
6BD4
330
6B5D
100
AcDbEntity
  8
L200_
 62
     4
100
AcDbLine
 10
112.9297132703994
 20
260.4004706488714
 30
0.0
 11
112.9297132703994
 21
0.0
 31
0.0
  0
LINE
  5
6BD5
330
6B5D
100
AcDbEntity
  8
L200_
 62
     4
100
AcDbLine
 10
104.0703057183161
 20
260.4004706488714
 30
0.0
 11
104.0703057183161
 21
0.0
 31
0.0
  0
LINE
  5
6BD6
330
6B5D
100
AcDbEntity
  8
L200_
 62
     4
100
AcDbLine
 10
94.44264187283001
 20
260.4004706488714
 30
0.0
 11
94.44264187283001
 21
0.0
 31
0.0
  0
LINE
  5
6BD7
330
6B5D
100
AcDbEntity
  8
L200_
 62
     4
100
AcDbLine
 10
86.80004204644102
 20
260.4004706488714
 30
0.0
 11
86.80004204644102
 21
0.0
 31
0.0
  0
LINE
  5
6BD8
330
6B5D
100
AcDbEntity
  8
L200_
 62
     4
100
AcDbLine
 10
73.73555094401059
 20
260.4004706488714
 30
0.0
 11
73.73555094401059
 21
0.0
 31
0.0
  0
LINE
  5
6BD9
330
6B5D
100
AcDbEntity
  8
L200_
 62
     4
100
AcDbLine
 10
69.52960611979179
 20
260.4004706488714
 30
0.0
 11
69.52960611979179
 21
0.0
 31
0.0
  0
LINE
  5
6BDA
330
6B5D
100
AcDbEntity
  8
L200_
 62
     4
100
AcDbLine
 10
60.670543077257
 20
260.4004706488714
 30
0.0
 11
60.670543077257
 21
0.0
 31
0.0
  0
LINE
  5
6BDB
330
6B5D
100
AcDbEntity
  8
L200_
 62
     4
100
AcDbLine
 10
51.04253472222229
 20
260.4004706488714
 30
0.0
 11
51.04253472222229
 21
0.0
 31
0.0
  0
LINE
  5
6BDC
330
6B5D
100
AcDbEntity
  8
L200_
 62
     4
100
AcDbLine
 10
43.39993489583347
 20
260.4004706488714
 30
0.0
 11
43.39993489583347
 21
0.0
 31
0.0
  0
LINE
  5
6BDD
330
6B5D
100
AcDbEntity
  8
L200_
 62
     4
100
AcDbLine
 10
30.3354437934029
 20
260.4004706488714
 30
0.0
 11
30.3354437934029
 21
0.0
 31
0.0
  0
LINE
  5
6BDE
330
6B5D
100
AcDbEntity
  8
L200_
 62
     4
100
AcDbLine
 10
26.1293267144097
 20
260.4004706488714
 30
0.0
 11
26.1293267144097
 21
0.0
 31
0.0
  0
LINE
  5
6BDF
330
6B5D
100
AcDbEntity
  8
L200_
 62
     4
100
AcDbLine
 10
17.27060818142371
 20
260.4004706488714
 30
0.0
 11
17.27060818142371
 21
0.0
 31
0.0
  0
LINE
  5
6BE0
330
6B5D
100
AcDbEntity
  8
L200_
 62
     4
100
AcDbLine
 10
7.642599826388987
 20
260.4004706488714
 30
0.0
 11
7.642599826388987
 21
0.0
 31
0.0
  0
LINE
  5
6BE1
330
6B5D
100
AcDbEntity
  8
L200_
 62
     7
100
AcDbLine
 10
0.0
 20
260.4004706488714
 30
0.0
 11
0.0
 21
0.0
 31
0.0
  0
ENDBLK
  5
6BE3
330
6B5D
100
AcDbEntity
  8
0
100
AcDbBlockEnd
  0
ENDSEC
  0
SECTION
  2
ENTITIES
  0
INSERT
  5
6B53
330
6AC9
100
AcDbEntity
  8
基準
  6
CONTINUOUS
 62
     7
100
AcDbBlockReference
  2
BASELINE
 10
26.90002499999996
 20
120.0
 30
0.0
  0
MTEXT
  5
6B54
330
6AC9
100
AcDbEntity
  8
7
100
AcDbMText
 10
160.5907814695665
 20
376.1945258246526
 30
0.0
 40
2.0
 41
60.65173019492993
 71
     1
 72
     5
  1
2.6A\P\PE30-NM,\PS30-NM,\PS50-NM,\PZE30-NM,\PZS30-NM,\PZS50-CM,
1001
ACAD
1000
MTEXTBEGIN
1070
    73
1070
     1
1070
    44
1040
1.0
1070
    74
1070
     0
1000
MTEXTEND
1000
MTEXTBEGIN
1070
    73
1070
     1
1070
    44
1040
1.0
1070
    74
1070
     0
1000
MTEXTEND
1000
MTEXTBEGIN
1070
    73
1070
     1
1070
    44
1040
1.0
1070
    74
1070
     0
1000
MTEXTEND
  0
POINT
  5
6C3E
330
6AC9
100
AcDbEntity
  8
0
  6
CONTINUOUS
100
AcDbPoint
 10
40.0
 20
120.0
 30
0.0
  0
LWPOLYLINE
  5
6C63
330
6AC9
100
AcDbEntity
  8
M
  6
CONTINUOUS
 62
     7
100
AcDbPolyline
 90
       38
 70
     0
 43
0.0
 10
-17.20296248358661
 20
380.3999999999998
 10
-17.20296248358661
 20
380.0
 10
-17.20108666291511
 20
360.0
 10
-17.19921084224361
 20
340.0
 10
-16.30820860813982
 20
320.0
 10
-12.6191729910062
 20
300.0
 10
-6.640958479929659
 20
280.0
 10
1.285820001416077
 20
260.0
 10
9.77472599214699
 20
240.0
 10
18.30003731343269
 20
220.0
 10
24.24161006184184
 20
200.0
 10
26.08184795015136
 20
180.0
 10
26.36520820905952
 20
160.0
 10
26.48771387485094
 20
158.0
 10
26.64356130597203
 20
156.0
 10
26.86233333333323
 20
154.0
 10
27.14229902969711
 20
152.0
 10
27.48257360793285
 20
150.0
 10
28.00420227038181
 20
148.0
 10
28.6719141646061
 20
146.0
 10
29.0
 20
145.1999999999999
 10
29.39999999999999
 20
144.4
 10
30.0
 20
143.5999999999999
 10
30.8
 20
142.5999999999999
 10
30.8
 20
142.5999999999999
 10
32.0
 20
141.4
 10
35.0
 20
138.8
 10
35.0
 20
138.8
 10
35.0
 20
138.8
 10
37.2
 20
137.4
 10
39.39999999999999
 20
136.1999999999998
 10
41.0
 20
135.4
 10
43.6
 20
134.5999999999999
 10
48.39999999999999
 20
134.0
 10
54.8
 20
133.1999999999998
 10
58.79999999999999
 20
133.0
 10
63.0
 20
133.0
 10
66.67699999999978
 20
133.06
  0
ENDSEC
  0
SECTION
  2
OBJECTS
  0
DICTIONARY
  5
6AB7
330
0
100
AcDbDictionary
  3
ACAD_GROUP
350
6AB8
  3
ACAD_LAYOUT
350
6AC4
  3
ACAD_MLINESTYLE
350
6AC1
  3
ACAD_PLOTSETTINGS
350
6AC3
  3
ACAD_PLOTSTYLENAME
350
6AB9
  3
ACDBHEADERROUNDTRIPXREC
350
6D21
  3
ACDBVARIABLEDICTIONARY
350
6B56
  0
DICTIONARY
  5
6CE6
330
6AC9
100
AcDbDictionary
280
     1
  3
ACAD_LAYOUTSELFREF
360
6D42
  0
DICTIONARY
  5
6CE4
330
6AC5
100
AcDbDictionary
280
     1
  3
ACAD_LAYOUTSELFREF
360
6D41
  0
DICTIONARY
  5
6AB8
102
{ACAD_REACTORS
330
6AB7
102
}
330
6AB7
100
AcDbDictionary
  0
DICTIONARY
  5
6AC4
102
{ACAD_REACTORS
330
6AB7
102
}
330
6AB7
100
AcDbDictionary
  0
DICTIONARY
  5
6AC1
102
{ACAD_REACTORS
330
6AB7
102
}
330
6AB7
100
AcDbDictionary
  3
STANDARD
350
6AC2
  0
DICTIONARY
  5
6AC3
102
{ACAD_REACTORS
330
6AB7
102
}
330
6AB7
100
AcDbDictionary
  0
ACDBDICTIONARYWDFLT
  5
6AB9
102
{ACAD_REACTORS
330
6AB7
102
}
330
6AB7
100
AcDbDictionary
281
     1
  3
Normal
350
6ABA
100
AcDbDictionaryWithDefault
340
6ABA
  0
DICTIONARY
  5
6D21
102
{ACAD_REACTORS
330
6AB7
102
}
330
6AB7
100
AcDbDictionary
  3
CEPSNTYPE
350
6D2B
  3
FINGERPRINTGUID
350
6D2C
  3
HYPERLINKBASE
350
6D24
  3
INSUNITS
350
6D2A
  3
LAYOUTDICT
350
6D26
  3
LWETCUNION
350
6D29
  3
PLOTSETDICT
350
6D27
  3
PLOTSTYLNAMDICT
350
6D28
  3
PSVPSCALE
350
6D2E
  3
PUCSBASE
350
6D31
  3
PUCSORGBACK
350
6D37
  3
PUCSORGBOTTOM
350
6D33
  3
PUCSORGFRONT
350
6D36
  3
PUCSORGLEFT
350
6D34
  3
PUCSORGRIGHT
350
6D35
  3
PUCSORGTOP
350
6D32
  3
PUCSORTHOREF
350
6D2F
  3
PUCSORTHOVIEW
350
6D30
  3
STYLESHEET
350
6D25
  3
TSTACKALIGN
350
6D22
  3
TSTACKSIZE
350
6D23
  3
UCSBASE
350
6D3A
  3
UCSORGBACK
350
6D40
  3
UCSORGBOTTOM
350
6D3C
  3
UCSORGFRONT
350
6D3F
  3
UCSORGLEFT
350
6D3D
  3
UCSORGRIGHT
350
6D3E
  3
UCSORGTOP
350
6D3B
  3
UCSORTHOREF
350
6D38
  3
UCSORTHOVIEW
350
6D39
  3
VERSIONGUID
350
6D2D
  0
DICTIONARY
  5
6B56
102
{ACAD_REACTORS
330
6AB7
102
}
330
6AB7
100
AcDbDictionary
  3
DIMASSOC
350
6B57
  0
XRECORD
  5
6D42
102
{ACAD_REACTORS
330
6CE6
102
}
330
6CE6
100
AcDbXrecord
340
6AC9
  0
XRECORD
  5
6D41
102
{ACAD_REACTORS
330
6CE4
102
}
330
6CE4
100
AcDbXrecord
340
6AC5
  0
MLINESTYLE
  5
6AC2
102
{ACAD_REACTORS
330
6AC1
102
}
330
6AC1
100
AcDbMlineStyle
  2
STANDARD
 70
     0
  3

 62
   256
 51
90.0
 52
90.0
 71
     2
 49
0.5
 62
   256
  6
BYLAYER
 49
-0.5
 62
   256
  6
BYLAYER
  0
ACDBPLACEHOLDER
  5
6ABA
102
{ACAD_REACTORS
330
6AB9
102
}
330
6AB9
100
AcDbPlaceHolder
280
     0
  0
XRECORD
  5
6D2B
102
{ACAD_REACTORS
330
6D21
102
}
330
6D21
100
AcDbXrecord
 90
        0
  0
XRECORD
  5
6D2C
102
{ACAD_REACTORS
330
6D21
102
}
330
6D21
100
AcDbXrecord
  1
{5ACCE74A-4399-43CB-8AA2-EB8775A1F59F}
  0
XRECORD
  5
6D24
102
{ACAD_REACTORS
330
6D21
102
}
330
6D21
100
AcDbXrecord
  1

  0
XRECORD
  5
6D2A
102
{ACAD_REACTORS
330
6D21
102
}
330
6D21
100
AcDbXrecord
 90
        0
  0
XRECORD
  5
6D26
102
{ACAD_REACTORS
330
6D21
102
}
330
6D21
100
AcDbXrecord
340
6AC4
  0
XRECORD
  5
6D29
102
{ACAD_REACTORS
330
6D21
102
}
330
6D21
100
AcDbXrecord
 90
    10781
  0
XRECORD
  5
6D27
102
{ACAD_REACTORS
330
6D21
102
}
330
6D21
100
AcDbXrecord
340
6AC3
  0
XRECORD
  5
6D28
102
{ACAD_REACTORS
330
6D21
102
}
330
6D21
100
AcDbXrecord
340
6AB9
  0
XRECORD
  5
6D2E
102
{ACAD_REACTORS
330
6D21
102
}
330
6D21
100
AcDbXrecord
 40
0.0
  0
XRECORD
  5
6D31
102
{ACAD_REACTORS
330
6D21
102
}
330
6D21
100
AcDbXrecord
340
0
  0
XRECORD
  5
6D37
102
{ACAD_REACTORS
330
6D21
102
}
330
6D21
100
AcDbXrecord
 10
0.0
 20
0.0
 30
0.0
  0
XRECORD
  5
6D33
102
{ACAD_REACTORS
330
6D21
102
}
330
6D21
100
AcDbXrecord
 10
0.0
 20
0.0
 30
0.0
  0
XRECORD
  5
6D36
102
{ACAD_REACTORS
330
6D21
102
}
330
6D21
100
AcDbXrecord
 10
0.0
 20
0.0
 30
0.0
  0
XRECORD
  5
6D34
102
{ACAD_REACTORS
330
6D21
102
}
330
6D21
100
AcDbXrecord
 10
0.0
 20
0.0
 30
0.0
  0
XRECORD
  5
6D35
102
{ACAD_REACTORS
330
6D21
102
}
330
6D21
100
AcDbXrecord
 10
0.0
 20
0.0
 30
0.0
  0
XRECORD
  5
6D32
102
{ACAD_REACTORS
330
6D21
102
}
330
6D21
100
AcDbXrecord
 10
0.0
 20
0.0
 30
0.0
  0
XRECORD
  5
6D2F
102
{ACAD_REACTORS
330
6D21
102
}
330
6D21
100
AcDbXrecord
340
0
  0
XRECORD
  5
6D30
102
{ACAD_REACTORS
330
6D21
102
}
330
6D21
100
AcDbXrecord
 70
     0
  0
XRECORD
  5
6D25
102
{ACAD_REACTORS
330
6D21
102
}
330
6D21
100
AcDbXrecord
  1

  0
XRECORD
  5
6D22
102
{ACAD_REACTORS
330
6D21
102
}
330
6D21
100
AcDbXrecord
 90
        1
  0
XRECORD
  5
6D23
102
{ACAD_REACTORS
330
6D21
102
}
330
6D21
100
AcDbXrecord
 90
       70
  0
XRECORD
  5
6D3A
102
{ACAD_REACTORS
330
6D21
102
}
330
6D21
100
AcDbXrecord
340
0
  0
XRECORD
  5
6D40
102
{ACAD_REACTORS
330
6D21
102
}
330
6D21
100
AcDbXrecord
 10
0.0
 20
0.0
 30
0.0
  0
XRECORD
  5
6D3C
102
{ACAD_REACTORS
330
6D21
102
}
330
6D21
100
AcDbXrecord
 10
0.0
 20
0.0
 30
0.0
  0
XRECORD
  5
6D3F
102
{ACAD_REACTORS
330
6D21
102
}
330
6D21
100
AcDbXrecord
 10
0.0
 20
0.0
 30
0.0
  0
XRECORD
  5
6D3D
102
{ACAD_REACTORS
330
6D21
102
}
330
6D21
100
AcDbXrecord
 10
0.0
 20
0.0
 30
0.0
  0
XRECORD
  5
6D3E
102
{ACAD_REACTORS
330
6D21
102
}
330
6D21
100
AcDbXrecord
 10
0.0
 20
0.0
 30
0.0
  0
XRECORD
  5
6D3B
102
{ACAD_REACTORS
330
6D21
102
}
330
6D21
100
AcDbXrecord
 10
0.0
 20
0.0
 30
0.0
  0
XRECORD
  5
6D38
102
{ACAD_REACTORS
330
6D21
102
}
330
6D21
100
AcDbXrecord
340
0
  0
XRECORD
  5
6D39
102
{ACAD_REACTORS
330
6D21
102
}
330
6D21
100
AcDbXrecord
 70
     0
  0
XRECORD
  5
6D2D
102
{ACAD_REACTORS
330
6D21
102
}
330
6D21
100
AcDbXrecord
  1
{8F8DEB7D-86C0-49C2-BE9A-6FBDC8CEEF90}
  0
DICTIONARYVAR
  5
6B57
102
{ACAD_REACTORS
330
6B56
102
}
330
6B56
100
DictionaryVariables
280
     0
  1
1
  0
ENDSEC
  0
EOF
