  0
SECTION
  2
HEADER
  9
$ACADVER
  1
AC1015
  9
$ACADMAINTVER
 70
    20
  9
$DWGCODEPAGE
  3
ANSI_932
  9
$INSBASE
 10
0.0
 20
0.0
 30
0.0
  9
$EXTMIN
 10
9.83172466997621
 20
14.78415040953848
 30
-0.0015258207003583
  9
$EXTMAX
 10
214.9543381484856
 20
289.9874884795805
 30
0.0000000349246037
  9
$LIMMIN
 10
9.837987
 20
14.792551
  9
$LIMMAX
 10
215.057674
 20
290.0841020000001
  9
$ORTHOMODE
 70
     0
  9
$REGENMODE
 70
     1
  9
$FILLMODE
 70
     1
  9
$QTEXTMODE
 70
     0
  9
$MIRRTEXT
 70
     1
  9
$LTSCALE
 40
1.0
  9
$ATTMODE
 70
     1
  9
$TEXTSIZE
 40
0.0
  9
$TRACEWID
 40
0.05
  9
$TEXTSTYLE
  7
STD
  9
$CLAYER
  8
0
  9
$CELTYPE
  6
Continuous
  9
$CECOLOR
 62
   256
  9
$CELTSCALE
 40
1.0
  9
$DISPSILH
 70
     0
  9
$DIMSCALE
 40
1.0
  9
$DIMASZ
 40
0.18
  9
$DIMEXO
 40
0.0625
  9
$DIMDLI
 40
0.38
  9
$DIMRND
 40
0.0
  9
$DIMDLE
 40
0.0
  9
$DIMEXE
 40
0.18
  9
$DIMTP
 40
0.0
  9
$DIMTM
 40
0.0
  9
$DIMTXT
 40
0.18
  9
$DIMCEN
 40
0.09
  9
$DIMTSZ
 40
0.0
  9
$DIMTOL
 70
     0
  9
$DIMLIM
 70
     0
  9
$DIMTIH
 70
     1
  9
$DIMTOH
 70
     1
  9
$DIMSE1
 70
     0
  9
$DIMSE2
 70
     0
  9
$DIMTAD
 70
     0
  9
$DIMZIN
 70
     0
  9
$DIMBLK
  1

  9
$DIMASO
 70
     1
  9
$DIMSHO
 70
     1
  9
$DIMPOST
  1

  9
$DIMAPOST
  1

  9
$DIMALT
 70
     0
  9
$DIMALTD
 70
     2
  9
$DIMALTF
 40
25.4
  9
$DIMLFAC
 40
1.0
  9
$DIMTOFL
 70
     0
  9
$DIMTVP
 40
0.0
  9
$DIMTIX
 70
     0
  9
$DIMSOXD
 70
     0
  9
$DIMSAH
 70
     0
  9
$DIMBLK1
  1

  9
$DIMBLK2
  1

  9
$DIMSTYLE
  2
Standard
  9
$DIMCLRD
 70
     0
  9
$DIMCLRE
 70
     0
  9
$DIMCLRT
 70
     0
  9
$DIMTFAC
 40
1.0
  9
$DIMGAP
 40
0.09
  9
$DIMJUST
 70
     0
  9
$DIMSD1
 70
     0
  9
$DIMSD2
 70
     0
  9
$DIMTOLJ
 70
     1
  9
$DIMTZIN
 70
     0
  9
$DIMALTZ
 70
     0
  9
$DIMALTTZ
 70
     0
  9
$DIMUPT
 70
     0
  9
$DIMDEC
 70
     4
  9
$DIMTDEC
 70
     4
  9
$DIMALTU
 70
     2
  9
$DIMALTTD
 70
     2
  9
$DIMTXSTY
  7
Standard
  9
$DIMAUNIT
 70
     0
  9
$DIMADEC
 70
     0
  9
$DIMALTRND
 40
0.0
  9
$DIMAZIN
 70
     0
  9
$DIMDSEP
 70
     0
  9
$DIMATFIT
 70
     3
  9
$DIMFRAC
 70
     0
  9
$DIMLDRBLK
  1

  9
$DIMLUNIT
 70
     2
  9
$DIMLWD
 70
     0
  9
$DIMLWE
 70
     0
  9
$DIMTMOVE
 70
     0
  9
$LUNITS
 70
     2
  9
$LUPREC
 70
     4
  9
$SKETCHINC
 40
0.1
  9
$FILLETRAD
 40
0.0
  9
$AUNITS
 70
     0
  9
$AUPREC
 70
     0
  9
$MENU
  1
acad
  9
$ELEVATION
 40
0.0
  9
$PELEVATION
 40
0.0
  9
$THICKNESS
 40
0.0
  9
$LIMCHECK
 70
     0
  9
$CHAMFERA
 40
0.0
  9
$CHAMFERB
 40
0.0
  9
$CHAMFERC
 40
0.0
  9
$CHAMFERD
 40
0.0
  9
$SKPOLY
 70
     0
  9
$TDCREATE
 40
2454670.435591539
  9
$TDUCREATE
 40
2454670.060591539
  9
$TDUPDATE
 40
2454670.436072222
  9
$TDUUPDATE
 40
2454670.061072222
  9
$TDINDWG
 40
0.0004830324
  9
$TDUSRTIMER
 40
0.0004828588
  9
$USRTIMER
 70
     1
  9
$ANGBASE
 50
0.0
  9
$ANGDIR
 70
     0
  9
$PDMODE
 70
     0
  9
$PDSIZE
 40
0.0
  9
$PLINEWID
 40
0.0
  9
$SPLFRAME
 70
     0
  9
$SPLINETYPE
 70
     6
  9
$SPLINESEGS
 70
     8
  9
$HANDSEED
  5
E9
  9
$SURFTAB1
 70
     6
  9
$SURFTAB2
 70
     6
  9
$SURFTYPE
 70
     6
  9
$SURFU
 70
     6
  9
$SURFV
 70
     6
  9
$UCSBASE
  2

  9
$UCSNAME
  2

  9
$UCSORG
 10
0.0
 20
0.0
 30
0.0
  9
$UCSXDIR
 10
1.0
 20
0.0
 30
0.0
  9
$UCSYDIR
 10
0.0
 20
1.0
 30
0.0
  9
$UCSORTHOREF
  2

  9
$UCSORTHOVIEW
 70
     0
  9
$UCSORGTOP
 10
0.0
 20
0.0
 30
0.0
  9
$UCSORGBOTTOM
 10
0.0
 20
0.0
 30
0.0
  9
$UCSORGLEFT
 10
0.0
 20
0.0
 30
0.0
  9
$UCSORGRIGHT
 10
0.0
 20
0.0
 30
0.0
  9
$UCSORGFRONT
 10
0.0
 20
0.0
 30
0.0
  9
$UCSORGBACK
 10
0.0
 20
0.0
 30
0.0
  9
$PUCSBASE
  2

  9
$PUCSNAME
  2

  9
$PUCSORG
 10
0.0
 20
0.0
 30
0.0
  9
$PUCSXDIR
 10
1.0
 20
0.0
 30
0.0
  9
$PUCSYDIR
 10
0.0
 20
1.0
 30
0.0
  9
$PUCSORTHOREF
  2

  9
$PUCSORTHOVIEW
 70
     0
  9
$PUCSORGTOP
 10
0.0
 20
0.0
 30
0.0
  9
$PUCSORGBOTTOM
 10
0.0
 20
0.0
 30
0.0
  9
$PUCSORGLEFT
 10
0.0
 20
0.0
 30
0.0
  9
$PUCSORGRIGHT
 10
0.0
 20
0.0
 30
0.0
  9
$PUCSORGFRONT
 10
0.0
 20
0.0
 30
0.0
  9
$PUCSORGBACK
 10
0.0
 20
0.0
 30
0.0
  9
$USERI1
 70
     0
  9
$USERI2
 70
     0
  9
$USERI3
 70
     0
  9
$USERI4
 70
     0
  9
$USERI5
 70
     0
  9
$USERR1
 40
0.0
  9
$USERR2
 40
0.0
  9
$USERR3
 40
0.0
  9
$USERR4
 40
0.0
  9
$USERR5
 40
0.0
  9
$WORLDVIEW
 70
     1
  9
$SHADEDGE
 70
     3
  9
$SHADEDIF
 70
    70
  9
$TILEMODE
 70
     1
  9
$MAXACTVP
 70
    16
  9
$PINSBASE
 10
0.0
 20
0.0
 30
0.0
  9
$PLIMCHECK
 70
     0
  9
$PEXTMIN
 10
1.000000000000000E+20
 20
1.000000000000000E+20
 30
1.000000000000000E+20
  9
$PEXTMAX
 10
-1.000000000000000E+20
 20
-1.000000000000000E+20
 30
-1.000000000000000E+20
  9
$PLIMMIN
 10
0.0
 20
0.0
  9
$PLIMMAX
 10
12.0
 20
9.0
  9
$UNITMODE
 70
     0
  9
$VISRETAIN
 70
     0
  9
$PLINEGEN
 70
     1
  9
$PSLTSCALE
 70
     0
  9
$TREEDEPTH
 70
  3020
  9
$CMLSTYLE
  2
Standard
  9
$CMLJUST
 70
     0
  9
$CMLSCALE
 40
1.0
  9
$PROXYGRAPHICS
 70
     0
  9
$MEASUREMENT
 70
     0
  9
$CELWEIGHT
370
     0
  9
$ENDCAPS
280
     0
  9
$JOINSTYLE
280
     0
  9
$LWDISPLAY
290
     0
  9
$INSUNITS
 70
     0
  9
$HYPERLINKBASE
  1

  9
$STYLESHEET
  1

  9
$XEDIT
290
     1
  9
$CEPSNTYPE
380
     0
  9
$PSTYLEMODE
290
     1
  9
$FINGERPRINTGUID
  2

  9
$VERSIONGUID
  2
{1D0858D4-41CA-4194-8C0D-459D5AD3C17D}
  9
$EXTNAMES
290
     1
  9
$PSVPSCALE
 40
0.0
  9
$OLESTARTUP
290
     0
  0
ENDSEC
  0
SECTION
  2
CLASSES
  0
CLASS
  1
IMAGE
  2
AcDbRasterImage
  3
ISM
 90
    32895
280
     0
281
     1
  0
CLASS
  1
DICTIONARYVAR
  2
AcDbDictionaryVar
  3
ObjectDBX Classes
 90
        0
280
     0
281
     0
  0
CLASS
  1
RASTERVARIABLES
  2
AcDbRasterVariables
  3
ISM
 90
    32768
280
     0
281
     0
  0
CLASS
  1
IMAGEDEF
  2
AcDbRasterImageDef
  3
ISM
 90
    32768
280
     0
281
     0
  0
CLASS
  1
IMAGEDEF_REACTOR
  2
AcDbRasterImageDefReactor
  3
ISM
 90
    32769
280
     0
281
     0
  0
CLASS
  1
IDBUFFER
  2
AcDbIdBuffer
  3
ObjectDBX Classes
 90
    32768
280
     0
281
     0
  0
CLASS
  1
SPATIAL_FILTER
  2
AcDbSpatialFilter
  3
ObjectDBX Classes
 90
    32768
280
     0
281
     0
  0
CLASS
  1
SORTENTSTABLE
  2
AcDbSortentsTable
  3
ObjectDBX Classes
 90
        0
280
     0
281
     0
  0
CLASS
  1
LAYER_INDEX
  2
AcDbLayerIndex
  3
ObjectDBX Classes
 90
    32768
280
     0
281
     0
  0
CLASS
  1
SPATIAL_INDEX
  2
AcDbSpatialIndex
  3
ObjectDBX Classes
 90
    32768
280
     0
281
     0
  0
CLASS
  1
OBJECT_PTR
  2
CAseDLPNTableRecord
  3
"ASE-LPNTableRecord"
 90
    32769
280
     0
281
     0
  0
CLASS
  1
LAYOUT
  2
AcDbLayout
  3
ObjectDBX Classes
 90
        0
280
     0
281
     0
  0
CLASS
  1
PLOTSETTINGS
  2
AcDbPlotSettings
  3
ObjectDBX Classes
 90
    32768
280
     0
281
     0
  0
CLASS
  1
ACDBDICTIONARYWDFLT
  2
AcDbDictionaryWithDefault
  3
ObjectDBX Classes
 90
        0
280
     0
281
     0
  0
CLASS
  1
ACDBPLACEHOLDER
  2
AcDbPlaceHolder
  3
ObjectDBX Classes
 90
        0
280
     0
281
     0
  0
CLASS
  1
VBA_PROJECT
  2
AcDbVbaProject
  3
acad
 90
    32768
280
     0
281
     0
  0
CLASS
  1
WIPEOUT
  2
AcDbWipeout
  3
"WipeOut|Product Desc: Object Enabler for WipeOut entity^I^I^I^I^I^I|Company: Autodesk, Inc.^I^I^I^I^I^I|WEB Address: www.autodesk.com"
 90
    32895
280
     0
281
     1
  0
CLASS
  1
WIPEOUTVARIABLES
  2
AcDbWipeoutVariables
  3
"WipeOut|Product Desc:     WipeOut Dbx Application|Company:          Autodesk, Inc.|WEB Address:      www.autodesk.com"
 90
        0
280
     0
281
     0
  0
CLASS
  1
RTEXT
  2
RText
  3
RText|AutoCAD Express Tool|expresstools@autodesk.com
 90
    32768
280
     0
281
     1
  0
CLASS
  1
ARCALIGNEDTEXT
  2
AcDbArcAlignedText
  3
ATEXT|AutoCAD Express Tool|expresstools@autodesk.com
 90
    32768
280
     0
281
     1
  0
CLASS
  1
TABLESTYLE
  2
AcDbTableStyle
  3
ObjectDBX Classes
 90
     2047
280
     0
281
     0
  0
ENDSEC
  0
SECTION
  2
TABLES
  0
TABLE
  2
VPORT
  5
7
330
0
100
AcDbSymbolTable
 70
     2
  0
VPORT
  5
E3
330
7
100
AcDbSymbolTableRecord
100
AcDbViewportTableRecord
  2
*Active
 70
     0
 10
0.0
 20
0.0
 11
1.0
 21
1.0
 12
119.1048439279246
 22
174.4575237421227
 13
0.0
 23
0.0
 14
1.0
 24
1.0
 15
0.0
 25
0.0
 16
0.0
 26
0.0
 36
1.0
 17
0.0
 27
0.0
 37
0.0
 40
194.7293932121648
 41
1.121951219512195
 42
50.0
 43
0.0
 44
0.0
 50
0.0
 51
0.0
 71
     0
 72
   100
 73
     1
 74
     1
 75
     0
 76
     0
 77
     0
 78
     0
281
     0
 65
     0
110
0.0
120
0.0
130
0.0
111
1.0
121
0.0
131
0.0
112
0.0
122
1.0
132
0.0
 79
     0
146
0.0
  0
ENDTAB
  0
TABLE
  2
LTYPE
  5
4
330
0
100
AcDbSymbolTable
 70
     1
  0
LTYPE
  5
11
330
4
100
AcDbSymbolTableRecord
100
AcDbLinetypeTableRecord
  2
ByBlock
 70
     0
  3

 72
    65
 73
     0
 40
0.0
  0
LTYPE
  5
12
330
4
100
AcDbSymbolTableRecord
100
AcDbLinetypeTableRecord
  2
ByLayer
 70
     0
  3

 72
    65
 73
     0
 40
0.0
  0
LTYPE
  5
13
330
4
100
AcDbSymbolTableRecord
100
AcDbLinetypeTableRecord
  2
Continuous
 70
     0
  3
Solid line
 72
    65
 73
     0
 40
0.0
  0
ENDTAB
  0
TABLE
  2
LAYER
  5
2
330
0
100
AcDbSymbolTable
 70
    13
  0
LAYER
  5
14
330
2
100
AcDbSymbolTableRecord
100
AcDbLayerTableRecord
  2
0
 70
     0
 62
     7
  6
Continuous
370
    -3
390
1D
  0
LAYER
  5
28
330
2
100
AcDbSymbolTableRecord
100
AcDbLayerTableRecord
  2
レイヤー_5
 70
     0
 62
     2
  6
Continuous
370
    -3
390
1F
  0
LAYER
  5
2C
330
2
100
AcDbSymbolTableRecord
100
AcDbLayerTableRecord
  2
1
 70
     0
 62
     6
  6
Continuous
370
    -3
390
1F
  0
LAYER
  5
2E
330
2
100
AcDbSymbolTableRecord
100
AcDbLayerTableRecord
  2
2
 70
     0
 62
   160
  6
Continuous
370
    -3
390
1F
  0
LAYER
  5
30
330
2
100
AcDbSymbolTableRecord
100
AcDbLayerTableRecord
  2
3
 70
     0
 62
   160
  6
Continuous
370
    -3
390
1F
  0
LAYER
  5
32
330
2
100
AcDbSymbolTableRecord
100
AcDbLayerTableRecord
  2
4
 70
     0
 62
   160
  6
Continuous
370
    -3
390
1F
  0
LAYER
  5
34
330
2
100
AcDbSymbolTableRecord
100
AcDbLayerTableRecord
  2
5
 70
     0
 62
   160
  6
Continuous
370
    -3
390
1F
  0
LAYER
  5
36
330
2
100
AcDbSymbolTableRecord
100
AcDbLayerTableRecord
  2
6
 70
     0
 62
   160
  6
Continuous
370
    -3
390
1F
  0
LAYER
  5
38
330
2
100
AcDbSymbolTableRecord
100
AcDbLayerTableRecord
  2
7
 70
     0
 62
   160
  6
Continuous
370
    -3
390
1F
  0
LAYER
  5
3A
330
2
100
AcDbSymbolTableRecord
100
AcDbLayerTableRecord
  2
VPORT-BORDERS
 70
     0
 62
     5
  6
Continuous
370
    -3
390
1F
  0
ENDTAB
  0
TABLE
  2
STYLE
  5
3
330
0
100
AcDbSymbolTable
 70
     5
  0
STYLE
  5
17
330
3
100
AcDbSymbolTableRecord
100
AcDbTextStyleTableRecord
  2
Standard
 70
     0
 40
0.0
 41
1.0
 50
0.0
 71
     0
 42
0.0
  3
txt
  4

  0
STYLE
  5
24
330
3
100
AcDbSymbolTableRecord
100
AcDbTextStyleTableRecord
  2
STD
 70
     0
 40
0.0
 41
0.8
 50
0.0
 71
     0
 42
0.0
  3
romans.shx
  4
bigfont.shx
  0
ENDTAB
  0
TABLE
  2
VIEW
  5
5
330
0
100
AcDbSymbolTable
 70
     0
  0
ENDTAB
  0
TABLE
  2
UCS
  5
6
330
0
100
AcDbSymbolTable
 70
     0
  0
ENDTAB
  0
TABLE
  2
APPID
  5
8
330
0
100
AcDbSymbolTable
 70
     1
  0
APPID
  5
16
330
8
100
AcDbSymbolTableRecord
100
AcDbRegAppTableRecord
  2
ACAD
 70
     0
  0
ENDTAB
  0
TABLE
  2
DIMSTYLE
  5
9
330
0
100
AcDbSymbolTable
 70
     1
100
AcDbDimStyleTable
 71
     0
  0
DIMSTYLE
105
18
330
9
100
AcDbSymbolTableRecord
100
AcDbDimStyleTableRecord
  2
Standard
 70
     0
340
17
  0
ENDTAB
  0
TABLE
  2
BLOCK_RECORD
  5
1
330
0
100
AcDbSymbolTable
 70
     1
  0
BLOCK_RECORD
  5
A
102
{ACAD_XDICTIONARY
360
D8
102
}
330
1
100
AcDbSymbolTableRecord
100
AcDbBlockTableRecord
  2
*MODEL_SPACE
340
20
  0
BLOCK_RECORD
  5
B
330
1
100
AcDbSymbolTableRecord
100
AcDbBlockTableRecord
  2
*PAPER_SPACE
340
21
  0
ENDTAB
  0
ENDSEC
  0
SECTION
  2
BLOCKS
  0
BLOCK
  5
D
330
A
100
AcDbEntity
  8
0
100
AcDbBlockBegin
  2
*MODEL_SPACE
 70
     0
 10
0.0
 20
0.0
 30
0.0
  3
*MODEL_SPACE
  1

  0
ENDBLK
  5
E
330
A
100
AcDbEntity
  8
0
100
AcDbBlockEnd
  0
BLOCK
  5
F
330
B
100
AcDbEntity
 67
     1
  8
0
100
AcDbBlockBegin
  2
*PAPER_SPACE
 70
     0
 10
0.0
 20
0.0
 30
0.0
  3
*PAPER_SPACE
  1

  0
ENDBLK
  5
10
330
B
100
AcDbEntity
 67
     1
  8
0
100
AcDbBlockEnd
  0
ENDSEC
  0
SECTION
  2
ENTITIES
  0
MTEXT
  5
42
330
A
100
AcDbEntity
  8
VPORT-BORDERS
 62
     7
100
AcDbMText
 10
32.265316
 20
14.792551
 30
0.0
 40
2.444193999999999
 41
0.0
 71
     1
 72
     2
  1
\fOsaka|b0|i0|c128;220V
  7
STD
 11
0.0
 21
1.0
 31
0.0
 73
     1
 44
1.0
1001
ACAD
1000
MTEXTBEGIN
1070
    73
1070
     1
1070
    44
1040
1.0
1070
    74
1070
     0
1000
MTEXTEND
  0
MTEXT
  5
41
330
A
100
AcDbEntity
  8
VPORT-BORDERS
 62
     7
100
AcDbMText
 10
19.16534
 20
14.792551
 30
0.0
 40
2.444193999999999
 41
0.0
 71
     1
 72
     2
  1
\fOsaka|b0|i0|c128;440V
  7
STD
 11
0.0
 21
1.0
 31
0.0
 73
     1
 44
1.0
1001
ACAD
1000
MTEXTBEGIN
1070
    73
1070
     1
1070
    44
1040
1.0
1070
    74
1070
     0
1000
MTEXTEND
  0
MTEXT
  5
40
330
A
100
AcDbEntity
  8
VPORT-BORDERS
 62
     7
100
AcDbMText
 10
45.84725999999999
 20
14.792551
 30
0.0
 40
2.444193999999999
 41
0.0
 71
     1
 72
     2
  1
\fOsaka|b0|i0|c128;110V
  7
STD
 11
0.0
 21
1.0
 31
0.0
 73
     1
 44
1.0
1001
ACAD
1000
MTEXTBEGIN
1070
    73
1070
     1
1070
    44
1040
1.0
1070
    74
1070
     0
1000
MTEXTEND
  0
LINE
  5
3F
330
A
100
AcDbEntity
  8
VPORT-BORDERS
 62
     7
100
AcDbLine
 10
33.709398
 20
289.978338
 30
0.0
 11
33.709398
 21
29.577867
 31
0.0
  0
LINE
  5
3E
330
A
100
AcDbEntity
  8
VPORT-BORDERS
 62
     7
100
AcDbLine
 10
46.809374
 20
289.978338
 30
0.0
 11
46.809374
 21
29.577867
 31
0.0
  0
LINE
  5
3D
330
A
100
AcDbEntity
  8
VPORT-BORDERS
 62
     7
100
AcDbLine
 10
20.609422
 20
289.978338
 30
0.0
 11
20.609422
 21
29.577867
 31
0.0
  0
LINE
  5
3C
330
A
100
AcDbEntity
  8
VPORT-BORDERS
 62
     7
100
AcDbLine
 10
214.95191
 20
29.577867
 30
0.0
 11
20.609422
 21
29.577867
 31
0.0
  0
MTEXT
  5
3B
330
A
100
AcDbEntity
  8
VPORT-BORDERS
 62
     7
100
AcDbMText
 10
9.837987
 20
31.01816
 30
0.0
 40
2.444193999999999
 41
0.0
 71
     1
 72
     2
  1
\W1.02;\fOsaka|b0|i0|c128;0.01S
  7
STD
 73
     1
 44
1.0
1001
ACAD
1000
MTEXTBEGIN
1070
    73
1070
     1
1070
    44
1040
1.0
1070
    74
1070
     0
1000
MTEXTEND
  0
SPLINE
  5
39
330
A
100
AcDbEntity
  8
7
 62
     7
100
AcDbSpline
210
0.0
220
0.0
230
1.0
 70
     8
 71
     3
 72
    32
 73
    28
 74
     0
 42
0.0000000001
 43
0.0000000001
 40
0.0
 40
0.0
 40
0.0
 40
0.0
 40
1.0
 40
1.0
 40
1.0
 40
2.0
 40
2.0
 40
2.0
 40
3.0
 40
3.0
 40
3.0
 40
4.0
 40
4.0
 40
4.0
 40
5.0
 40
5.0
 40
5.0
 40
6.0
 40
6.0
 40
6.0
 40
7.0
 40
7.0
 40
7.0
 40
8.0
 40
8.0
 40
8.0
 40
9.0
 40
9.0
 40
9.0
 40
9.0
 10
148.1876817491319
 20
29.57786729600695
 30
0.0
 10
148.1876817491319
 20
29.57786729600695
 30
0.0
 10
106.1092854817708
 20
29.57786729600695
 30
0.0
 10
106.1092854817708
 20
29.57786729600695
 30
0.0
 10
106.1092854817708
 20
29.57786729600695
 30
0.0
 10
106.1092854817708
 20
86.04298231336803
 30
0.0
 10
106.1092854817708
 20
86.04298231336803
 30
0.0
 10
106.1092854817708
 20
86.04298231336803
 30
0.0
 10
99.80941162109374
 20
86.04298231336803
 30
0.0
 10
99.80941162109374
 20
86.04298231336803
 30
0.0
 10
99.80941162109374
 20
86.04298231336803
 30
0.0
 10
99.80941162109374
 20
161.4779988606771
 30
0.0
 10
99.80941162109374
 20
161.4779988606771
 30
0.0
 10
99.80941162109374
 20
161.4779988606771
 30
0.0
 10
99.07474500868055
 20
162.7587131076388
 30
0.0
 10
99.07474500868055
 20
162.7587131076388
 30
0.0
 10
96.81527913411457
 20
167.0349378797743
 30
0.0
 10
93.75758463541666
 20
172.7915201822916
 30
0.0
 10
90.19397786458332
 20
179.7904039171007
 30
0.0
 10
84.15627577039929
 20
191.6485948350694
 30
0.0
 10
76.66629367404515
 20
206.308509657118
 30
0.0
 10
69.14496120876735
 20
224.1427354600694
 30
0.0
 10
61.93162027994792
 20
241.2529744466146
 30
0.0
 10
58.57454698350693
 20
257.8118259006076
 30
0.0
 10
58.57454698350693
 20
271.2237548828125
 30
0.0
 10
58.57454698350693
 20
271.2237548828125
 30
0.0
 10
58.57454698350693
 20
289.9783379448784
 30
0.0
 10
58.57454698350693
 20
289.9783379448784
 30
0.0
  0
SPLINE
  5
37
330
A
100
AcDbEntity
  8
6
 62
     7
100
AcDbSpline
210
0.0
220
0.0
230
1.0
 70
     8
 71
     3
 72
    32
 73
    28
 74
     0
 42
0.0000000001
 43
0.0000000001
 40
0.0
 40
0.0
 40
0.0
 40
0.0
 40
1.0
 40
1.0
 40
1.0
 40
2.0
 40
2.0
 40
2.0
 40
3.0
 40
3.0
 40
3.0
 40
4.0
 40
4.0
 40
4.0
 40
5.0
 40
5.0
 40
5.0
 40
6.0
 40
6.0
 40
6.0
 40
7.0
 40
7.0
 40
7.0
 40
8.0
 40
8.0
 40
8.0
 40
9.0
 40
9.0
 40
9.0
 40
9.0
 10
148.1876817491319
 20
29.57786729600695
 30
0.0
 10
148.1876817491319
 20
29.57786729600695
 30
0.0
 10
106.1092854817708
 20
29.57786729600695
 30
0.0
 10
106.1092854817708
 20
29.57786729600695
 30
0.0
 10
106.1092854817708
 20
29.57786729600695
 30
0.0
 10
106.1092854817708
 20
86.04298231336803
 30
0.0
 10
106.1092854817708
 20
86.04298231336803
 30
0.0
 10
106.1092854817708
 20
86.04298231336803
 30
0.0
 10
99.80941162109374
 20
86.04298231336803
 30
0.0
 10
99.80941162109374
 20
86.04298231336803
 30
0.0
 10
99.80941162109374
 20
86.04298231336803
 30
0.0
 10
99.80941162109374
 20
153.3012369791666
 30
0.0
 10
99.80941162109374
 20
153.3012369791666
 30
0.0
 10
99.80941162109374
 20
153.3012369791666
 30
0.0
 10
99.08370225694445
 20
154.5197672526041
 30
0.0
 10
99.08370225694445
 20
154.5197672526041
 30
0.0
 10
96.85558675130208
 20
158.5334757486979
 30
0.0
 10
93.78669569227428
 20
164.5432725694444
 30
0.0
 10
90.24083116319443
 20
171.813629828559
 30
0.0
 10
83.99676784939234
 20
184.6169826931423
 30
0.0
 10
76.27372504340276
 20
200.3841512044271
 30
0.0
 10
69.06003960503472
 20
216.9898559570313
 30
0.0
 10
61.95194634331597
 20
233.347858344184
 30
0.0
 10
58.49152018229165
 20
249.5580661349826
 30
0.0
 10
58.49152018229165
 20
270.558851453993
 30
0.0
 10
58.49152018229165
 20
270.558851453993
 30
0.0
 10
58.49152018229165
 20
289.9783379448784
 30
0.0
 10
58.49152018229165
 20
289.9783379448784
 30
0.0
  0
SPLINE
  5
35
330
A
100
AcDbEntity
  8
5
 62
     7
100
AcDbSpline
210
0.0
220
0.0
230
1.0
 70
     8
 71
     3
 72
    29
 73
    25
 74
     0
 42
0.0000000001
 43
0.0000000001
 40
0.0
 40
0.0
 40
0.0
 40
0.0
 40
1.0
 40
1.0
 40
1.0
 40
2.0
 40
2.0
 40
2.0
 40
3.0
 40
3.0
 40
3.0
 40
4.0
 40
4.0
 40
4.0
 40
5.0
 40
5.0
 40
5.0
 40
6.0
 40
6.0
 40
6.0
 40
7.0
 40
7.0
 40
7.0
 40
8.0
 40
8.0
 40
8.0
 40
8.0
 10
148.1876817491319
 20
29.57786729600695
 30
0.0
 10
148.1876817491319
 20
29.57786729600695
 30
0.0
 10
106.1092854817708
 20
29.57786729600695
 30
0.0
 10
106.1092854817708
 20
29.57786729600695
 30
0.0
 10
106.1092854817708
 20
29.57786729600695
 30
0.0
 10
106.1092854817708
 20
86.04298231336803
 30
0.0
 10
106.1092854817708
 20
86.04298231336803
 30
0.0
 10
106.1092854817708
 20
86.04298231336803
 30
0.0
 10
99.80941162109374
 20
86.04298231336803
 30
0.0
 10
99.80941162109374
 20
86.04298231336803
 30
0.0
 10
99.80941162109374
 20
86.04298231336803
 30
0.0
 10
99.80941162109374
 20
140.0724148220486
 30
0.0
 10
99.80941162109374
 20
140.0724148220486
 30
0.0
 10
99.80941162109374
 20
140.0724148220486
 30
0.0
 10
99.06647677951388
 20
141.4463189019097
 30
0.0
 10
99.06647677951388
 20
141.4463189019097
 30
0.0
 10
99.06647677951388
 20
141.4463189019097
 30
0.0
 10
84.89335394965277
 20
171.022119140625
 30
0.0
 10
77.08693983289929
 20
187.6402262369791
 30
0.0
 10
69.28397081163193
 20
204.2567830403645
 30
0.0
 10
58.57179090711804
 20
227.5750840928819
 30
0.0
 10
58.57179090711804
 20
251.0489312065972
 30
0.0
 10
58.57179090711804
 20
254.1538235134548
 30
0.0
 10
58.57179090711804
 20
262.7865437825521
 30
0.0
 10
58.57179090711804
 20
289.9783379448784
 30
0.0
  0
SPLINE
  5
33
330
A
100
AcDbEntity
  8
4
 62
     7
100
AcDbSpline
210
0.0
220
0.0
230
1.0
 70
     8
 71
     3
 72
    41
 73
    37
 74
     0
 42
0.0000000001
 43
0.0000000001
 40
0.0
 40
0.0
 40
0.0
 40
0.0
 40
1.0
 40
1.0
 40
1.0
 40
2.0
 40
2.0
 40
2.0
 40
3.0
 40
3.0
 40
3.0
 40
4.0
 40
4.0
 40
4.0
 40
5.0
 40
5.0
 40
5.0
 40
6.0
 40
6.0
 40
6.0
 40
7.0
 40
7.0
 40
7.0
 40
8.0
 40
8.0
 40
8.0
 40
9.0
 40
9.0
 40
9.0
 40
10.0
 40
10.0
 40
10.0
 40
11.0
 40
11.0
 40
11.0
 40
12.0
 40
12.0
 40
12.0
 40
12.0
 10
148.1876817491319
 20
29.57786729600695
 30
0.0
 10
148.1876817491319
 20
29.57786729600695
 30
0.0
 10
106.1092854817708
 20
29.57786729600695
 30
0.0
 10
106.1092854817708
 20
29.57786729600695
 30
0.0
 10
106.1092854817708
 20
29.57786729600695
 30
0.0
 10
106.1092854817708
 20
72.97849121093747
 30
0.0
 10
106.1092854817708
 20
72.97849121093747
 30
0.0
 10
106.1092854817708
 20
72.97849121093747
 30
0.0
 10
99.80941162109374
 20
72.97849121093747
 30
0.0
 10
99.80941162109374
 20
72.97849121093747
 30
0.0
 10
99.80941162109374
 20
72.97849121093747
 30
0.0
 10
99.80941162109374
 20
129.8005181206597
 30
0.0
 10
99.80941162109374
 20
129.8005181206597
 30
0.0
 10
99.80941162109374
 20
129.8005181206597
 30
0.0
 10
99.06647677951388
 20
130.9026041666666
 30
0.0
 10
99.06647677951388
 20
130.9026041666666
 30
0.0
 10
99.06647677951388
 20
130.9026041666666
 30
0.0
 10
95.30839436848957
 20
136.8736436631944
 30
0.0
 10
90.18605414496528
 20
146.7093912760416
 30
0.0
 10
90.02792426215277
 20
147.0132486979166
 30
0.0
 10
89.86841634114581
 20
147.3208957248264
 30
0.0
 10
89.70770263671873
 20
147.6323323567708
 30
0.0
 10
85.9242987738715
 20
154.9598782009548
 30
0.0
 10
81.5455824110243
 20
163.8144626193576
 30
0.0
 10
76.89401448567706
 20
173.6269558376736
 30
0.0
 10
71.4530029296875
 20
185.1094590928819
 30
0.0
 10
66.97489556206597
 20
195.617689344618
 30
0.0
 10
63.80557996961805
 20
207.1721950954861
 30
0.0
 10
60.42938639322915
 20
219.4710137261285
 30
0.0
 10
58.5363064236111
 20
232.9575290256076
 30
0.0
 10
58.5363064236111
 20
250.0651841905381
 30
0.0
 10
58.5363064236111
 20
254.495576985677
 30
0.0
 10
58.5363064236111
 20
263.7220594618056
 30
0.0
 10
58.5363064236111
 20
267.0908460828993
 30
0.0
 10
58.5363064236111
 20
270.4594604492188
 30
0.0
 10
58.5363064236111
 20
283.1394788953992
 30
0.0
 10
58.5363064236111
 20
289.9783379448784
 30
0.0
  0
SPLINE
  5
31
330
A
100
AcDbEntity
  8
3
 62
     7
100
AcDbSpline
210
0.0
220
0.0
230
1.0
 70
     8
 71
     3
 72
    32
 73
    28
 74
     0
 42
0.0000000001
 43
0.0000000001
 40
0.0
 40
0.0
 40
0.0
 40
0.0
 40
1.0
 40
1.0
 40
1.0
 40
2.0
 40
2.0
 40
2.0
 40
3.0
 40
3.0
 40
3.0
 40
4.0
 40
4.0
 40
4.0
 40
5.0
 40
5.0
 40
5.0
 40
6.0
 40
6.0
 40
6.0
 40
7.0
 40
7.0
 40
7.0
 40
8.0
 40
8.0
 40
8.0
 40
9.0
 40
9.0
 40
9.0
 40
9.0
 10
148.1876817491319
 20
29.57786729600695
 30
0.0
 10
148.1876817491319
 20
29.57786729600695
 30
0.0
 10
106.1092854817708
 20
29.57786729600695
 30
0.0
 10
106.1092854817708
 20
29.57786729600695
 30
0.0
 10
106.1092854817708
 20
29.57786729600695
 30
0.0
 10
106.1092854817708
 20
72.97849121093747
 30
0.0
 10
106.1092854817708
 20
72.97849121093747
 30
0.0
 10
106.1092854817708
 20
72.97849121093747
 30
0.0
 10
86.70943603515622
 20
72.97849121093747
 30
0.0
 10
86.70943603515622
 20
72.97849121093747
 30
0.0
 10
86.70943603515622
 20
72.97849121093747
 30
0.0
 10
86.70943603515622
 20
137.3852403428819
 30
0.0
 10
86.70943603515622
 20
137.3852403428819
 30
0.0
 10
86.70943603515622
 20
137.3852403428819
 30
0.0
 10
86.24090304904513
 20
138.1235243055555
 30
0.0
 10
86.24090304904513
 20
138.1235243055555
 30
0.0
 10
83.58456217447916
 20
142.3348090277777
 30
0.0
 10
75.1647488064236
 20
160.9083523220486
 30
0.0
 10
69.06141764322916
 20
175.0900878906249
 30
0.0
 10
62.95860324435763
 20
189.2711344401041
 30
0.0
 10
58.5363064236111
 20
205.9185248480903
 30
0.0
 10
58.5363064236111
 20
219.9776150173611
 30
0.0
 10
58.5363064236111
 20
224.612646484375
 30
0.0
 10
58.5363064236111
 20
240.8993353949652
 30
0.0
 10
58.5363064236111
 20
250.0651841905381
 30
0.0
 10
58.5363064236111
 20
250.0651841905381
 30
0.0
 10
58.5363064236111
 20
289.9783379448784
 30
0.0
 10
58.5363064236111
 20
289.9783379448784
 30
0.0
  0
SPLINE
  5
2F
330
A
100
AcDbEntity
  8
2
 62
     7
100
AcDbSpline
210
0.0
220
0.0
230
1.0
 70
     8
 71
     3
 72
    35
 73
    31
 74
     0
 42
0.0000000001
 43
0.0000000001
 40
0.0
 40
0.0
 40
0.0
 40
0.0
 40
1.0
 40
1.0
 40
1.0
 40
2.0
 40
2.0
 40
2.0
 40
3.0
 40
3.0
 40
3.0
 40
4.0
 40
4.0
 40
4.0
 40
5.0
 40
5.0
 40
5.0
 40
6.0
 40
6.0
 40
6.0
 40
7.0
 40
7.0
 40
7.0
 40
8.0
 40
8.0
 40
8.0
 40
9.0
 40
9.0
 40
9.0
 40
10.0
 40
10.0
 40
10.0
 40
10.0
 10
148.1876817491319
 20
29.57786729600695
 30
0.0
 10
148.1876817491319
 20
29.57786729600695
 30
0.0
 10
106.1092854817708
 20
29.57786729600695
 30
0.0
 10
106.1092854817708
 20
29.57786729600695
 30
0.0
 10
106.1092854817708
 20
29.57786729600695
 30
0.0
 10
106.1092854817708
 20
72.97849121093747
 30
0.0
 10
106.1092854817708
 20
72.97849121093747
 30
0.0
 10
106.1092854817708
 20
72.97849121093747
 30
0.0
 10
73.72177056206597
 20
72.97849121093747
 30
0.0
 10
73.72177056206597
 20
72.97849121093747
 30
0.0
 10
73.72177056206597
 20
72.97849121093747
 30
0.0
 10
73.70781792534723
 20
164.4433648003472
 30
0.0
 10
73.70781792534723
 20
164.4433648003472
 30
0.0
 10
73.70781792534723
 20
164.4433648003472
 30
0.0
 10
73.4657999674479
 20
164.983900282118
 30
0.0
 10
73.4657999674479
 20
164.983900282118
 30
0.0
 10
72.14753417968748
 20
167.9678697374131
 30
0.0
 10
70.83770887586805
 20
170.9735432942708
 30
0.0
 10
69.6146999782986
 20
173.8067898220486
 30
0.0
 10
69.42814805772569
 20
174.2388047960069
 30
0.0
 10
69.24366319444444
 20
174.6668579101562
 30
0.0
 10
69.06141764322916
 20
175.0900878906249
 30
0.0
 10
62.95860324435763
 20
189.2711344401041
 30
0.0
 10
58.5363064236111
 20
205.9185248480903
 30
0.0
 10
58.5363064236111
 20
219.9776150173611
 30
0.0
 10
58.5363064236111
 20
224.612646484375
 30
0.0
 10
58.5363064236111
 20
240.8993353949652
 30
0.0
 10
58.5363064236111
 20
250.0651841905381
 30
0.0
 10
58.5363064236111
 20
250.0651841905381
 30
0.0
 10
58.5363064236111
 20
289.9783379448784
 30
0.0
 10
58.5363064236111
 20
289.9783379448784
 30
0.0
  0
SPLINE
  5
2D
330
A
100
AcDbEntity
  8
1
 62
     7
100
AcDbSpline
210
0.0
220
0.0
230
1.0
 70
     8
 71
     3
 72
    32
 73
    28
 74
     0
 42
0.0000000001
 43
0.0000000001
 40
0.0
 40
0.0
 40
0.0
 40
0.0
 40
1.0
 40
1.0
 40
1.0
 40
2.0
 40
2.0
 40
2.0
 40
3.0
 40
3.0
 40
3.0
 40
4.0
 40
4.0
 40
4.0
 40
5.0
 40
5.0
 40
5.0
 40
6.0
 40
6.0
 40
6.0
 40
7.0
 40
7.0
 40
7.0
 40
8.0
 40
8.0
 40
8.0
 40
9.0
 40
9.0
 40
9.0
 40
9.0
 10
148.1876817491319
 20
29.57786729600695
 30
0.0
 10
148.1876817491319
 20
29.57786729600695
 30
0.0
 10
106.1092854817708
 20
29.57786729600695
 30
0.0
 10
106.1092854817708
 20
29.57786729600695
 30
0.0
 10
106.1092854817708
 20
29.57786729600695
 30
0.0
 10
106.1092854817708
 20
72.97849121093747
 30
0.0
 10
106.1092854817708
 20
72.97849121093747
 30
0.0
 10
106.1092854817708
 20
72.97849121093747
 30
0.0
 10
73.70936821831597
 20
72.97849121093747
 30
0.0
 10
73.70936821831597
 20
72.97849121093747
 30
0.0
 10
73.70936821831597
 20
72.97849121093747
 30
0.0
 10
73.70936821831597
 20
153.4190592447916
 30
0.0
 10
73.70936821831597
 20
153.4190592447916
 30
0.0
 10
73.70936821831597
 20
153.4190592447916
 30
0.0
 10
73.47975260416666
 20
153.7689086914062
 30
0.0
 10
73.47975260416666
 20
153.7689086914062
 30
0.0
 10
72.14305555555554
 20
155.8885036892361
 30
0.0
 10
70.20553385416666
 20
159.7847344292534
 30
0.0
 10
69.49722222222222
 20
161.5329481336805
 30
0.0
 10
68.61527777777777
 20
163.4144870334201
 30
0.0
 10
65.35793999565972
 20
172.2284193250868
 30
0.0
 10
64.02916666666666
 20
176.7023925781249
 30
0.0
 10
58.52424858940972
 20
195.2356282552083
 30
0.0
 10
58.5363064236111
 20
207.4905219184028
 30
0.0
 10
58.5363064236111
 20
219.9776150173611
 30
0.0
 10
58.5363064236111
 20
219.9776150173611
 30
0.0
 10
58.5363064236111
 20
289.9783379448784
 30
0.0
 10
58.5363064236111
 20
289.9783379448784
 30
0.0
  0
TEXT
  5
D7
330
A
100
AcDbEntity
  8
レイヤー_5
  6
Continuous
 62
     7
370
     0
100
AcDbText
 10
154.883569
 20
279.33661
 30
0.0
 40
2.444193999999999
  1
200A
 41
0.8
  7
STD
100
AcDbText
  0
TEXT
  5
DA
330
A
100
AcDbEntity
  8
レイヤー_5
  6
Continuous
 62
     7
370
     0
100
AcDbText
 10
159.7405459881643
 20
268.1144649881643
 30
0.0
 40
2.444193999999999
  1
H400-NE, L400-NE
 41
0.8
  7
STD
100
AcDbText
  0
TEXT
  5
DB
330
A
100
AcDbEntity
  8
レイヤー_5
  6
Continuous
 62
     7
370
     0
100
AcDbText
 10
159.7405459881643
 20
272.0839039881643
 30
0.0
 40
2.444193999999999
  1
S400-NE, S400-GE, S400-PE, 
 41
0.8
  7
STD
100
AcDbText
  0
ENDSEC
  0
SECTION
  2
OBJECTS
  0
DICTIONARY
  5
19
330
0
100
AcDbDictionary
281
     1
  3
ACAD_COLOR
350
46
  3
ACAD_GROUP
350
1A
  3
ACAD_LAYOUT
350
1E
  3
ACAD_MATERIAL
350
45
  3
ACAD_MLINESTYLE
350
1B
  3
ACAD_PLOTSETTINGS
350
22
  3
ACAD_PLOTSTYLENAME
350
1F
  3
ACAD_TABLESTYLE
350
47
  3
ACAD_WIPEOUT_VARS
350
23
  3
ACDBHEADERROUNDTRIPXREC
350
E4
  3
AcDbVariableDictionary
350
DF
  0
DICTIONARY
  5
D8
330
A
100
AcDbDictionary
280
     1
281
     1
  3
ACAD_SORTENTS
360
D9
  0
DICTIONARY
  5
46
102
{ACAD_REACTORS
330
19
102
}
330
19
100
AcDbDictionary
281
     1
  0
DICTIONARY
  5
1A
102
{ACAD_REACTORS
330
19
102
}
330
19
100
AcDbDictionary
281
     1
  0
DICTIONARY
  5
1E
102
{ACAD_REACTORS
330
19
102
}
330
19
100
AcDbDictionary
281
     1
  3
Layout1
350
21
  3
Model
350
20
  0
DICTIONARY
  5
45
102
{ACAD_REACTORS
330
19
102
}
330
19
100
AcDbDictionary
281
     1
  0
DICTIONARY
  5
1B
102
{ACAD_REACTORS
330
19
102
}
330
19
100
AcDbDictionary
281
     1
  3
Standard
350
1C
  0
DICTIONARY
  5
22
102
{ACAD_REACTORS
330
19
102
}
330
19
100
AcDbDictionary
281
     1
  0
ACDBDICTIONARYWDFLT
  5
1F
102
{ACAD_REACTORS
330
19
102
}
330
19
100
AcDbDictionary
281
     1
  3
Normal
350
1D
100
AcDbDictionaryWithDefault
340
1D
  0
DICTIONARY
  5
47
102
{ACAD_REACTORS
330
19
102
}
330
19
100
AcDbDictionary
281
     1
  3
Standard
350
48
  0
WIPEOUTVARIABLES
  5
23
330
19
100
AcDbWipeoutVariables
 70
     1
  0
DICTIONARY
  5
E4
102
{ACAD_REACTORS
330
19
102
}
330
19
100
AcDbDictionary
281
     1
  0
DICTIONARY
  5
DF
102
{ACAD_REACTORS
330
19
102
}
330
19
100
AcDbDictionary
281
     1
  3
CTABLESTYLE
350
E0
  3
DIMASSOC
350
E1
  3
PROJECTNAME
350
E2
  0
SORTENTSTABLE
  5
D9
102
{ACAD_REACTORS
330
D8
102
}
330
D8
100
AcDbSortentsTable
330
A
331
31
  5
37
331
2F
  5
35
331
3E
  5
41
331
2D
  5
33
331
3C
  5
3F
331
42
  5
DA
331
DA
  5
2F
331
40
  5
D6
331
3F
  5
42
331
3D
  5
40
331
3B
  5
3E
331
39
  5
3D
331
37
  5
3C
331
DB
  5
2D
331
41
  5
D7
331
35
  5
3B
331
33
  5
39
331
D7
  5
31
  0
LAYOUT
  5
21
102
{ACAD_XDICTIONARY
360
E7
102
}
102
{ACAD_REACTORS
330
1E
102
}
330
1E
100
AcDbPlotSettings
  1

  2

  4

  6

 40
0.0
 41
0.0
 42
0.0
 43
0.0
 44
0.0
 45
0.0
 46
0.0
 47
0.0
 48
0.0
 49
0.0
140
0.0
141
0.0
142
1.0
143
1.0
 70
     0
 72
     0
 73
     0
 74
     0
  7

 75
     0
147
1.0
148
0.0
149
0.0
100
AcDbLayout
  1
Layout1
 70
     0
 71
     1
 10
0.0
 20
0.0
 11
12.0
 21
9.0
 12
0.0
 22
0.0
 32
0.0
 14
1.000000000000000E+20
 24
1.000000000000000E+20
 34
1.000000000000000E+20
 15
-1.000000000000000E+20
 25
-1.000000000000000E+20
 35
-1.000000000000000E+20
146
0.0
 13
0.0
 23
0.0
 33
0.0
 16
1.0
 26
0.0
 36
0.0
 17
0.0
 27
1.0
 37
0.0
 76
     0
330
B
  0
LAYOUT
  5
20
102
{ACAD_XDICTIONARY
360
E5
102
}
102
{ACAD_REACTORS
330
1E
102
}
330
1E
100
AcDbPlotSettings
  1

  2

  4

  6

 40
0.0
 41
0.0
 42
0.0
 43
0.0
 44
0.0
 45
0.0
 46
0.0
 47
0.0
 48
0.0
 49
0.0
140
0.0
141
0.0
142
1.0
143
1.0
 70
  1024
 72
     0
 73
     0
 74
     0
  7

 75
     0
147
1.0
148
0.0
149
0.0
100
AcDbLayout
  1
Model
 70
     0
 71
     0
 10
0.0
 20
0.0
 11
0.0
 21
0.0
 12
0.0
 22
0.0
 32
0.0
 14
0.0
 24
0.0
 34
0.0
 15
0.0
 25
0.0
 35
0.0
146
0.0
 13
0.0
 23
0.0
 33
0.0
 16
0.0
 26
0.0
 36
0.0
 17
0.0
 27
0.0
 37
0.0
 76
     0
330
A
  0
MLINESTYLE
  5
1C
102
{ACAD_REACTORS
330
1B
102
}
330
1B
100
AcDbMlineStyle
  2
STANDARD
 70
     0
  3

 62
     0
 51
90.0
 52
90.0
 71
     2
 49
0.5
 62
   256
  6
BYLAYER
 49
-0.5
 62
   256
  6
BYLAYER
  0
ACDBPLACEHOLDER
  5
1D
102
{ACAD_REACTORS
330
1F
102
}
330
1F
  0
TABLESTYLE
  5
48
102
{ACAD_REACTORS
330
47
102
}
330
47
100
AcDbTableStyle
  3
Standard
 70
     0
 71
     0
 40
0.06
 41
0.06
280
     0
281
     0
  7
Standard
140
0.18
170
     2
 62
     0
 63
     7
283
     0
274
    -2
284
     1
 64
     0
275
    -2
285
     1
 65
     0
276
    -2
286
     1
 66
     0
277
    -2
287
     1
 67
     0
278
    -2
288
     1
 68
     0
279
    -2
289
     1
 69
     0
  7
Standard
140
0.25
170
     5
 62
     0
 63
     7
283
     0
274
    -2
284
     1
 64
     0
275
    -2
285
     1
 65
     0
276
    -2
286
     1
 66
     0
277
    -2
287
     1
 67
     0
278
    -2
288
     1
 68
     0
279
    -2
289
     1
 69
     0
  7
Standard
140
0.18
170
     5
 62
     0
 63
     7
283
     0
274
    -2
284
     1
 64
     0
275
    -2
285
     1
 65
     0
276
    -2
286
     1
 66
     0
277
    -2
287
     1
 67
     0
278
    -2
288
     1
 68
     0
279
    -2
289
     1
 69
     0
  0
DICTIONARYVAR
  5
E0
102
{ACAD_REACTORS
330
DF
102
}
330
DF
100
DictionaryVariables
280
     0
  1
STANDARD
  0
DICTIONARYVAR
  5
E1
102
{ACAD_REACTORS
330
DF
102
}
330
DF
100
DictionaryVariables
280
     0
  1
1
  0
DICTIONARYVAR
  5
E2
102
{ACAD_REACTORS
330
DF
102
}
330
DF
100
DictionaryVariables
280
     0
  1

  0
DICTIONARY
  5
E7
330
21
100
AcDbDictionary
280
     1
281
     1
  3
ACAD_XREC_ROUNDTRIP
360
E8
  0
DICTIONARY
  5
E5
330
20
100
AcDbDictionary
280
     1
281
     1
  3
ACAD_XREC_ROUNDTRIP
360
E6
  0
XRECORD
  5
E8
102
{ACAD_REACTORS
330
E7
102
}
330
E7
100
AcDbXrecord
280
     1
102
SHADEPLOT
 70
     0
102
SHADEPLOTRESLEVEL
 70
     2
102
SHADEPLOTCUSTOMDPI
 70
   300
  0
XRECORD
  5
E6
102
{ACAD_REACTORS
330
E5
102
}
330
E5
100
AcDbXrecord
280
     1
102
SHADEPLOT
 70
     0
102
SHADEPLOTRESLEVEL
 70
     2
102
SHADEPLOTCUSTOMDPI
 70
   300
  0
ENDSEC
  0
EOF
