  0
SECTION
  2
HEADER
  9
$ACADVER
  1
AC1015
  9
$ACADMAINTVER
 70
    20
  9
$DWGCODEPAGE
  3
ANSI_932
  9
$INSBASE
 10
0.0
 20
0.0
 30
0.0
  9
$EXTMIN
 10
9.837987000000001
 20
14.792551
 30
0.0
  9
$EXTMAX
 10
214.95191
 20
289.978338
 30
0.0
  9
$LIMMIN
 10
9.837987
 20
14.792551
  9
$LIMMAX
 10
215.057674
 20
290.0841020000001
  9
$ORTHOMODE
 70
     1
  9
$REGENMODE
 70
     1
  9
$FILLMODE
 70
     1
  9
$QTEXTMODE
 70
     0
  9
$MIRRTEXT
 70
     1
  9
$LTSCALE
 40
1.0
  9
$ATTMODE
 70
     1
  9
$TEXTSIZE
 40
0.0
  9
$TRACEWID
 40
0.05
  9
$TEXTSTYLE
  7
STD
  9
$CLAYER
  8
0
  9
$CELTYPE
  6
Continuous
  9
$CECOLOR
 62
   256
  9
$CELTSCALE
 40
1.0
  9
$DISPSILH
 70
     0
  9
$DIMSCALE
 40
1.0
  9
$DIMASZ
 40
0.18
  9
$DIMEXO
 40
0.0625
  9
$DIMDLI
 40
0.38
  9
$DIMRND
 40
0.0
  9
$DIMDLE
 40
0.0
  9
$DIMEXE
 40
0.18
  9
$DIMTP
 40
0.0
  9
$DIMTM
 40
0.0
  9
$DIMTXT
 40
0.18
  9
$DIMCEN
 40
0.09
  9
$DIMTSZ
 40
0.0
  9
$DIMTOL
 70
     0
  9
$DIMLIM
 70
     0
  9
$DIMTIH
 70
     1
  9
$DIMTOH
 70
     1
  9
$DIMSE1
 70
     0
  9
$DIMSE2
 70
     0
  9
$DIMTAD
 70
     0
  9
$DIMZIN
 70
     0
  9
$DIMBLK
  1

  9
$DIMASO
 70
     1
  9
$DIMSHO
 70
     1
  9
$DIMPOST
  1

  9
$DIMAPOST
  1

  9
$DIMALT
 70
     0
  9
$DIMALTD
 70
     2
  9
$DIMALTF
 40
25.4
  9
$DIMLFAC
 40
1.0
  9
$DIMTOFL
 70
     0
  9
$DIMTVP
 40
0.0
  9
$DIMTIX
 70
     0
  9
$DIMSOXD
 70
     0
  9
$DIMSAH
 70
     0
  9
$DIMBLK1
  1

  9
$DIMBLK2
  1

  9
$DIMSTYLE
  2
Standard
  9
$DIMCLRD
 70
     0
  9
$DIMCLRE
 70
     0
  9
$DIMCLRT
 70
     0
  9
$DIMTFAC
 40
1.0
  9
$DIMGAP
 40
0.09
  9
$DIMJUST
 70
     0
  9
$DIMSD1
 70
     0
  9
$DIMSD2
 70
     0
  9
$DIMTOLJ
 70
     1
  9
$DIMTZIN
 70
     0
  9
$DIMALTZ
 70
     0
  9
$DIMALTTZ
 70
     0
  9
$DIMUPT
 70
     0
  9
$DIMDEC
 70
     4
  9
$DIMTDEC
 70
     4
  9
$DIMALTU
 70
     2
  9
$DIMALTTD
 70
     2
  9
$DIMTXSTY
  7
Standard
  9
$DIMAUNIT
 70
     0
  9
$DIMADEC
 70
     0
  9
$DIMALTRND
 40
0.0
  9
$DIMAZIN
 70
     0
  9
$DIMDSEP
 70
     0
  9
$DIMATFIT
 70
     3
  9
$DIMFRAC
 70
     0
  9
$DIMLDRBLK
  1

  9
$DIMLUNIT
 70
     2
  9
$DIMLWD
 70
     0
  9
$DIMLWE
 70
     0
  9
$DIMTMOVE
 70
     0
  9
$LUNITS
 70
     2
  9
$LUPREC
 70
     4
  9
$SKETCHINC
 40
0.1
  9
$FILLETRAD
 40
0.0
  9
$AUNITS
 70
     0
  9
$AUPREC
 70
     0
  9
$MENU
  1
acad
  9
$ELEVATION
 40
0.0
  9
$PELEVATION
 40
0.0
  9
$THICKNESS
 40
0.0
  9
$LIMCHECK
 70
     0
  9
$CHAMFERA
 40
0.0
  9
$CHAMFERB
 40
0.0
  9
$CHAMFERC
 40
0.0
  9
$CHAMFERD
 40
0.0
  9
$SKPOLY
 70
     0
  9
$TDCREATE
 40
2454670.420919225
  9
$TDUCREATE
 40
2454670.045919224
  9
$TDUPDATE
 40
2454897.545077037
  9
$TDUUPDATE
 40
2454897.170077037
  9
$TDINDWG
 40
0.0413096991
  9
$TDUSRTIMER
 40
0.0413080556
  9
$USRTIMER
 70
     1
  9
$ANGBASE
 50
0.0
  9
$ANGDIR
 70
     0
  9
$PDMODE
 70
     0
  9
$PDSIZE
 40
0.0
  9
$PLINEWID
 40
0.0
  9
$SPLFRAME
 70
     0
  9
$SPLINETYPE
 70
     6
  9
$SPLINESEGS
 70
     8
  9
$HANDSEED
  5
1D0
  9
$SURFTAB1
 70
     6
  9
$SURFTAB2
 70
     6
  9
$SURFTYPE
 70
     6
  9
$SURFU
 70
     6
  9
$SURFV
 70
     6
  9
$UCSBASE
  2

  9
$UCSNAME
  2

  9
$UCSORG
 10
0.0
 20
0.0
 30
0.0
  9
$UCSXDIR
 10
1.0
 20
0.0
 30
0.0
  9
$UCSYDIR
 10
0.0
 20
1.0
 30
0.0
  9
$UCSORTHOREF
  2

  9
$UCSORTHOVIEW
 70
     0
  9
$UCSORGTOP
 10
0.0
 20
0.0
 30
0.0
  9
$UCSORGBOTTOM
 10
0.0
 20
0.0
 30
0.0
  9
$UCSORGLEFT
 10
0.0
 20
0.0
 30
0.0
  9
$UCSORGRIGHT
 10
0.0
 20
0.0
 30
0.0
  9
$UCSORGFRONT
 10
0.0
 20
0.0
 30
0.0
  9
$UCSORGBACK
 10
0.0
 20
0.0
 30
0.0
  9
$PUCSBASE
  2

  9
$PUCSNAME
  2

  9
$PUCSORG
 10
0.0
 20
0.0
 30
0.0
  9
$PUCSXDIR
 10
1.0
 20
0.0
 30
0.0
  9
$PUCSYDIR
 10
0.0
 20
1.0
 30
0.0
  9
$PUCSORTHOREF
  2

  9
$PUCSORTHOVIEW
 70
     0
  9
$PUCSORGTOP
 10
0.0
 20
0.0
 30
0.0
  9
$PUCSORGBOTTOM
 10
0.0
 20
0.0
 30
0.0
  9
$PUCSORGLEFT
 10
0.0
 20
0.0
 30
0.0
  9
$PUCSORGRIGHT
 10
0.0
 20
0.0
 30
0.0
  9
$PUCSORGFRONT
 10
0.0
 20
0.0
 30
0.0
  9
$PUCSORGBACK
 10
0.0
 20
0.0
 30
0.0
  9
$USERI1
 70
     0
  9
$USERI2
 70
     0
  9
$USERI3
 70
     0
  9
$USERI4
 70
     0
  9
$USERI5
 70
     0
  9
$USERR1
 40
0.0
  9
$USERR2
 40
0.0
  9
$USERR3
 40
0.0
  9
$USERR4
 40
0.0
  9
$USERR5
 40
0.0
  9
$WORLDVIEW
 70
     1
  9
$SHADEDGE
 70
     3
  9
$SHADEDIF
 70
    70
  9
$TILEMODE
 70
     1
  9
$MAXACTVP
 70
    16
  9
$PINSBASE
 10
0.0
 20
0.0
 30
0.0
  9
$PLIMCHECK
 70
     0
  9
$PEXTMIN
 10
1.000000000000000E+20
 20
1.000000000000000E+20
 30
1.000000000000000E+20
  9
$PEXTMAX
 10
-1.000000000000000E+20
 20
-1.000000000000000E+20
 30
-1.000000000000000E+20
  9
$PLIMMIN
 10
0.0
 20
0.0
  9
$PLIMMAX
 10
12.0
 20
9.0
  9
$UNITMODE
 70
     0
  9
$VISRETAIN
 70
     0
  9
$PLINEGEN
 70
     1
  9
$PSLTSCALE
 70
     0
  9
$TREEDEPTH
 70
  3020
  9
$CMLSTYLE
  2
Standard
  9
$CMLJUST
 70
     0
  9
$CMLSCALE
 40
1.0
  9
$PROXYGRAPHICS
 70
     0
  9
$MEASUREMENT
 70
     0
  9
$CELWEIGHT
370
     0
  9
$ENDCAPS
280
     0
  9
$JOINSTYLE
280
     0
  9
$LWDISPLAY
290
     0
  9
$INSUNITS
 70
     0
  9
$HYPERLINKBASE
  1

  9
$STYLESHEET
  1

  9
$XEDIT
290
     1
  9
$CEPSNTYPE
380
     0
  9
$PSTYLEMODE
290
     1
  9
$FINGERPRINTGUID
  2

  9
$VERSIONGUID
  2
{2BD03702-DCD4-43AF-8F82-6D9DA8853678}
  9
$EXTNAMES
290
     1
  9
$PSVPSCALE
 40
0.0
  9
$OLESTARTUP
290
     0
  0
ENDSEC
  0
SECTION
  2
CLASSES
  0
CLASS
  1
IMAGE
  2
AcDbRasterImage
  3
ISM
 90
    32895
280
     0
281
     1
  0
CLASS
  1
DICTIONARYVAR
  2
AcDbDictionaryVar
  3
ObjectDBX Classes
 90
        0
280
     0
281
     0
  0
CLASS
  1
RASTERVARIABLES
  2
AcDbRasterVariables
  3
ISM
 90
    32768
280
     0
281
     0
  0
CLASS
  1
IMAGEDEF
  2
AcDbRasterImageDef
  3
ISM
 90
    32768
280
     0
281
     0
  0
CLASS
  1
IMAGEDEF_REACTOR
  2
AcDbRasterImageDefReactor
  3
ISM
 90
    32769
280
     0
281
     0
  0
CLASS
  1
IDBUFFER
  2
AcDbIdBuffer
  3
ObjectDBX Classes
 90
    32768
280
     0
281
     0
  0
CLASS
  1
SPATIAL_FILTER
  2
AcDbSpatialFilter
  3
ObjectDBX Classes
 90
    32768
280
     0
281
     0
  0
CLASS
  1
SORTENTSTABLE
  2
AcDbSortentsTable
  3
ObjectDBX Classes
 90
        0
280
     0
281
     0
  0
CLASS
  1
LAYER_INDEX
  2
AcDbLayerIndex
  3
ObjectDBX Classes
 90
    32768
280
     0
281
     0
  0
CLASS
  1
SPATIAL_INDEX
  2
AcDbSpatialIndex
  3
ObjectDBX Classes
 90
    32768
280
     0
281
     0
  0
CLASS
  1
OBJECT_PTR
  2
CAseDLPNTableRecord
  3
"ASE-LPNTableRecord"
 90
    32769
280
     0
281
     0
  0
CLASS
  1
LAYOUT
  2
AcDbLayout
  3
ObjectDBX Classes
 90
        0
280
     0
281
     0
  0
CLASS
  1
PLOTSETTINGS
  2
AcDbPlotSettings
  3
ObjectDBX Classes
 90
    32768
280
     0
281
     0
  0
CLASS
  1
ACDBDICTIONARYWDFLT
  2
AcDbDictionaryWithDefault
  3
ObjectDBX Classes
 90
        0
280
     0
281
     0
  0
CLASS
  1
ACDBPLACEHOLDER
  2
AcDbPlaceHolder
  3
ObjectDBX Classes
 90
        0
280
     0
281
     0
  0
CLASS
  1
VBA_PROJECT
  2
AcDbVbaProject
  3
acad
 90
    32768
280
     0
281
     0
  0
CLASS
  1
WIPEOUT
  2
AcDbWipeout
  3
"WipeOut|Product Desc: Object Enabler for WipeOut entity^I^I^I^I^I^I|Company: Autodesk, Inc.^I^I^I^I^I^I|WEB Address: www.autodesk.com"
 90
    32895
280
     0
281
     1
  0
CLASS
  1
WIPEOUTVARIABLES
  2
AcDbWipeoutVariables
  3
"WipeOut|Product Desc:     WipeOut Dbx Application|Company:          Autodesk, Inc.|WEB Address:      www.autodesk.com"
 90
        0
280
     0
281
     0
  0
CLASS
  1
RTEXT
  2
RText
  3
RText|AutoCAD Express Tool|expresstools@autodesk.com
 90
    32768
280
     0
281
     1
  0
CLASS
  1
ARCALIGNEDTEXT
  2
AcDbArcAlignedText
  3
ATEXT|AutoCAD Express Tool|expresstools@autodesk.com
 90
    32768
280
     0
281
     1
  0
CLASS
  1
TABLESTYLE
  2
AcDbTableStyle
  3
ObjectDBX Classes
 90
     2047
280
     0
281
     0
  0
ENDSEC
  0
SECTION
  2
TABLES
  0
TABLE
  2
VPORT
  5
7
330
0
100
AcDbSymbolTable
 70
     2
  0
VPORT
  5
1CA
330
7
100
AcDbSymbolTableRecord
100
AcDbViewportTableRecord
  2
*Active
 70
     0
 10
0.0
 20
0.0
 11
1.0
 21
1.0
 12
200.4141932132912
 22
152.3837195538192
 13
0.0
 23
0.0
 14
1.0
 24
1.0
 15
0.0
 25
0.0
 16
0.0
 26
0.0
 36
1.0
 17
0.0
 27
0.0
 37
0.0
 40
278.3562809837655
 41
1.60482374768089
 42
50.0
 43
0.0
 44
0.0
 50
0.0
 51
0.0
 71
     0
 72
   100
 73
     1
 74
     1
 75
     0
 76
     0
 77
     0
 78
     0
281
     0
 65
     0
110
0.0
120
0.0
130
0.0
111
1.0
121
0.0
131
0.0
112
0.0
122
1.0
132
0.0
 79
     0
146
0.0
  0
ENDTAB
  0
TABLE
  2
LTYPE
  5
4
330
0
100
AcDbSymbolTable
 70
     1
  0
LTYPE
  5
11
330
4
100
AcDbSymbolTableRecord
100
AcDbLinetypeTableRecord
  2
ByBlock
 70
     0
  3

 72
    65
 73
     0
 40
0.0
  0
LTYPE
  5
12
330
4
100
AcDbSymbolTableRecord
100
AcDbLinetypeTableRecord
  2
ByLayer
 70
     0
  3

 72
    65
 73
     0
 40
0.0
  0
LTYPE
  5
13
330
4
100
AcDbSymbolTableRecord
100
AcDbLinetypeTableRecord
  2
Continuous
 70
     0
  3
Solid line
 72
    65
 73
     0
 40
0.0
  0
ENDTAB
  0
TABLE
  2
LAYER
  5
2
330
0
100
AcDbSymbolTable
 70
    10
  0
LAYER
  5
14
330
2
100
AcDbSymbolTableRecord
100
AcDbLayerTableRecord
  2
0
 70
     0
 62
     7
  6
Continuous
370
    -3
390
1D
  0
LAYER
  5
28
330
2
100
AcDbSymbolTableRecord
100
AcDbLayerTableRecord
  2
レイヤー_5
 70
     0
 62
     2
  6
Continuous
370
    -3
390
1F
  0
LAYER
  5
2B
330
2
100
AcDbSymbolTableRecord
100
AcDbLayerTableRecord
  2
1
 70
     0
 62
     6
  6
Continuous
370
    -3
390
1F
  0
LAYER
  5
2D
330
2
100
AcDbSymbolTableRecord
100
AcDbLayerTableRecord
  2
2
 70
     0
 62
   160
  6
Continuous
370
    -3
390
1F
  0
LAYER
  5
2F
330
2
100
AcDbSymbolTableRecord
100
AcDbLayerTableRecord
  2
3
 70
     0
 62
   160
  6
Continuous
370
    -3
390
1F
  0
LAYER
  5
31
330
2
100
AcDbSymbolTableRecord
100
AcDbLayerTableRecord
  2
4
 70
     0
 62
   160
  6
Continuous
370
    -3
390
1F
  0
LAYER
  5
33
330
2
100
AcDbSymbolTableRecord
100
AcDbLayerTableRecord
  2
5
 70
     0
 62
   160
  6
Continuous
370
    -3
390
1F
  0
LAYER
  5
35
330
2
100
AcDbSymbolTableRecord
100
AcDbLayerTableRecord
  2
6
 70
     0
 62
   160
  6
Continuous
370
    -3
390
1F
  0
LAYER
  5
37
330
2
100
AcDbSymbolTableRecord
100
AcDbLayerTableRecord
  2
VPORT-BORDERS
 70
     0
 62
     5
  6
Continuous
370
    -3
390
1F
  0
LAYER
  5
111
330
2
100
AcDbSymbolTableRecord
100
AcDbLayerTableRecord
  2
Defpoints
 70
     0
 62
     7
  6
Continuous
290
     0
370
    -3
390
1D
  0
ENDTAB
  0
TABLE
  2
STYLE
  5
3
330
0
100
AcDbSymbolTable
 70
     2
  0
STYLE
  5
17
330
3
100
AcDbSymbolTableRecord
100
AcDbTextStyleTableRecord
  2
Standard
 70
     0
 40
0.0
 41
1.0
 50
0.0
 71
     0
 42
0.0
  3
txt
  4

  0
STYLE
  5
24
330
3
100
AcDbSymbolTableRecord
100
AcDbTextStyleTableRecord
  2
STD
 70
     0
 40
0.0
 41
0.8
 50
0.0
 71
     0
 42
0.0
  3
romans.shx
  4
bigfont.shx
  0
ENDTAB
  0
TABLE
  2
VIEW
  5
5
330
0
100
AcDbSymbolTable
 70
     0
  0
ENDTAB
  0
TABLE
  2
UCS
  5
6
330
0
100
AcDbSymbolTable
 70
     0
  0
ENDTAB
  0
TABLE
  2
APPID
  5
8
330
0
100
AcDbSymbolTable
 70
     6
  0
APPID
  5
16
330
8
100
AcDbSymbolTableRecord
100
AcDbRegAppTableRecord
  2
ACAD
 70
     0
  0
APPID
  5
14A
330
8
100
AcDbSymbolTableRecord
100
AcDbRegAppTableRecord
  2
ACAD_DSTYLE_DIMEXT_LENGTH
 70
     0
  0
APPID
  5
14B
330
8
100
AcDbSymbolTableRecord
100
AcDbRegAppTableRecord
  2
ACAD_DSTYLE_DIMEXT_ENABLED
 70
     0
  0
APPID
  5
14C
330
8
100
AcDbSymbolTableRecord
100
AcDbRegAppTableRecord
  2
ACAD_DSTYLE_DIMARC_LENGTH_SYMBOL
 70
     0
  0
APPID
  5
14D
330
8
100
AcDbSymbolTableRecord
100
AcDbRegAppTableRecord
  2
ACAD_DSTYLE_DIMJOGGED_JOGANGLE_SYMBOL
 70
     0
  0
APPID
  5
1A3
330
8
100
AcDbSymbolTableRecord
100
AcDbRegAppTableRecord
  2
ACAD_PSEXT
 70
     0
  0
ENDTAB
  0
TABLE
  2
DIMSTYLE
  5
9
330
0
100
AcDbSymbolTable
 70
     2
100
AcDbDimStyleTable
 71
     1
340
18
  0
DIMSTYLE
105
18
330
9
100
AcDbSymbolTableRecord
100
AcDbDimStyleTableRecord
  2
Standard
 70
     0
340
17
  0
ENDTAB
  0
TABLE
  2
BLOCK_RECORD
  5
1
330
0
100
AcDbSymbolTable
 70
     5
  0
BLOCK_RECORD
  5
A
102
{ACAD_XDICTIONARY
360
D5
102
}
330
1
100
AcDbSymbolTableRecord
100
AcDbBlockTableRecord
  2
*MODEL_SPACE
340
20
  0
BLOCK_RECORD
  5
B
330
1
100
AcDbSymbolTableRecord
100
AcDbBlockTableRecord
  2
*PAPER_SPACE
340
21
  0
BLOCK_RECORD
  5
112
330
1
100
AcDbSymbolTableRecord
100
AcDbBlockTableRecord
  2
*D0
340
0
  0
BLOCK_RECORD
  5
120
330
1
100
AcDbSymbolTableRecord
100
AcDbBlockTableRecord
  2
*D1
340
0
  0
BLOCK_RECORD
  5
12E
330
1
100
AcDbSymbolTableRecord
100
AcDbBlockTableRecord
  2
*D2
340
0
  0
BLOCK_RECORD
  5
13C
330
1
100
AcDbSymbolTableRecord
100
AcDbBlockTableRecord
  2
*D3
340
0
  0
BLOCK_RECORD
  5
18B
330
1
100
AcDbSymbolTableRecord
100
AcDbBlockTableRecord
  2
*D4
340
0
  0
ENDTAB
  0
ENDSEC
  0
SECTION
  2
BLOCKS
  0
BLOCK
  5
D
330
A
100
AcDbEntity
  8
0
100
AcDbBlockBegin
  2
*MODEL_SPACE
 70
     0
 10
0.0
 20
0.0
 30
0.0
  3
*MODEL_SPACE
  1

  0
ENDBLK
  5
E
330
A
100
AcDbEntity
  8
0
100
AcDbBlockEnd
  0
BLOCK
  5
F
330
B
100
AcDbEntity
 67
     1
  8
0
100
AcDbBlockBegin
  2
*PAPER_SPACE
 70
     0
 10
0.0
 20
0.0
 30
0.0
  3
*PAPER_SPACE
  1

  0
ENDBLK
  5
10
330
B
100
AcDbEntity
 67
     1
  8
0
100
AcDbBlockEnd
  0
BLOCK
  5
11D
330
112
100
AcDbEntity
  8
0
370
     0
100
AcDbBlockBegin
  2
*D0
 70
     1
 10
0.0
 20
0.0
 30
0.0
  3
*D0
  1

  0
LINE
  5
16D
330
112
100
AcDbEntity
  8
0
  6
Continuous
 62
     0
370
     0
100
AcDbLine
 10
97.30939800000001
 20
110.9190229309967
 30
0.0
 11
97.30939800000001
 21
60.20901493128174
 31
0.0
  0
LINE
  5
16E
330
112
100
AcDbEntity
  8
0
  6
Continuous
 62
     0
370
     0
100
AcDbLine
 10
33.70939799999999
 20
110.9190229309967
 30
0.0
 11
33.70939799999999
 21
60.20901493128174
 31
0.0
  0
LINE
  5
16F
330
112
100
AcDbEntity
  8
0
  6
Continuous
 62
     0
370
     0
100
AcDbLine
 10
95.309398
 20
60.38901493128173
 30
0.0
 11
35.709398
 21
60.38901493128173
 31
0.0
  0
SOLID
  5
170
330
112
100
AcDbEntity
  8
0
  6
Continuous
 62
     0
370
     0
100
AcDbTrace
 10
95.309398
 20
60.72234826461507
 30
0.0
 11
95.309398
 21
60.0556815979484
 31
0.0
 12
97.30939800000001
 22
60.38901493128173
 32
0.0
 13
97.30939800000001
 23
60.38901493128173
 33
0.0
  0
SOLID
  5
171
330
112
100
AcDbEntity
  8
0
  6
Continuous
 62
     0
370
     0
100
AcDbTrace
 10
35.709398
 20
60.72234826461507
 30
0.0
 11
35.709398
 21
60.0556815979484
 31
0.0
 12
33.70939799999999
 22
60.38901493128173
 32
0.0
 13
33.70939799999999
 23
60.38901493128173
 33
0.0
  0
MTEXT
  5
172
330
112
100
AcDbEntity
  8
0
  6
Continuous
 62
     0
370
     0
100
AcDbMText
 10
65.509398
 20
62.38901493128174
 30
0.0
 40
2.0
 41
0.0
 71
     5
 72
     1
  1
\A1;63.6000
 73
     1
 44
1.0
1001
ACAD
1000
MTEXTBEGIN
1070
    73
1070
     1
1070
    44
1040
1.0
1070
    74
1070
     0
1000
MTEXTEND
  0
POINT
  5
173
330
112
100
AcDbEntity
  8
Defpoints
  6
Continuous
 62
     0
370
     0
100
AcDbPoint
 10
97.30939800000001
 20
110.9815229309967
 30
0.0
  0
POINT
  5
174
330
112
100
AcDbEntity
  8
Defpoints
  6
Continuous
 62
     0
370
     0
100
AcDbPoint
 10
33.70939799999999
 20
110.9815229309967
 30
0.0
  0
POINT
  5
175
330
112
100
AcDbEntity
  8
Defpoints
  6
Continuous
 62
     0
370
     0
100
AcDbPoint
 10
33.70939799999999
 20
60.38901493128173
 30
0.0
  0
ENDBLK
  5
11E
330
112
100
AcDbEntity
  8
0
370
     0
100
AcDbBlockEnd
  0
BLOCK
  5
12B
330
120
100
AcDbEntity
  8
0
370
     0
100
AcDbBlockBegin
  2
*D1
 70
     1
 10
0.0
 20
0.0
 30
0.0
  3
*D1
  1

  0
LINE
  5
164
330
120
100
AcDbEntity
  8
0
  6
Continuous
 62
     0
370
     0
100
AcDbLine
 10
110.309398
 20
72.91599121093748
 30
0.0
 11
110.309398
 21
50.94088526555612
 31
0.0
  0
LINE
  5
165
330
120
100
AcDbEntity
  8
0
  6
Continuous
 62
     0
370
     0
100
AcDbLine
 10
33.70939799999999
 20
72.91599121093748
 30
0.0
 11
33.70939799999999
 21
50.94088526555612
 31
0.0
  0
LINE
  5
166
330
120
100
AcDbEntity
  8
0
  6
Continuous
 62
     0
370
     0
100
AcDbLine
 10
108.309398
 20
51.12088526555613
 30
0.0
 11
35.709398
 21
51.12088526555613
 31
0.0
  0
SOLID
  5
167
330
120
100
AcDbEntity
  8
0
  6
Continuous
 62
     0
370
     0
100
AcDbTrace
 10
108.309398
 20
51.45421859888947
 30
0.0
 11
108.309398
 21
50.78755193222278
 31
0.0
 12
110.309398
 22
51.12088526555613
 32
0.0
 13
110.309398
 23
51.12088526555613
 33
0.0
  0
SOLID
  5
168
330
120
100
AcDbEntity
  8
0
  6
Continuous
 62
     0
370
     0
100
AcDbTrace
 10
35.709398
 20
51.45421859888947
 30
0.0
 11
35.709398
 21
50.78755193222278
 31
0.0
 12
33.70939799999999
 22
51.12088526555613
 32
0.0
 13
33.70939799999999
 23
51.12088526555613
 33
0.0
  0
MTEXT
  5
169
330
120
100
AcDbEntity
  8
0
  6
Continuous
 62
     0
370
     0
100
AcDbMText
 10
72.00939799999997
 20
53.12088526555612
 30
0.0
 40
2.0
 41
0.0
 71
     5
 72
     1
  1
\A1;76.6000
 73
     1
 44
1.0
1001
ACAD
1000
MTEXTBEGIN
1070
    73
1070
     1
1070
    44
1040
1.0
1070
    74
1070
     0
1000
MTEXTEND
  0
POINT
  5
16A
330
120
100
AcDbEntity
  8
Defpoints
  6
Continuous
 62
     0
370
     0
100
AcDbPoint
 10
110.309398
 20
72.97849121093747
 30
0.0
  0
POINT
  5
16B
330
120
100
AcDbEntity
  8
Defpoints
  6
Continuous
 62
     0
370
     0
100
AcDbPoint
 10
33.70939799999999
 20
72.97849121093747
 30
0.0
  0
POINT
  5
16C
330
120
100
AcDbEntity
  8
Defpoints
  6
Continuous
 62
     0
370
     0
100
AcDbPoint
 10
33.70939799999999
 20
51.12088526555613
 30
0.0
  0
ENDBLK
  5
12C
330
120
100
AcDbEntity
  8
0
370
     0
100
AcDbBlockEnd
  0
BLOCK
  5
139
330
12E
100
AcDbEntity
  8
0
370
     0
100
AcDbBlockBegin
  2
*D2
 70
     1
 10
0.0
 20
0.0
 30
0.0
  3
*D2
  1

  0
LINE
  5
15B
330
12E
100
AcDbEntity
  8
0
  6
Continuous
 62
     0
370
     0
100
AcDbLine
 10
123.0608778211805
 20
95.84245327140431
 30
0.0
 11
123.0608778211805
 21
42.10181223885951
 31
0.0
  0
LINE
  5
15C
330
12E
100
AcDbEntity
  8
0
  6
Continuous
 62
     0
370
     0
100
AcDbLine
 10
33.70939799999999
 20
95.84245327140427
 30
0.0
 11
33.70939799999999
 21
42.10181223885951
 31
0.0
  0
LINE
  5
15D
330
12E
100
AcDbEntity
  8
0
  6
Continuous
 62
     0
370
     0
100
AcDbLine
 10
121.0608778211805
 20
42.2818122388595
 30
0.0
 11
35.709398
 21
42.2818122388595
 31
0.0
  0
SOLID
  5
15E
330
12E
100
AcDbEntity
  8
0
  6
Continuous
 62
     0
370
     0
100
AcDbTrace
 10
121.0608778211805
 20
42.61514557219284
 30
0.0
 11
121.0608778211805
 21
41.94847890552618
 31
0.0
 12
123.0608778211805
 22
42.2818122388595
 32
0.0
 13
123.0608778211805
 23
42.2818122388595
 33
0.0
  0
SOLID
  5
15F
330
12E
100
AcDbEntity
  8
0
  6
Continuous
 62
     0
370
     0
100
AcDbTrace
 10
35.709398
 20
42.61514557219284
 30
0.0
 11
35.709398
 21
41.94847890552618
 31
0.0
 12
33.70939799999999
 22
42.2818122388595
 32
0.0
 13
33.70939799999999
 23
42.2818122388595
 33
0.0
  0
MTEXT
  5
160
330
12E
100
AcDbEntity
  8
0
  6
Continuous
 62
     0
370
     0
100
AcDbMText
 10
78.38513791059025
 20
44.28181223885951
 30
0.0
 40
2.0
 41
0.0
 71
     5
 72
     1
  1
\A1;89.3515
 73
     1
 44
1.0
1001
ACAD
1000
MTEXTBEGIN
1070
    73
1070
     1
1070
    44
1040
1.0
1070
    74
1070
     0
1000
MTEXTEND
  0
POINT
  5
161
330
12E
100
AcDbEntity
  8
Defpoints
  6
Continuous
 62
     0
370
     0
100
AcDbPoint
 10
123.0608778211805
 20
95.9049532714043
 30
0.0
  0
POINT
  5
162
330
12E
100
AcDbEntity
  8
Defpoints
  6
Continuous
 62
     0
370
     0
100
AcDbPoint
 10
33.70939799999999
 20
95.90495327140429
 30
0.0
  0
POINT
  5
163
330
12E
100
AcDbEntity
  8
Defpoints
  6
Continuous
 62
     0
370
     0
100
AcDbPoint
 10
33.70939799999999
 20
42.2818122388595
 30
0.0
  0
ENDBLK
  5
13A
330
12E
100
AcDbEntity
  8
0
370
     0
100
AcDbBlockEnd
  0
BLOCK
  5
147
330
13C
100
AcDbEntity
  8
0
370
     0
100
AcDbBlockBegin
  2
*D3
 70
     1
 10
0.0
 20
0.0
 30
0.0
  3
*D3
  1

  0
LINE
  5
177
330
13C
100
AcDbEntity
  8
0
  6
Continuous
 62
     0
370
     0
100
AcDbLine
 10
129.709398
 20
51.2160047581516
 30
0.0
 11
129.709398
 21
33.81518090172899
 31
0.0
  0
LINE
  5
178
330
13C
100
AcDbEntity
  8
0
  6
Continuous
 62
     0
370
     0
100
AcDbLine
 10
33.709398
 20
51.2160047581516
 30
0.0
 11
33.709398
 21
33.81518090172899
 31
0.0
  0
LINE
  5
179
330
13C
100
AcDbEntity
  8
0
  6
Continuous
 62
     0
370
     0
100
AcDbLine
 10
127.709398
 20
33.99518090172899
 30
0.0
 11
35.709398
 21
33.99518090172899
 31
0.0
  0
SOLID
  5
17A
330
13C
100
AcDbEntity
  8
0
  6
Continuous
 62
     0
370
     0
100
AcDbTrace
 10
127.709398
 20
34.32851423506232
 30
0.0
 11
127.709398
 21
33.66184756839565
 31
0.0
 12
129.709398
 22
33.99518090172899
 32
0.0
 13
129.709398
 23
33.99518090172899
 33
0.0
  0
SOLID
  5
17B
330
13C
100
AcDbEntity
  8
0
  6
Continuous
 62
     0
370
     0
100
AcDbTrace
 10
35.709398
 20
34.32851423506232
 30
0.0
 11
35.709398
 21
33.66184756839565
 31
0.0
 12
33.709398
 22
33.99518090172899
 32
0.0
 13
33.709398
 23
33.99518090172899
 33
0.0
  0
MTEXT
  5
17C
330
13C
100
AcDbEntity
  8
0
  6
Continuous
 62
     0
370
     0
100
AcDbMText
 10
81.70939799999997
 20
35.995180901729
 30
0.0
 40
2.0
 41
0.0
 71
     5
 72
     1
  1
\A1;96.0000
 73
     1
 44
1.0
1001
ACAD
1000
MTEXTBEGIN
1070
    73
1070
     1
1070
    44
1040
1.0
1070
    74
1070
     0
1000
MTEXTEND
  0
POINT
  5
17D
330
13C
100
AcDbEntity
  8
Defpoints
  6
Continuous
 62
     0
370
     0
100
AcDbPoint
 10
129.709398
 20
51.27850475815161
 30
0.0
  0
POINT
  5
17E
330
13C
100
AcDbEntity
  8
Defpoints
  6
Continuous
 62
     0
370
     0
100
AcDbPoint
 10
33.709398
 20
51.27850475815161
 30
0.0
  0
POINT
  5
17F
330
13C
100
AcDbEntity
  8
Defpoints
  6
Continuous
 62
     0
370
     0
100
AcDbPoint
 10
33.709398
 20
33.99518090172899
 30
0.0
  0
ENDBLK
  5
148
330
13C
100
AcDbEntity
  8
0
370
     0
100
AcDbBlockEnd
  0
BLOCK
  5
196
330
18B
100
AcDbEntity
  8
0
370
     0
100
AcDbBlockBegin
  2
*D4
 70
     1
 10
0.0
 20
0.0
 30
0.0
  3
*D4
  1

  0
LINE
  5
1AD
330
18B
100
AcDbEntity
  8
0
  6
Continuous
 62
     0
370
     0
100
AcDbLine
 10
119.209398
 20
97.35874925039901
 30
0.0
 11
119.209398
 21
41.98142400777585
 31
0.0
  0
LINE
  5
1AE
330
18B
100
AcDbEntity
  8
0
  6
Continuous
 62
     0
370
     0
100
AcDbLine
 10
33.70939799999999
 20
97.35874925039901
 30
0.0
 11
33.70939799999999
 21
41.98142400777585
 31
0.0
  0
LINE
  5
1AF
330
18B
100
AcDbEntity
  8
0
  6
Continuous
 62
     0
370
     0
100
AcDbLine
 10
117.209398
 20
42.16142400777584
 30
0.0
 11
35.709398
 21
42.16142400777584
 31
0.0
  0
SOLID
  5
1B0
330
18B
100
AcDbEntity
  8
0
  6
Continuous
 62
     0
370
     0
100
AcDbTrace
 10
117.209398
 20
42.49475734110919
 30
0.0
 11
117.209398
 21
41.8280906744425
 31
0.0
 12
119.209398
 22
42.16142400777584
 32
0.0
 13
119.209398
 23
42.16142400777584
 33
0.0
  0
SOLID
  5
1B1
330
18B
100
AcDbEntity
  8
0
  6
Continuous
 62
     0
370
     0
100
AcDbTrace
 10
35.709398
 20
42.49475734110919
 30
0.0
 11
35.709398
 21
41.8280906744425
 31
0.0
 12
33.70939799999999
 22
42.16142400777584
 32
0.0
 13
33.70939799999999
 23
42.16142400777584
 33
0.0
  0
MTEXT
  5
1B2
330
18B
100
AcDbEntity
  8
0
  6
Continuous
 62
     0
370
     0
100
AcDbMText
 10
76.45939799999998
 20
44.16142400777585
 30
0.0
 40
2.0
 41
0.0
 71
     5
 72
     1
  1
\A1;85.5000
 73
     1
 44
1.0
1001
ACAD
1000
MTEXTBEGIN
1070
    73
1070
     1
1070
    44
1040
1.0
1070
    74
1070
     0
1000
MTEXTEND
  0
POINT
  5
1B3
330
18B
100
AcDbEntity
  8
Defpoints
  6
Continuous
 62
     0
370
     0
100
AcDbPoint
 10
119.209398
 20
97.42124925039901
 30
0.0
  0
POINT
  5
1B4
330
18B
100
AcDbEntity
  8
Defpoints
  6
Continuous
 62
     0
370
     0
100
AcDbPoint
 10
33.70939799999999
 20
97.42124925039901
 30
0.0
  0
POINT
  5
1B5
330
18B
100
AcDbEntity
  8
Defpoints
  6
Continuous
 62
     0
370
     0
100
AcDbPoint
 10
33.70939799999999
 20
42.16142400777584
 30
0.0
  0
ENDBLK
  5
197
330
18B
100
AcDbEntity
  8
0
370
     0
100
AcDbBlockEnd
  0
ENDSEC
  0
SECTION
  2
ENTITIES
  0
MTEXT
  5
3F
330
A
100
AcDbEntity
  8
VPORT-BORDERS
 62
     7
100
AcDbMText
 10
32.265316
 20
14.792551
 30
0.0
 40
2.444193999999999
 41
0.0
 71
     1
 72
     2
  1
\fOsaka|b0|i0|c128;220V
  7
STD
 11
0.0
 21
1.0
 31
0.0
 73
     1
 44
1.0
1001
ACAD
1000
MTEXTBEGIN
1070
    73
1070
     1
1070
    44
1040
1.0
1070
    74
1070
     0
1000
MTEXTEND
  0
MTEXT
  5
3E
330
A
100
AcDbEntity
  8
VPORT-BORDERS
 62
     7
100
AcDbMText
 10
19.16534
 20
14.792551
 30
0.0
 40
2.444193999999999
 41
0.0
 71
     1
 72
     2
  1
\fOsaka|b0|i0|c128;440V
  7
STD
 11
0.0
 21
1.0
 31
0.0
 73
     1
 44
1.0
1001
ACAD
1000
MTEXTBEGIN
1070
    73
1070
     1
1070
    44
1040
1.0
1070
    74
1070
     0
1000
MTEXTEND
  0
MTEXT
  5
3D
330
A
100
AcDbEntity
  8
VPORT-BORDERS
 62
     7
100
AcDbMText
 10
45.84725999999998
 20
14.792551
 30
0.0
 40
2.444193999999999
 41
0.0
 71
     1
 72
     2
  1
\fOsaka|b0|i0|c128;110V
  7
STD
 11
0.0
 21
1.0
 31
0.0
 73
     1
 44
1.0
1001
ACAD
1000
MTEXTBEGIN
1070
    73
1070
     1
1070
    44
1040
1.0
1070
    74
1070
     0
1000
MTEXTEND
  0
LINE
  5
3C
330
A
100
AcDbEntity
  8
VPORT-BORDERS
 62
     7
100
AcDbLine
 10
33.709398
 20
289.978338
 30
0.0
 11
33.709398
 21
29.577867
 31
0.0
  0
LINE
  5
3B
330
A
100
AcDbEntity
  8
VPORT-BORDERS
 62
     7
100
AcDbLine
 10
46.809374
 20
289.978338
 30
0.0
 11
46.809374
 21
29.577867
 31
0.0
  0
LINE
  5
3A
330
A
100
AcDbEntity
  8
VPORT-BORDERS
 62
     7
100
AcDbLine
 10
20.609422
 20
289.978338
 30
0.0
 11
20.609422
 21
29.577867
 31
0.0
  0
LINE
  5
39
330
A
100
AcDbEntity
  8
VPORT-BORDERS
 62
     7
100
AcDbLine
 10
214.95191
 20
29.577867
 30
0.0
 11
20.609422
 21
29.577867
 31
0.0
  0
MTEXT
  5
38
330
A
100
AcDbEntity
  8
VPORT-BORDERS
 62
     7
100
AcDbMText
 10
9.837987
 20
31.01816
 30
0.0
 40
2.444193999999999
 41
0.0
 71
     1
 72
     2
  1
\W1.02;\fOsaka|b0|i0|c128;0.01S
  7
STD
 73
     1
 44
1.0
1001
ACAD
1000
MTEXTBEGIN
1070
    73
1070
     1
1070
    44
1040
1.0
1070
    74
1070
     0
1000
MTEXTEND
  0
SPLINE
  5
36
330
A
100
AcDbEntity
  8
6
 62
     7
100
AcDbSpline
210
0.0
220
0.0
230
1.0
 70
     8
 71
     3
 72
    32
 73
    28
 74
     0
 42
0.0000000001
 43
0.0000000001
 40
0.0
 40
0.0
 40
0.0
 40
0.0
 40
1.0
 40
1.0
 40
1.0
 40
2.0
 40
2.0
 40
2.0
 40
3.0
 40
3.0
 40
3.0
 40
4.0
 40
4.0
 40
4.0
 40
5.0
 40
5.0
 40
5.0
 40
6.0
 40
6.0
 40
6.0
 40
7.0
 40
7.0
 40
7.0
 40
8.0
 40
8.0
 40
8.0
 40
9.0
 40
9.0
 40
9.0
 40
9.0
 10
82.17293429904513
 20
289.9783379448784
 30
0.0
 10
82.17293429904513
 20
289.9783379448784
 30
0.0
 10
82.17293429904513
 20
270.558851453993
 30
0.0
 10
82.17293429904513
 20
270.558851453993
 30
0.0
 10
82.17293429904513
 20
249.5580661349826
 30
0.0
 10
86.1471964518229
 20
231.6013671875
 30
0.0
 10
93.30972222222222
 20
215.2433648003472
 30
0.0
 10
96.33107096354166
 20
208.3419772677951
 30
0.0
 10
98.95416666666664
 20
202.6658379448785
 30
0.0
 10
102.0091050889757
 20
195.4347547743055
 30
0.0
 10
106.1912787543403
 20
185.5347561306423
 30
0.0
 10
110.2695827907986
 20
175.9933919270833
 30
0.0
 10
113.8755642361111
 20
168.6403523763021
 30
0.0
 10
117.5721516927083
 20
161.1030002170139
 30
0.0
 10
118.709398
 20
158.8010725638929
 30
0.0
 10
119.209398
 20
157.9197526800758
 30
0.0
 10
119.209398
 20
157.9197526800758
 30
0.0
 10
119.209398
 20
86.0429823133683
 30
0.0
 10
119.209398
 20
86.0429823133683
 30
0.0
 10
119.209398
 20
86.0429823133683
 30
0.0
 10
129.709398
 20
86.04298231336803
 30
0.0
 10
129.709398
 20
86.04298231336803
 30
0.0
 10
129.709398
 20
86.04298231336803
 30
0.0
 10
129.709398
 20
29.57786729600696
 30
0.0
 10
129.709398
 20
29.57786729600696
 30
0.0
 10
129.709398
 20
29.57786729600696
 30
0.0
 10
172.5644883897569
 20
29.57786729600695
 30
0.0
 10
172.5644883897569
 20
29.57786729600695
 30
0.0
  0
SPLINE
  5
34
330
A
100
AcDbEntity
  8
5
 62
     7
100
AcDbSpline
210
0.0
220
0.0
230
1.0
 70
     8
 71
     3
 72
    32
 73
    28
 74
     0
 42
0.0000000001
 43
0.0000000001
 40
0.0
 40
0.0
 40
0.0
 40
0.0
 40
1.0
 40
1.0
 40
1.0
 40
2.0
 40
2.0
 40
2.0
 40
3.0
 40
3.0
 40
3.0
 40
4.0
 40
4.0
 40
4.0
 40
5.0
 40
5.0
 40
5.0
 40
6.0
 40
6.0
 40
6.0
 40
7.0
 40
7.0
 40
7.0
 40
8.0
 40
8.0
 40
8.0
 40
9.0
 40
9.0
 40
9.0
 40
9.0
 10
82.25337727864584
 20
289.9783379448784
 30
0.0
 10
82.25337727864584
 20
262.7865437825521
 30
0.0
 10
82.25337727864584
 20
254.1538235134548
 30
0.0
 10
82.25337727864584
 20
251.0489312065972
 30
0.0
 10
82.25337727864584
 20
227.5750840928819
 30
0.0
 10
93.0492730034722
 20
204.2567830403645
 30
0.0
 10
100.9132202148437
 20
187.6402262369791
 30
0.0
 10
102.1946234809027
 20
184.9328979492186
 30
0.0
 10
103.6465589735243
 20
181.8819213867186
 30
0.0
 10
105.1791097005208
 20
178.6710923936631
 30
0.0
 10
105.8250651041666
 20
177.3176866319444
 30
0.0
 10
112.6515218098958
 20
162.3694173177083
 30
0.0
 10
113.8728081597222
 20
159.8277981228298
 30
0.0
 10
119.209398
 20
149.0014291391288
 30
0.0
 10
119.209398
 20
149.0014291391287
 30
0.0
 10
119.209398
 20
149.0014291391287
 30
0.0
 10
119.209398
 20
149.0014291391287
 30
0.0
 10
119.209398
 20
86.0429823133683
 30
0.0
 10
119.209398
 20
86.0429823133683
 30
0.0
 10
119.209398
 20
86.0429823133683
 30
0.0
 10
129.709398
 20
86.04298231336803
 30
0.0
 10
129.709398
 20
86.04298231336803
 30
0.0
 10
129.709398
 20
86.04298231336803
 30
0.0
 10
129.709398
 20
29.57786729600696
 30
0.0
 10
129.709398
 20
29.57786729600696
 30
0.0
 10
129.709398
 20
29.57786729600696
 30
0.0
 10
172.5644883897569
 20
29.57786729600695
 30
0.0
 10
172.5644883897569
 20
29.57786729600695
 30
0.0
  0
SPLINE
  5
32
330
A
100
AcDbEntity
  8
4
 62
     7
100
AcDbSpline
210
0.0
220
0.0
230
1.0
 70
     8
 71
     3
 72
    38
 73
    34
 74
     0
 42
0.0000000001
 43
0.0000000001
 40
0.0
 40
0.0
 40
0.0
 40
0.0
 40
1.0
 40
1.0
 40
1.0
 40
2.0
 40
2.0
 40
2.0
 40
3.0
 40
3.0
 40
3.0
 40
4.0
 40
4.0
 40
4.0
 40
5.0
 40
5.0
 40
5.0
 40
6.0
 40
6.0
 40
6.0
 40
7.0
 40
7.0
 40
7.0
 40
8.0
 40
8.0
 40
8.0
 40
9.0
 40
9.0
 40
9.0
 40
10.0
 40
10.0
 40
10.0
 40
11.0
 40
11.0
 40
11.0
 40
11.0
 10
82.21858181423611
 20
289.9783379448784
 30
0.0
 10
82.21858181423611
 20
283.1394788953992
 30
0.0
 10
82.21858181423611
 20
270.4594604492188
 30
0.0
 10
82.21858181423611
 20
267.0908460828993
 30
0.0
 10
82.21858181423611
 20
263.7220594618056
 30
0.0
 10
82.21858181423611
 20
254.495576985677
 30
0.0
 10
82.21858181423611
 20
250.0651841905381
 30
0.0
 10
82.21858181423611
 20
232.9575290256076
 30
0.0
 10
84.12647569444443
 20
219.4710137261285
 30
0.0
 10
87.52850748697918
 20
207.1721950954861
 30
0.0
 10
90.72228325737844
 20
195.617689344618
 30
0.0
 10
95.2346693250868
 20
185.1094590928818
 30
0.0
 10
100.7185723198784
 20
173.6269558376736
 30
0.0
 10
105.4051079644097
 20
163.8144626193576
 30
0.0
 10
109.8168972439236
 20
154.2567342122396
 30
0.0
 10
113.6313069661458
 20
146.9291883680555
 30
0.0
 10
113.6747151692708
 20
146.845472547743
 30
0.0
 10
113.7181233723958
 20
146.7621012369791
 30
0.0
 10
113.7615315755208
 20
146.6790744357639
 30
0.0
 10
119.09970703125
 20
136.4436957465277
 30
0.0
 10
119.209398
 20
136.5060017995544
 30
0.0
 10
119.209398
 20
136.5060017995544
 30
0.0
 10
119.209398
 20
136.5060017995544
 30
0.0
 10
119.209398
 20
72.97849099999995
 30
0.0
 10
119.209398
 20
72.97849099999995
 30
0.0
 10
119.209398
 20
72.97849099999995
 30
0.0
 10
129.709398
 20
72.9784909999999
 30
0.0
 10
129.709398
 20
72.9784909999999
 30
0.0
 10
129.709398
 20
72.9784909999999
 30
0.0
 10
129.709398
 20
29.57786729600696
 30
0.0
 10
129.709398
 20
29.57786729600696
 30
0.0
 10
129.709398
 20
29.57786729600696
 30
0.0
 10
172.5644883897569
 20
29.57786729600695
 30
0.0
 10
172.5644883897569
 20
29.57786729600695
 30
0.0
  0
SPLINE
  5
30
330
A
100
AcDbEntity
  8
3
 62
     7
100
AcDbSpline
210
0.0
220
0.0
230
1.0
 70
     8
 71
     3
 72
    35
 73
    31
 74
     0
 42
0.0000000001
 43
0.0000000001
 40
0.0
 40
0.0
 40
0.0
 40
0.0
 40
1.0
 40
1.0
 40
1.0
 40
2.0
 40
2.0
 40
2.0
 40
3.0
 40
3.0
 40
3.0
 40
4.0
 40
4.0
 40
4.0
 40
5.0
 40
5.0
 40
5.0
 40
6.0
 40
6.0
 40
6.0
 40
7.0
 40
7.0
 40
7.0
 40
8.0
 40
8.0
 40
8.0
 40
9.0
 40
9.0
 40
9.0
 40
10.0
 40
10.0
 40
10.0
 40
10.0
 10
82.21858181423611
 20
289.9783379448784
 30
0.0
 10
82.21858181423611
 20
289.9783379448784
 30
0.0
 10
82.21858181423611
 20
250.0651841905381
 30
0.0
 10
82.21858181423611
 20
250.0651841905381
 30
0.0
 10
82.21858181423611
 20
240.8993353949651
 30
0.0
 10
82.21858181423611
 20
224.612646484375
 30
0.0
 10
82.21858181423611
 20
219.9776150173611
 30
0.0
 10
82.21858181423611
 20
208.0217556423611
 30
0.0
 10
85.49986300998261
 20
193.9135728624132
 30
0.0
 10
90.24599880642359
 20
181.3441419813368
 30
0.0
 10
91.08091769748265
 20
179.1330796983507
 30
0.0
 10
92.93386230468748
 20
174.1809271918401
 30
0.0
 10
93.10938991970484
 20
173.7778510199651
 30
0.0
 10
94.3692613389757
 20
170.8831095377604
 30
0.0
 10
95.95038791232635
 20
168.0412502712674
 30
0.0
 10
97.31430121527777
 20
164.9804551866319
 30
0.0
 10
102.5536024305555
 20
153.2223442925347
 30
0.0
 10
108.0726453993055
 20
141.3715603298611
 30
0.0
 10
110.309398
 20
137.8453540288315
 30
0.0
 10
110.309398
 20
137.8453540288315
 30
0.0
 10
110.309398
 20
72.97849121093747
 30
0.0
 10
110.309398
 20
72.97849121093747
 30
0.0
 10
110.309398
 20
72.97849121093747
 30
0.0
 10
129.709398
 20
72.9784909999999
 30
0.0
 10
129.709398
 20
72.9784909999999
 30
0.0
 10
129.709398
 20
72.9784909999999
 30
0.0
 10
129.709398
 20
29.57786729600696
 30
0.0
 10
129.709398
 20
29.57786729600696
 30
0.0
 10
129.709398
 20
29.57786729600696
 30
0.0
 10
172.5644883897569
 20
29.57786729600695
 30
0.0
 10
172.5644883897569
 20
29.57786729600695
 30
0.0
  0
SPLINE
  5
2E
330
A
100
AcDbEntity
  8
2
 62
     7
100
AcDbSpline
210
0.0
220
0.0
230
1.0
 70
     8
 71
     3
 72
    35
 73
    31
 74
     0
 42
0.0000000001
 43
0.0000000001
 40
0.0
 40
0.0
 40
0.0
 40
0.0
 40
1.0
 40
1.0
 40
1.0
 40
2.0
 40
2.0
 40
2.0
 40
3.0
 40
3.0
 40
3.0
 40
4.0
 40
4.0
 40
4.0
 40
5.0
 40
5.0
 40
5.0
 40
6.0
 40
6.0
 40
6.0
 40
7.0
 40
7.0
 40
7.0
 40
8.0
 40
8.0
 40
8.0
 40
9.0
 40
9.0
 40
9.0
 40
10.0
 40
10.0
 40
10.0
 40
10.0
 10
172.5644883897569
 20
29.57786729600695
 30
0.0
 10
172.5644883897569
 20
29.57786729600695
 30
0.0
 10
129.709398
 20
29.57786729600696
 30
0.0
 10
129.709398
 20
29.57786729600696
 30
0.0
 10
129.709398
 20
29.57786729600696
 30
0.0
 10
129.709398
 20
72.9784909999999
 30
0.0
 10
129.709398
 20
72.9784909999999
 30
0.0
 10
129.709398
 20
72.9784909999999
 30
0.0
 10
97.30939800000001
 20
72.97849121093747
 30
0.0
 10
97.30939800000001
 20
72.97849121093747
 30
0.0
 10
97.30939800000001
 20
72.97849121093747
 30
0.0
 10
97.30939800000001
 20
164.9906059199743
 30
0.0
 10
97.30939800000001
 20
164.9906059199743
 30
0.0
 10
97.30939800000001
 20
164.9906059199743
 30
0.0
 10
97.26383056640623
 20
165.0838080512153
 30
0.0
 10
97.26383056640623
 20
165.0838080512153
 30
0.0
 10
95.90043402777777
 20
168.146497938368
 30
0.0
 10
94.37029486762151
 20
170.8793199327257
 30
0.0
 10
93.10938991970484
 20
173.7778510199651
 30
0.0
 10
92.95453287760416
 20
174.1337293836805
 30
0.0
 10
91.02906901041666
 20
179.2608927408854
 30
0.0
 10
90.17261827256945
 20
181.5391343858506
 30
0.0
 10
85.46661783854167
 20
194.0555107964409
 30
0.0
 10
82.21858181423611
 20
208.0834228515624
 30
0.0
 10
82.21858181423611
 20
219.9776150173611
 30
0.0
 10
82.21858181423611
 20
224.612646484375
 30
0.0
 10
82.21858181423611
 20
240.8993353949651
 30
0.0
 10
82.21858181423611
 20
250.0651841905381
 30
0.0
 10
82.21858181423611
 20
250.0651841905381
 30
0.0
 10
82.21858181423611
 20
289.9783379448784
 30
0.0
 10
82.21858181423611
 20
289.9783379448784
 30
0.0
  0
SPLINE
  5
2C
330
A
100
AcDbEntity
  8
1
 62
     7
100
AcDbSpline
210
0.0
220
0.0
230
1.0
 70
     8
 71
     3
 72
    26
 73
    22
 74
     0
 42
0.0000000001
 43
0.0000000001
 40
0.0
 40
0.0
 40
0.0
 40
0.0
 40
1.0
 40
1.0
 40
1.0
 40
2.0
 40
2.0
 40
2.0
 40
3.0
 40
3.0
 40
3.0
 40
4.0
 40
4.0
 40
4.0
 40
5.0
 40
5.0
 40
5.0
 40
6.0
 40
6.0
 40
6.0
 40
7.0
 40
7.0
 40
7.0
 40
7.0
 10
82.21858181423611
 20
289.9783379448784
 30
0.0
 10
82.21858181423611
 20
289.9783379448784
 30
0.0
 10
82.21858181423611
 20
219.9776150173611
 30
0.0
 10
82.21858181423611
 20
219.9776150173611
 30
0.0
 10
82.21858181423611
 20
204.4760633680556
 30
0.0
 10
82.20686848958335
 20
189.0966403537326
 30
0.0
 10
92.85738118489584
 20
161.6635172526041
 30
0.0
 10
92.85738118489584
 20
161.6635172526041
 30
0.0
 10
95.15336507161457
 20
156.1045111762152
 30
0.0
 10
97.30939800000001
 20
153.7198145004667
 30
0.0
 10
97.30939800000001
 20
153.7198145004667
 30
0.0
 10
97.30939800000001
 20
72.97849121093747
 30
0.0
 10
97.30939800000001
 20
72.97849121093747
 30
0.0
 10
97.30939800000001
 20
72.97849121093747
 30
0.0
 10
129.709398
 20
72.9784909999999
 30
0.0
 10
129.709398
 20
72.9784909999999
 30
0.0
 10
129.709398
 20
72.9784909999999
 30
0.0
 10
129.709398
 20
29.57786729600696
 30
0.0
 10
129.709398
 20
29.57786729600696
 30
0.0
 10
129.709398
 20
29.57786729600696
 30
0.0
 10
172.5644883897569
 20
29.57786729600695
 30
0.0
 10
172.5644883897569
 20
29.57786729600695
 30
0.0
  0
TEXT
  5
D4
330
A
100
AcDbEntity
  8
レイヤー_5
  6
Continuous
 62
     7
370
     0
100
AcDbText
 10
174.0508451880464
 20
271.190854
 30
0.0
 40
2.444193999999999
  1
S1000-CE
 41
0.8
  7
STD
100
AcDbText
  0
TEXT
  5
D7
330
A
100
AcDbEntity
  8
レイヤー_5
  6
Continuous
 62
     7
370
     0
100
AcDbText
 10
154.883569
 20
279.33661
 30
0.0
 40
2.444193999999999
  1
700A
 41
0.8
  7
STD
100
AcDbText
  0
ENDSEC
  0
SECTION
  2
OBJECTS
  0
DICTIONARY
  5
19
330
0
100
AcDbDictionary
281
     1
  3
ACAD_COLOR
350
43
  3
ACAD_GROUP
350
1A
  3
ACAD_LAYOUT
350
1E
  3
ACAD_MATERIAL
350
42
  3
ACAD_MLINESTYLE
350
1B
  3
ACAD_PLOTSETTINGS
350
22
  3
ACAD_PLOTSTYLENAME
350
1F
  3
ACAD_TABLESTYLE
350
44
  3
ACAD_WIPEOUT_VARS
350
23
  3
ACDBHEADERROUNDTRIPXREC
350
1CB
  3
AcDbVariableDictionary
350
DB
  0
DICTIONARY
  5
D5
330
A
100
AcDbDictionary
280
     1
281
     1
  3
ACAD_SORTENTS
360
D6
  0
DICTIONARY
  5
43
102
{ACAD_REACTORS
330
19
102
}
330
19
100
AcDbDictionary
281
     1
  0
DICTIONARY
  5
1A
102
{ACAD_REACTORS
330
19
102
}
330
19
100
AcDbDictionary
281
     1
  0
DICTIONARY
  5
1E
102
{ACAD_REACTORS
330
19
102
}
330
19
100
AcDbDictionary
281
     1
  3
Layout1
350
21
  3
Model
350
20
  0
DICTIONARY
  5
42
102
{ACAD_REACTORS
330
19
102
}
330
19
100
AcDbDictionary
281
     1
  0
DICTIONARY
  5
1B
102
{ACAD_REACTORS
330
19
102
}
330
19
100
AcDbDictionary
281
     1
  3
Standard
350
1C
  0
DICTIONARY
  5
22
102
{ACAD_REACTORS
330
19
102
}
330
19
100
AcDbDictionary
281
     1
  0
ACDBDICTIONARYWDFLT
  5
1F
102
{ACAD_REACTORS
330
19
102
}
330
19
100
AcDbDictionary
281
     1
  3
Normal
350
1D
100
AcDbDictionaryWithDefault
340
1D
  0
DICTIONARY
  5
44
102
{ACAD_REACTORS
330
19
102
}
330
19
100
AcDbDictionary
281
     1
  3
Standard
350
45
  0
WIPEOUTVARIABLES
  5
23
330
19
100
AcDbWipeoutVariables
 70
     1
  0
DICTIONARY
  5
1CB
102
{ACAD_REACTORS
330
19
102
}
330
19
100
AcDbDictionary
281
     1
  0
DICTIONARY
  5
DB
102
{ACAD_REACTORS
330
19
102
}
330
19
100
AcDbDictionary
281
     1
  3
CTABLESTYLE
350
DC
  3
DIMASSOC
350
DD
  3
PROJECTNAME
350
DE
  0
SORTENTSTABLE
  5
D6
102
{ACAD_REACTORS
330
D5
102
}
330
D5
100
AcDbSortentsTable
330
A
331
3E
  5
D3
331
3C
  5
3E
331
3A
  5
3C
331
D7
  5
2C
331
38
  5
3A
331
36
  5
39
331
34
  5
38
331
3F
  5
D4
331
3D
  5
3F
331
32
  5
36
331
3B
  5
3D
331
30
  5
34
331
39
  5
3B
331
2E
  5
32
331
2C
  5
30
331
D4
  5
2E
  0
LAYOUT
  5
21
102
{ACAD_XDICTIONARY
360
1CE
102
}
102
{ACAD_REACTORS
330
1E
102
}
330
1E
100
AcDbPlotSettings
  1

  2

  4

  6

 40
0.0
 41
0.0
 42
0.0
 43
0.0
 44
0.0
 45
0.0
 46
0.0
 47
0.0
 48
0.0
 49
0.0
140
0.0
141
0.0
142
1.0
143
1.0
 70
     0
 72
     0
 73
     0
 74
     0
  7

 75
     0
147
1.0
148
0.0
149
0.0
100
AcDbLayout
  1
Layout1
 70
     0
 71
     1
 10
0.0
 20
0.0
 11
12.0
 21
9.0
 12
0.0
 22
0.0
 32
0.0
 14
1.000000000000000E+20
 24
1.000000000000000E+20
 34
1.000000000000000E+20
 15
-1.000000000000000E+20
 25
-1.000000000000000E+20
 35
-1.000000000000000E+20
146
0.0
 13
0.0
 23
0.0
 33
0.0
 16
1.0
 26
0.0
 36
0.0
 17
0.0
 27
1.0
 37
0.0
 76
     0
330
B
  0
LAYOUT
  5
20
102
{ACAD_XDICTIONARY
360
1CC
102
}
102
{ACAD_REACTORS
330
1E
102
}
330
1E
100
AcDbPlotSettings
  1

  2
OneNote 2007 に送る
  4
A4
  6

 40
3.174999952316283
 41
3.174999952316283
 42
3.175003051757812
 43
3.17498779296875
 44
209.9733276367186
 45
297.0106506347656
 46
0.0
 47
0.0
 48
0.0
 49
0.0
140
0.0
141
0.0
142
1.0
143
1.0
 70
 11264
 72
     0
 73
     1
 74
     0
  7

 75
     0
147
1.0
148
3575.756419100617
149
1906.986501146366
100
AcDbLayout
  1
Model
 70
     0
 71
     0
 10
0.0
 20
0.0
 11
0.0
 21
0.0
 12
0.0
 22
0.0
 32
0.0
 14
0.0
 24
0.0
 34
0.0
 15
0.0
 25
0.0
 35
0.0
146
0.0
 13
0.0
 23
0.0
 33
0.0
 16
0.0
 26
0.0
 36
0.0
 17
0.0
 27
0.0
 37
0.0
 76
     0
330
A
1001
ACAD_PSEXT
1000
OneNote 2007 に送る
1000
Send To Microsoft OneNote Driver
1000
Send To Microsoft OneNote Port:
1000

1070
     0
  0
MLINESTYLE
  5
1C
102
{ACAD_REACTORS
330
1B
102
}
330
1B
100
AcDbMlineStyle
  2
STANDARD
 70
     0
  3

 62
     0
 51
90.0
 52
90.0
 71
     2
 49
0.5
 62
   256
  6
BYLAYER
 49
-0.5
 62
   256
  6
BYLAYER
  0
ACDBPLACEHOLDER
  5
1D
102
{ACAD_REACTORS
330
1F
102
}
330
1F
  0
TABLESTYLE
  5
45
102
{ACAD_REACTORS
330
44
102
}
330
44
100
AcDbTableStyle
  3
Standard
 70
     0
 71
     0
 40
0.06
 41
0.06
280
     0
281
     0
  7
Standard
140
0.18
170
     2
 62
     0
 63
     7
283
     0
274
    -2
284
     1
 64
     0
275
    -2
285
     1
 65
     0
276
    -2
286
     1
 66
     0
277
    -2
287
     1
 67
     0
278
    -2
288
     1
 68
     0
279
    -2
289
     1
 69
     0
  7
Standard
140
0.25
170
     5
 62
     0
 63
     7
283
     0
274
    -2
284
     1
 64
     0
275
    -2
285
     1
 65
     0
276
    -2
286
     1
 66
     0
277
    -2
287
     1
 67
     0
278
    -2
288
     1
 68
     0
279
    -2
289
     1
 69
     0
  7
Standard
140
0.18
170
     5
 62
     0
 63
     7
283
     0
274
    -2
284
     1
 64
     0
275
    -2
285
     1
 65
     0
276
    -2
286
     1
 66
     0
277
    -2
287
     1
 67
     0
278
    -2
288
     1
 68
     0
279
    -2
289
     1
 69
     0
  0
DICTIONARYVAR
  5
DC
102
{ACAD_REACTORS
330
DB
102
}
330
DB
100
DictionaryVariables
280
     0
  1
STANDARD
  0
DICTIONARYVAR
  5
DD
102
{ACAD_REACTORS
330
DB
102
}
330
DB
100
DictionaryVariables
280
     0
  1
1
  0
DICTIONARYVAR
  5
DE
102
{ACAD_REACTORS
330
DB
102
}
330
DB
100
DictionaryVariables
280
     0
  1

  0
DICTIONARY
  5
1CE
330
21
100
AcDbDictionary
280
     1
281
     1
  3
ACAD_XREC_ROUNDTRIP
360
1CF
  0
DICTIONARY
  5
1CC
330
20
100
AcDbDictionary
280
     1
281
     1
  3
ACAD_XREC_ROUNDTRIP
360
1CD
  0
XRECORD
  5
1CF
102
{ACAD_REACTORS
330
1CE
102
}
330
1CE
100
AcDbXrecord
280
     1
102
SHADEPLOT
 70
     0
102
SHADEPLOTRESLEVEL
 70
     2
102
SHADEPLOTCUSTOMDPI
 70
   300
  0
XRECORD
  5
1CD
102
{ACAD_REACTORS
330
1CC
102
}
330
1CC
100
AcDbXrecord
280
     1
102
SHADEPLOT
 70
     0
102
SHADEPLOTRESLEVEL
 70
     2
102
SHADEPLOTCUSTOMDPI
 70
   300
  0
ENDSEC
  0
EOF
