  0
SECTION
  2
HEADER
  9
$ACADVER
  1
AC1015
  9
$ACADMAINTVER
 70
    20
  9
$DWGCODEPAGE
  3
ANSI_932
  9
$INSBASE
 10
0.0
 20
0.0
 30
0.0
  9
$EXTMIN
 10
-10.79772559706418
 20
-14.80434470396562
 30
-0.0000000349181948
  9
$EXTMAX
 10
194.3534390703422
 20
260.4234831261524
 30
0.0000000814935747
  9
$LIMMIN
 10
0.0
 20
0.0
  9
$LIMMAX
 10
420.0
 20
297.0
  9
$ORTHOMODE
 70
     1
  9
$REGENMODE
 70
     1
  9
$FILLMODE
 70
     1
  9
$QTEXTMODE
 70
     0
  9
$MIRRTEXT
 70
     1
  9
$LTSCALE
 40
1.0
  9
$ATTMODE
 70
     1
  9
$TEXTSIZE
 40
2.5
  9
$TRACEWID
 40
1.0
  9
$TEXTSTYLE
  7
Standard
  9
$CLAYER
  8
0
  9
$CELTYPE
  6
ByLayer
  9
$CECOLOR
 62
   256
  9
$CELTSCALE
 40
1.0
  9
$DISPSILH
 70
     0
  9
$DIMSCALE
 40
1.0
  9
$DIMASZ
 40
2.5
  9
$DIMEXO
 40
0.625
  9
$DIMDLI
 40
3.75
  9
$DIMRND
 40
0.0
  9
$DIMDLE
 40
0.0
  9
$DIMEXE
 40
1.25
  9
$DIMTP
 40
0.0
  9
$DIMTM
 40
0.0
  9
$DIMTXT
 40
2.5
  9
$DIMCEN
 40
2.5
  9
$DIMTSZ
 40
0.0
  9
$DIMTOL
 70
     0
  9
$DIMLIM
 70
     0
  9
$DIMTIH
 70
     0
  9
$DIMTOH
 70
     0
  9
$DIMSE1
 70
     0
  9
$DIMSE2
 70
     0
  9
$DIMTAD
 70
     1
  9
$DIMZIN
 70
     8
  9
$DIMBLK
  1

  9
$DIMASO
 70
     1
  9
$DIMSHO
 70
     1
  9
$DIMPOST
  1

  9
$DIMAPOST
  1

  9
$DIMALT
 70
     0
  9
$DIMALTD
 70
     3
  9
$DIMALTF
 40
0.03937007874016
  9
$DIMLFAC
 40
1.0
  9
$DIMTOFL
 70
     1
  9
$DIMTVP
 40
0.0
  9
$DIMTIX
 70
     0
  9
$DIMSOXD
 70
     0
  9
$DIMSAH
 70
     0
  9
$DIMBLK1
  1

  9
$DIMBLK2
  1

  9
$DIMSTYLE
  2
ISO-25
  9
$DIMCLRD
 70
     0
  9
$DIMCLRE
 70
     0
  9
$DIMCLRT
 70
     0
  9
$DIMTFAC
 40
1.0
  9
$DIMGAP
 40
0.625
  9
$DIMJUST
 70
     0
  9
$DIMSD1
 70
     0
  9
$DIMSD2
 70
     0
  9
$DIMTOLJ
 70
     0
  9
$DIMTZIN
 70
     8
  9
$DIMALTZ
 70
     0
  9
$DIMALTTZ
 70
     0
  9
$DIMUPT
 70
     0
  9
$DIMDEC
 70
     2
  9
$DIMTDEC
 70
     2
  9
$DIMALTU
 70
     2
  9
$DIMALTTD
 70
     3
  9
$DIMTXSTY
  7
Standard
  9
$DIMAUNIT
 70
     0
  9
$DIMADEC
 70
     0
  9
$DIMALTRND
 40
0.0
  9
$DIMAZIN
 70
     0
  9
$DIMDSEP
 70
    44
  9
$DIMATFIT
 70
     3
  9
$DIMFRAC
 70
     0
  9
$DIMLDRBLK
  1

  9
$DIMLUNIT
 70
     2
  9
$DIMLWD
 70
    -2
  9
$DIMLWE
 70
    -2
  9
$DIMTMOVE
 70
     0
  9
$LUNITS
 70
     2
  9
$LUPREC
 70
     4
  9
$SKETCHINC
 40
1.0
  9
$FILLETRAD
 40
0.0
  9
$AUNITS
 70
     0
  9
$AUPREC
 70
     0
  9
$MENU
  1
.
  9
$ELEVATION
 40
0.0
  9
$PELEVATION
 40
0.0
  9
$THICKNESS
 40
0.0
  9
$LIMCHECK
 70
     0
  9
$CHAMFERA
 40
10.0
  9
$CHAMFERB
 40
10.0
  9
$CHAMFERC
 40
20.0
  9
$CHAMFERD
 40
0.0
  9
$SKPOLY
 70
     0
  9
$TDCREATE
 40
2453249.553566794
  9
$TDUCREATE
 40
2453249.178566794
  9
$TDUPDATE
 40
2456722.503814375
  9
$TDUUPDATE
 40
2456722.128814375
  9
$TDINDWG
 40
0.1610572222
  9
$TDUSRTIMER
 40
0.1610483796
  9
$USRTIMER
 70
     1
  9
$ANGBASE
 50
0.0
  9
$ANGDIR
 70
     0
  9
$PDMODE
 70
     0
  9
$PDSIZE
 40
0.0
  9
$PLINEWID
 40
0.0
  9
$SPLFRAME
 70
     0
  9
$SPLINETYPE
 70
     6
  9
$SPLINESEGS
 70
     8
  9
$HANDSEED
  5
704
  9
$SURFTAB1
 70
     6
  9
$SURFTAB2
 70
     6
  9
$SURFTYPE
 70
     6
  9
$SURFU
 70
     6
  9
$SURFV
 70
     6
  9
$UCSBASE
  2

  9
$UCSNAME
  2

  9
$UCSORG
 10
0.0
 20
0.0
 30
0.0
  9
$UCSXDIR
 10
1.0
 20
0.0
 30
0.0
  9
$UCSYDIR
 10
0.0
 20
1.0
 30
0.0
  9
$UCSORTHOREF
  2

  9
$UCSORTHOVIEW
 70
     0
  9
$UCSORGTOP
 10
0.0
 20
0.0
 30
0.0
  9
$UCSORGBOTTOM
 10
0.0
 20
0.0
 30
0.0
  9
$UCSORGLEFT
 10
0.0
 20
0.0
 30
0.0
  9
$UCSORGRIGHT
 10
0.0
 20
0.0
 30
0.0
  9
$UCSORGFRONT
 10
0.0
 20
0.0
 30
0.0
  9
$UCSORGBACK
 10
0.0
 20
0.0
 30
0.0
  9
$PUCSBASE
  2

  9
$PUCSNAME
  2

  9
$PUCSORG
 10
0.0
 20
0.0
 30
0.0
  9
$PUCSXDIR
 10
1.0
 20
0.0
 30
0.0
  9
$PUCSYDIR
 10
0.0
 20
1.0
 30
0.0
  9
$PUCSORTHOREF
  2

  9
$PUCSORTHOVIEW
 70
     0
  9
$PUCSORGTOP
 10
0.0
 20
0.0
 30
0.0
  9
$PUCSORGBOTTOM
 10
0.0
 20
0.0
 30
0.0
  9
$PUCSORGLEFT
 10
0.0
 20
0.0
 30
0.0
  9
$PUCSORGRIGHT
 10
0.0
 20
0.0
 30
0.0
  9
$PUCSORGFRONT
 10
0.0
 20
0.0
 30
0.0
  9
$PUCSORGBACK
 10
0.0
 20
0.0
 30
0.0
  9
$USERI1
 70
     0
  9
$USERI2
 70
     0
  9
$USERI3
 70
     0
  9
$USERI4
 70
     0
  9
$USERI5
 70
     0
  9
$USERR1
 40
0.0
  9
$USERR2
 40
0.0
  9
$USERR3
 40
0.0
  9
$USERR4
 40
0.0
  9
$USERR5
 40
0.0
  9
$WORLDVIEW
 70
     1
  9
$SHADEDGE
 70
     3
  9
$SHADEDIF
 70
    70
  9
$TILEMODE
 70
     1
  9
$MAXACTVP
 70
    64
  9
$PINSBASE
 10
0.0
 20
0.0
 30
0.0
  9
$PLIMCHECK
 70
     0
  9
$PEXTMIN
 10
26.66076962115562
 20
20.31135699206657
 30
-0.0015258207003583
  9
$PEXTMAX
 10
240.039213369355
 20
182.8886381005154
 30
0.0000000349246037
  9
$PLIMMIN
 10
-6.350006103515625
 20
-6.349999904632567
  9
$PLIMMAX
 10
273.0499877929687
 20
209.5499939918517
  9
$UNITMODE
 70
     0
  9
$VISRETAIN
 70
     1
  9
$PLINEGEN
 70
     0
  9
$PSLTSCALE
 70
     1
  9
$TREEDEPTH
 70
  3020
  9
$CMLSTYLE
  2
Standard
  9
$CMLJUST
 70
     0
  9
$CMLSCALE
 40
20.0
  9
$PROXYGRAPHICS
 70
     1
  9
$MEASUREMENT
 70
     1
  9
$CELWEIGHT
370
    -1
  9
$ENDCAPS
280
     0
  9
$JOINSTYLE
280
     0
  9
$LWDISPLAY
290
     0
  9
$INSUNITS
 70
     4
  9
$HYPERLINKBASE
  1

  9
$STYLESHEET
  1
MONOCHROME.CTB
  9
$XEDIT
290
     1
  9
$CEPSNTYPE
380
     0
  9
$PSTYLEMODE
290
     1
  9
$FINGERPRINTGUID
  2
{FDEAD578-A652-11D2-9A35-0060089B3A3F}
  9
$VERSIONGUID
  2
{172C2B29-9E3C-4400-A459-2DEF502F0ABB}
  9
$EXTNAMES
290
     1
  9
$PSVPSCALE
 40
0.0
  9
$OLESTARTUP
290
     0
  0
ENDSEC
  0
SECTION
  2
CLASSES
  0
CLASS
  1
ACDBDICTIONARYWDFLT
  2
AcDbDictionaryWithDefault
  3
ObjectDBX Classes
 90
        0
280
     0
281
     0
  0
CLASS
  1
ACDBPLACEHOLDER
  2
AcDbPlaceHolder
  3
ObjectDBX Classes
 90
        0
280
     0
281
     0
  0
CLASS
  1
LAYOUT
  2
AcDbLayout
  3
ObjectDBX Classes
 90
        0
280
     0
281
     0
  0
CLASS
  1
DICTIONARYVAR
  2
AcDbDictionaryVar
  3
ObjectDBX Classes
 90
        0
280
     0
281
     0
  0
CLASS
  1
TABLESTYLE
  2
AcDbTableStyle
  3
ObjectDBX Classes
 90
     4095
280
     0
281
     0
  0
CLASS
  1
SORTENTSTABLE
  2
AcDbSortentsTable
  3
ObjectDBX Classes
 90
        0
280
     0
281
     0
  0
CLASS
  1
MATERIAL
  2
AcDbMaterial
  3
ObjectDBX Classes
 90
     1153
280
     0
281
     0
  0
CLASS
  1
VISUALSTYLE
  2
AcDbVisualStyle
  3
ObjectDBX Classes
 90
     4095
280
     0
281
     0
  0
CLASS
  1
SCALE
  2
AcDbScale
  3
ObjectDBX Classes
 90
     1153
280
     0
281
     0
  0
CLASS
  1
MLEADERSTYLE
  2
AcDbMLeaderStyle
  3
ACDB_MLEADERSTYLE_CLASS
 90
     4095
280
     0
281
     0
  0
CLASS
  1
AEC_REFEDIT_STATUS_TRACKER
  2
AecDbRefEditStatusTracker
  3
AecArchBase60|Product Desc: Autodesk Architectural Desktop 2007 |Company: Autodesk,Inc. |WEB Address: www.autodesk.com
 90
    32897
280
     0
281
     0
  0
CLASS
  1
NPOCOLLECTION
  2
AcDbImpNonPersistentObjectsCollection
  3
ObjectDBX Classes
 90
    33921
280
     0
281
     0
  0
CLASS
  1
CELLSTYLEMAP
  2
AcDbCellStyleMap
  3
ObjectDBX Classes
 90
     1152
280
     0
281
     0
  0
ENDSEC
  0
SECTION
  2
TABLES
  0
TABLE
  2
VPORT
  5
8
330
0
100
AcDbSymbolTable
 70
     1
  0
VPORT
  5
4B9
330
8
100
AcDbSymbolTableRecord
100
AcDbViewportTableRecord
  2
*Active
 70
     0
 10
0.0
 20
0.0
 11
1.0
 21
1.0
 12
91.77785673663903
 22
122.8095692110934
 13
0.0
 23
0.0
 14
10.0
 24
10.0
 15
10.0
 25
10.0
 16
0.0
 26
0.0
 36
1.0
 17
0.0
 27
0.0
 37
0.0
 40
277.1524979548042
 41
1.737456242707117
 42
50.0
 43
0.0
 44
0.0
 50
0.0
 51
0.0
 71
     0
 72
   100
 73
     1
 74
     3
 75
     0
 76
     0
 77
     0
 78
     0
281
     0
 65
     1
110
0.0
120
0.0
130
0.0
111
1.0
121
0.0
131
0.0
112
0.0
122
1.0
132
0.0
 79
     0
146
0.0
  0
ENDTAB
  0
TABLE
  2
LTYPE
  5
5
330
0
100
AcDbSymbolTable
 70
     1
  0
LTYPE
  5
14
330
5
100
AcDbSymbolTableRecord
100
AcDbLinetypeTableRecord
  2
ByBlock
 70
     0
  3

 72
    65
 73
     0
 40
0.0
  0
LTYPE
  5
15
330
5
100
AcDbSymbolTableRecord
100
AcDbLinetypeTableRecord
  2
ByLayer
 70
     0
  3

 72
    65
 73
     0
 40
0.0
  0
LTYPE
  5
16
330
5
100
AcDbSymbolTableRecord
100
AcDbLinetypeTableRecord
  2
Continuous
 70
     0
  3
Solid line
 72
    65
 73
     0
 40
0.0
  0
ENDTAB
  0
TABLE
  2
LAYER
  5
2
330
0
100
AcDbSymbolTable
 70
     6
  0
LAYER
  5
10
102
{ACAD_XDICTIONARY
360
529
102
}
330
2
100
AcDbSymbolTableRecord
100
AcDbLayerTableRecord
  2
0
 70
     0
 62
     7
  6
Continuous
370
    -3
390
F
  0
LAYER
  5
86
102
{ACAD_XDICTIONARY
360
52B
102
}
330
2
100
AcDbSymbolTableRecord
100
AcDbLayerTableRecord
  2
レイヤー_5
 70
     0
 62
     2
  6
Continuous
370
    -3
390
F
  0
LAYER
  5
87
102
{ACAD_XDICTIONARY
360
52D
102
}
330
2
100
AcDbSymbolTableRecord
100
AcDbLayerTableRecord
  2
VPORT-BORDERS
 70
     0
 62
     5
  6
Continuous
370
    -3
390
F
  0
LAYER
  5
CE
102
{ACAD_XDICTIONARY
360
52F
102
}
330
2
100
AcDbSymbolTableRecord
100
AcDbLayerTableRecord
  2
23
 70
     0
 62
     3
  6
Continuous
370
    -3
390
F
  0
LAYER
  5
CF
102
{ACAD_XDICTIONARY
360
531
102
}
330
2
100
AcDbSymbolTableRecord
100
AcDbLayerTableRecord
  2
24
 70
     0
 62
     1
  6
Continuous
370
    -3
390
F
  0
LAYER
  5
D0
102
{ACAD_XDICTIONARY
360
533
102
}
330
2
100
AcDbSymbolTableRecord
100
AcDbLayerTableRecord
  2
200
 70
     0
 62
     1
  6
Continuous
370
    -3
390
F
  0
ENDTAB
  0
TABLE
  2
STYLE
  5
3
330
0
100
AcDbSymbolTable
 70
     2
  0
STYLE
  5
11
330
3
100
AcDbSymbolTableRecord
100
AcDbTextStyleTableRecord
  2
Standard
 70
     0
 40
0.0
 41
1.0
 50
0.0
 71
     0
 42
2.5
  3
txt
  4

  0
STYLE
  5
88
330
3
100
AcDbSymbolTableRecord
100
AcDbTextStyleTableRecord
  2
STD
 70
     0
 40
0.0
 41
1.0
 50
0.0
 71
     0
 42
0.0
  3
txt
  4

  0
ENDTAB
  0
TABLE
  2
VIEW
  5
6
330
0
100
AcDbSymbolTable
 70
     0
  0
ENDTAB
  0
TABLE
  2
UCS
  5
7
330
0
100
AcDbSymbolTable
 70
     0
  0
ENDTAB
  0
TABLE
  2
APPID
  5
9
330
0
100
AcDbSymbolTable
 70
     3
  0
APPID
  5
12
330
9
100
AcDbSymbolTableRecord
100
AcDbRegAppTableRecord
  2
ACAD
 70
     0
  0
APPID
  5
3B3
330
9
100
AcDbSymbolTableRecord
100
AcDbRegAppTableRecord
  2
ACAD_EXEMPT_FROM_CAD_STANDARDS
 70
     0
  0
APPID
  5
5FD
330
9
100
AcDbSymbolTableRecord
100
AcDbRegAppTableRecord
  2
ACAD_MLEADERVER
 70
     0
  0
ENDTAB
  0
TABLE
  2
DIMSTYLE
  5
A
330
0
100
AcDbSymbolTable
 70
     2
100
AcDbDimStyleTable
 71
     1
340
27
  0
DIMSTYLE
105
27
330
A
100
AcDbSymbolTableRecord
100
AcDbDimStyleTableRecord
  2
ISO-25
 70
     0
 41
2.5
 42
0.625
 43
3.75
 44
1.25
 73
     0
 74
     0
 77
     1
 78
     8
140
2.5
141
2.5
143
0.03937007874016
147
0.625
171
     3
172
     1
271
     2
272
     2
274
     3
278
    44
283
     0
284
     8
340
11
  0
DIMSTYLE
105
89
330
A
100
AcDbSymbolTableRecord
100
AcDbDimStyleTableRecord
  2
Standard
 70
     0
340
11
  0
ENDTAB
  0
TABLE
  2
BLOCK_RECORD
  5
1
330
0
100
AcDbSymbolTable
 70
     6
  0
BLOCK_RECORD
  5
1F
102
{ACAD_XDICTIONARY
360
206
102
}
330
1
100
AcDbSymbolTableRecord
100
AcDbBlockTableRecord
  2
*Model_Space
340
22
  0
BLOCK_RECORD
  5
55
330
1
100
AcDbSymbolTableRecord
100
AcDbBlockTableRecord
  2
*Paper_Space
340
56
  0
BLOCK_RECORD
  5
50
330
1
100
AcDbSymbolTableRecord
100
AcDbBlockTableRecord
  2
*Paper_Space0
340
51
  0
BLOCK_RECORD
  5
AC
330
1
100
AcDbSymbolTableRecord
100
AcDbBlockTableRecord
  2
A$C4A47233A
340
0
  0
BLOCK_RECORD
  5
D1
330
1
100
AcDbSymbolTableRecord
100
AcDbBlockTableRecord
  2
A$C29F15CBE
340
0
  0
BLOCK_RECORD
  5
25A
330
1
100
AcDbSymbolTableRecord
100
AcDbBlockTableRecord
  2
A$C563C75BC
340
0
1001
ACAD
1000
DesignCenter Data
1002
{
1070
     1
1070
     4
1002
}
  0
BLOCK_RECORD
  5
25E
102
{ACAD_XDICTIONARY
360
260
102
}
330
1
100
AcDbSymbolTableRecord
100
AcDbBlockTableRecord
  2
A$C5E035E10
340
0
  0
BLOCK_RECORD
  5
3C3
102
{ACAD_XDICTIONARY
360
3C5
102
}
330
1
100
AcDbSymbolTableRecord
100
AcDbBlockTableRecord
  2
A$C73C334B0
340
0
1001
ACAD
1000
DesignCenter Data
1002
{
1070
     1
1070
     4
1002
}
  0
ENDTAB
  0
ENDSEC
  0
SECTION
  2
BLOCKS
  0
BLOCK
  5
20
330
1F
100
AcDbEntity
  8
0
100
AcDbBlockBegin
  2
*Model_Space
 70
     0
 10
0.0
 20
0.0
 30
0.0
  3
*Model_Space
  1

  0
ENDBLK
  5
21
330
1F
100
AcDbEntity
  8
0
100
AcDbBlockEnd
  0
BLOCK
  5
57
330
55
100
AcDbEntity
 67
     1
  8
0
100
AcDbBlockBegin
  2
*Paper_Space
 70
     0
 10
0.0
 20
0.0
 30
0.0
  3
*Paper_Space
  1

  0
ENDBLK
  5
58
330
55
100
AcDbEntity
 67
     1
  8
0
100
AcDbBlockEnd
  0
BLOCK
  5
52
330
50
100
AcDbEntity
 67
     1
  8
0
100
AcDbBlockBegin
  2
*Paper_Space0
 70
     0
 10
0.0
 20
0.0
 30
0.0
  3
*Paper_Space0
  1

  0
VIEWPORT
  5
6B
102
{ACAD_XDICTIONARY
360
6D5
102
}
330
50
100
AcDbEntity
 67
     1
  8
0
100
AcDbViewport
 10
133.3499908447265
 20
101.5999970436096
 30
0.0
 40
381.3957395593833
 41
218.2856291881582
 68
     0
 69
     0
 12
133.3499908447265
 22
101.5999970436096
 13
0.0
 23
0.0
 14
10.0
 24
10.0
 15
10.0
 25
10.0
 16
0.0
 26
0.0
 36
1.0
 17
0.0
 27
0.0
 37
0.0
 42
50.0
 43
0.0
 44
0.0
 45
218.2856291881582
 50
0.0
 51
0.0
 72
   100
 90
    32800
  1

281
     0
 71
     1
 74
     0
110
0.0
120
0.0
130
0.0
111
1.0
121
0.0
131
0.0
112
0.0
122
1.0
132
0.0
 79
     0
146
0.0
  0
VIEWPORT
  5
6D
102
{ACAD_XDICTIONARY
360
6D7
102
}
330
50
100
AcDbEntity
 67
     1
  8
0
100
AcDbViewport
 10
133.3499939441677
 20
101.5999939441678
 30
0.0
 40
213.3599903106689
 41
162.5599903106689
 68
     0
 69
     0
 12
210.0
 22
148.5
 13
0.0
 23
0.0
 14
10.0
 24
10.0
 15
10.0
 25
10.0
 16
0.0
 26
0.0
 36
1.0
 17
0.0
 27
0.0
 37
0.0
 42
50.0
 43
0.0
 44
0.0
 45
324.0677920111345
 50
0.0
 51
0.0
 72
   100
 90
    32864
  1

281
     0
 71
     1
 74
     0
110
0.0
120
0.0
130
0.0
111
1.0
121
0.0
131
0.0
112
0.0
122
1.0
132
0.0
 79
     0
146
0.0
  0
ENDBLK
  5
53
330
50
100
AcDbEntity
 67
     1
  8
0
100
AcDbBlockEnd
  0
BLOCK
  5
BC
330
AC
100
AcDbEntity
  8
0
100
AcDbBlockBegin
  2
A$C4A47233A
 70
     0
 10
0.0
 20
0.0
 30
0.0
  3
A$C4A47233A
  1

  0
MTEXT
  5
AD
330
AC
100
AcDbEntity
  8
レイヤー_5
 62
     7
100
AcDbMText
 10
168.6503431279469
 20
305.964341141238
 30
0.0
 40
2.444193999999999
 41
0.0
 71
     1
 72
     2
  1
\W1.02;\fOsaka|b0|i0|c128;250A
  7
STD
 73
     1
 44
1.0
1001
ACAD
1000
MTEXTBEGIN
1070
    73
1070
     1
1070
    44
1040
1.0
1070
    74
1070
     0
1000
MTEXTEND
  0
MTEXT
  5
AE
330
AC
100
AcDbEntity
  8
レイヤー_5
 62
     7
100
AcDbMText
 10
199.3344311279468
 20
298.8836361412378
 30
0.0
 40
2.444193999999999
 41
0.0
 71
     1
 72
     2
  1
\W1.02;\fOsaka|b0|i0|c128;S400-NF
  7
STD
 73
     1
 44
1.0
1001
ACAD
1000
MTEXTBEGIN
1070
    73
1070
     1
1070
    44
1040
1.0
1070
    74
1070
     0
1000
MTEXTEND
  0
MTEXT
  5
AF
330
AC
100
AcDbEntity
  8
レイヤー_5
 62
     7
100
AcDbMText
 10
182.4982491279468
 20
293.5339201412379
 30
0.0
 40
2.444193999999999
 41
0.0
 71
     1
 72
     2
  1
\W1.02;\fOsaka|b0|i0|c128;S400-GF
  7
STD
 73
     1
 44
1.0
1001
ACAD
1000
MTEXTBEGIN
1070
    73
1070
     1
1070
    44
1040
1.0
1070
    74
1070
     0
1000
MTEXTEND
  0
MTEXT
  5
B0
330
AC
100
AcDbEntity
  8
レイヤー_5
 62
     7
100
AcDbMText
 10
182.4982491279468
 20
298.8836361412378
 30
0.0
 40
2.444193999999999
 41
0.0
 71
     1
 72
     2
  1
\W1.02;\fOsaka|b0|i0|c128;S400-CF,
  7
STD
 73
     1
 44
1.0
1001
ACAD
1000
MTEXTBEGIN
1070
    73
1070
     1
1070
    44
1040
1.0
1070
    74
1070
     0
1000
MTEXTEND
  0
MTEXT
  5
B1
330
AC
100
AcDbEntity
  8
レイヤー_5
 62
     7
100
AcDbMText
 10
0.0000001279469739
 20
7.306595141238047
 30
0.0
 40
7.306594999999997
 41
0.0
 71
     1
 72
     2
  1
\fRyumin Light|b0|i0|c128;SX4250
  7
STD
 73
     1
 44
1.0
1001
ACAD
1000
MTEXTBEGIN
1070
    73
1070
     1
1070
    44
1040
1.0
1070
    74
1070
     0
1000
MTEXTEND
  0
SPLINE
  5
B2
330
AC
100
AcDbEntity
  8
VPORT-BORDERS
 62
     7
100
AcDbSpline
210
0.0
220
0.0
230
1.0
 70
     8
 71
     3
 72
    17
 73
    13
 74
     0
 42
0.0000000001
 43
0.0000000001
 40
0.0
 40
0.0
 40
0.0
 40
0.0
 40
1.0
 40
1.0
 40
1.0
 40
2.0
 40
2.0
 40
2.0
 40
3.0
 40
3.0
 40
3.0
 40
4.0
 40
4.0
 40
4.0
 40
4.0
 10
159.9146148397523
 20
66.83037416380748
 30
0.0
 10
150.4685075263844
 20
67.28478225842554
 30
0.0
 10
144.4220204387105
 20
67.79706795721027
 30
0.0
 10
133.4573150350649
 20
69.23195022717554
 30
0.0
 10
119.8684803996483
 20
71.0103085171061
 30
0.0
 10
108.1572228041622
 20
75.07310962387693
 30
0.0
 10
108.1572228041622
 20
96.18327672457136
 30
0.0
 10
108.1572228041622
 20
110.6471656134601
 30
0.0
 10
108.1572228041622
 20
163.4914852749186
 30
0.0
 10
108.1572228041622
 20
170.547040830474
 30
0.0
 10
108.1572228041622
 20
177.6024241312553
 30
0.0
 10
106.9600521227384
 20
183.9525963860297
 30
0.0
 10
103.9614410116274
 20
189.9498186082519
 30
0.0
  0
SPLINE
  5
B3
330
AC
100
AcDbEntity
  8
VPORT-BORDERS
 62
     7
100
AcDbSpline
210
0.0
220
0.0
230
1.0
 70
     8
 71
     3
 72
    23
 73
    19
 74
     0
 42
0.0000000001
 43
0.0000000001
 40
0.0
 40
0.0
 40
0.0
 40
0.0
 40
1.0
 40
1.0
 40
1.0
 40
2.0
 40
2.0
 40
2.0
 40
3.0
 40
3.0
 40
3.0
 40
4.0
 40
4.0
 40
4.0
 40
5.0
 40
5.0
 40
5.0
 40
6.0
 40
6.0
 40
6.0
 40
6.0
 10
76.43857317308586
 20
314.1275963860296
 30
0.0
 10
76.43857317308586
 20
314.1275963860296
 30
0.0
 10
76.43857317308586
 20
308.1891130418457
 30
0.0
 10
76.43857317308586
 20
300.6043908196232
 30
0.0
 10
76.43857317308586
 20
286.0228519198837
 30
0.0
 10
81.20658532586363
 20
257.9802914272623
 30
0.0
 10
83.02352868523863
 20
250.9803741638071
 30
0.0
 10
88.40338979634973
 20
230.254679719363
 30
0.0
 10
98.51440053853723
 20
201.2387074971408
 30
0.0
 10
103.9614410116274
 20
189.9498186082519
 30
0.0
 10
114.4996435940927
 20
168.1092912645019
 30
0.0
 10
121.1876074612803
 20
166.6075741421058
 30
0.0
 10
121.1876074612803
 20
153.3784074754394
 30
0.0
 10
121.1876074612803
 20
140.1492408087727
 30
0.0
 10
121.1876074612803
 20
106.5092614250919
 30
0.0
 10
121.1876074612803
 20
94.33842809175889
 30
0.0
 10
121.1876074612803
 20
76.9176137471408
 30
0.0
 10
121.9799794230858
 20
71.69105938516165
 30
0.0
 10
131.4078277303775
 20
69.53925274453665
 30
0.0
  0
MTEXT
  5
B4
330
AC
100
AcDbEntity
  8
VPORT-BORDERS
 62
     7
100
AcDbMText
 10
23.60476112794696
 20
55.20169714123804
 30
0.0
 40
2.444193999999999
 41
0.0
 71
     1
 72
     2
  1
\W1.02;\fOsaka|b0|i0|c128;0.01S
  7
STD
 73
     1
 44
1.0
1001
ACAD
1000
MTEXTBEGIN
1070
    73
1070
     1
1070
    44
1040
1.0
1070
    74
1070
     0
1000
MTEXTEND
  0
LINE
  5
B5
330
AC
100
AcDbEntity
  8
VPORT-BORDERS
 62
     7
100
AcDbLine
 10
228.7186841279468
 20
53.76140414123804
 30
0.0
 11
34.37619612794696
 21
53.76140414123804
 31
0.0
  0
LINE
  5
B6
330
AC
100
AcDbEntity
  8
VPORT-BORDERS
 62
     7
100
AcDbLine
 10
34.37619612794696
 20
314.161875141238
 30
0.0
 11
34.37619612794696
 21
53.76140414123804
 31
0.0
  0
LINE
  5
B7
330
AC
100
AcDbEntity
  8
VPORT-BORDERS
 62
     7
100
AcDbLine
 10
60.57614812794696
 20
314.161875141238
 30
0.0
 11
60.57614812794696
 21
53.76140414123804
 31
0.0
  0
LINE
  5
B8
330
AC
100
AcDbEntity
  8
VPORT-BORDERS
 62
     7
100
AcDbLine
 10
47.47617212794696
 20
314.161875141238
 30
0.0
 11
47.47617212794696
 21
53.76140414123804
 31
0.0
  0
MTEXT
  5
B9
330
AC
100
AcDbEntity
  8
VPORT-BORDERS
 62
     7
100
AcDbMText
 10
59.61403412794695
 20
38.97608814123805
 30
0.0
 40
2.444193999999999
 41
0.0
 71
     1
 72
     2
  1
\fOsaka|b0|i0|c128;110V
  7
STD
 11
0.0
 21
1.0
 31
0.0
 73
     1
 44
1.0
1001
ACAD
1000
MTEXTBEGIN
1070
    73
1070
     1
1070
    44
1040
1.0
1070
    74
1070
     0
1000
MTEXTEND
  0
MTEXT
  5
BA
330
AC
100
AcDbEntity
  8
VPORT-BORDERS
 62
     7
100
AcDbMText
 10
32.93211412794696
 20
38.97608814123805
 30
0.0
 40
2.444193999999999
 41
0.0
 71
     1
 72
     2
  1
\fOsaka|b0|i0|c128;440V
  7
STD
 11
0.0
 21
1.0
 31
0.0
 73
     1
 44
1.0
1001
ACAD
1000
MTEXTBEGIN
1070
    73
1070
     1
1070
    44
1040
1.0
1070
    74
1070
     0
1000
MTEXTEND
  0
MTEXT
  5
BB
330
AC
100
AcDbEntity
  8
VPORT-BORDERS
 62
     7
100
AcDbMText
 10
46.03209012794695
 20
38.97608814123805
 30
0.0
 40
2.444193999999999
 41
0.0
 71
     1
 72
     2
  1
\fOsaka|b0|i0|c128;220V
  7
STD
 11
0.0
 21
1.0
 31
0.0
 73
     1
 44
1.0
1001
ACAD
1000
MTEXTBEGIN
1070
    73
1070
     1
1070
    44
1040
1.0
1070
    74
1070
     0
1000
MTEXTEND
  0
ENDBLK
  5
BD
330
AC
100
AcDbEntity
  8
0
100
AcDbBlockEnd
  0
BLOCK
  5
156
330
D1
100
AcDbEntity
  8
0
100
AcDbBlockBegin
  2
A$C29F15CBE
 70
     0
 10
0.0
 20
0.0
 30
0.0
  3
A$C29F15CBE
  1

  0
TEXT
  5
D2
330
D1
100
AcDbEntity
  8
23
  6
Continuous
 62
     3
100
AcDbText
 10
43.39993499999979
 20
276.6340526666665
 30
0.0
 40
3.910714999999981
  1
Time/Current characteristic curves
 41
0.7
 11
43.39993499999979
 21
275.3304809999999
 31
0.0
100
AcDbText
 73
     1
  0
LINE
  5
D3
330
D1
100
AcDbEntity
  8
24
  6
Continuous
 62
     1
100
AcDbLine
 10
181.2428559999998
 20
0.0
 30
0.0
 11
0.0
 21
0.0
 31
0.0
  0
LINE
  5
D4
330
D1
100
AcDbEntity
  8
24
  6
Continuous
 62
     1
100
AcDbLine
 10
181.2428559999998
 20
13.06518099999999
 30
0.0
 11
0.0
 21
13.06518099999999
 31
0.0
  0
LINE
  5
D5
330
D1
100
AcDbEntity
  8
24
  6
Continuous
 62
     1
100
AcDbLine
 10
181.2428559999998
 20
20.707091
 30
0.0
 11
0.0
 21
20.707091
 31
0.0
  0
LINE
  5
D6
330
D1
100
AcDbEntity
  8
24
  6
Continuous
 62
     1
100
AcDbLine
 10
181.2428559999998
 20
26.12967199999999
 30
0.0
 11
0.0
 21
26.12967199999999
 31
0.0
  0
LINE
  5
D7
330
D1
100
AcDbEntity
  8
24
  6
Continuous
 62
     1
100
AcDbLine
 10
181.2428559999998
 20
30.33544399999999
 30
0.0
 11
0.0
 21
30.33544399999999
 31
0.0
  0
LINE
  5
D8
330
D1
100
AcDbEntity
  8
24
  6
Continuous
 62
     1
100
AcDbLine
 10
181.2428559999998
 20
33.772272
 30
0.0
 11
0.0
 21
33.772272
 31
0.0
  0
LINE
  5
D9
330
D1
100
AcDbEntity
  8
24
  6
Continuous
 62
     1
100
AcDbLine
 10
181.2428559999998
 20
39.194163
 30
0.0
 11
0.0
 21
39.194163
 31
0.0
  0
LINE
  5
DA
330
D1
100
AcDbEntity
  8
24
  6
Continuous
 62
     1
100
AcDbLine
 10
181.2428559999998
 20
43.40062399999996
 30
0.0
 11
0.0
 21
43.40062399999996
 31
0.0
  0
LINE
  5
DB
330
D1
100
AcDbEntity
  8
24
  6
Continuous
 62
     1
100
AcDbLine
 10
181.2428559999998
 20
56.46511600000001
 30
0.0
 11
0.0
 21
56.46511600000001
 31
0.0
  0
LINE
  5
DC
330
D1
100
AcDbEntity
  8
24
  6
Continuous
 62
     1
100
AcDbLine
 10
181.2428559999998
 20
64.107026
 30
0.0
 11
0.0
 21
64.107026
 31
0.0
  0
LINE
  5
DD
330
D1
100
AcDbEntity
  8
24
  6
Continuous
 62
     1
100
AcDbLine
 10
181.2428559999998
 20
69.529607
 30
0.0
 11
0.0
 21
69.529607
 31
0.0
  0
LINE
  5
DE
330
D1
100
AcDbEntity
  8
24
  6
Continuous
 62
     1
100
AcDbLine
 10
181.2428559999998
 20
73.73537899999991
 30
0.0
 11
0.0
 21
73.73537899999991
 31
0.0
  0
LINE
  5
DF
330
D1
100
AcDbEntity
  8
24
  6
Continuous
 62
     1
100
AcDbLine
 10
181.2428559999998
 20
77.17220599999997
 30
0.0
 11
0.0
 21
77.17220599999997
 31
0.0
  0
LINE
  5
E0
330
D1
100
AcDbEntity
  8
24
  6
Continuous
 62
     1
100
AcDbLine
 10
181.2428559999998
 20
82.594098
 30
0.0
 11
0.0
 21
82.594098
 31
0.0
  0
LINE
  5
E1
330
D1
100
AcDbEntity
  8
24
  6
Continuous
 62
     1
100
AcDbLine
 10
181.2428559999998
 20
86.80055899999997
 30
0.0
 11
0.0
 21
86.80055899999997
 31
0.0
  0
LINE
  5
E2
330
D1
100
AcDbEntity
  8
24
  6
Continuous
 62
     1
100
AcDbLine
 10
181.2428559999998
 20
99.8657389999999
 30
0.0
 11
0.0
 21
99.8657389999999
 31
0.0
  0
LINE
  5
E3
330
D1
100
AcDbEntity
  8
24
  6
Continuous
 62
     1
100
AcDbLine
 10
181.2428559999998
 20
107.5076499999999
 30
0.0
 11
0.0
 21
107.5076499999999
 31
0.0
  0
LINE
  5
E4
330
D1
100
AcDbEntity
  8
24
  6
Continuous
 62
     1
100
AcDbLine
 10
181.2428559999998
 20
112.9302309999999
 30
0.0
 11
0.0
 21
112.9302309999999
 31
0.0
  0
LINE
  5
E5
330
D1
100
AcDbEntity
  8
24
  6
Continuous
 62
     1
100
AcDbLine
 10
181.2428559999998
 20
117.1360029999999
 30
0.0
 11
0.0
 21
117.1360029999999
 31
0.0
  0
LINE
  5
E6
330
D1
100
AcDbEntity
  8
24
  6
Continuous
 62
     1
100
AcDbLine
 10
181.2428559999998
 20
120.5728299999998
 30
0.0
 11
0.0
 21
120.5728299999998
 31
0.0
  0
LINE
  5
E7
330
D1
100
AcDbEntity
  8
24
  6
Continuous
 62
     1
100
AcDbLine
 10
181.2428559999998
 20
125.9948939999999
 30
0.0
 11
0.0
 21
125.9948939999999
 31
0.0
  0
LINE
  5
E8
330
D1
100
AcDbEntity
  8
24
  6
Continuous
 62
     1
100
AcDbLine
 10
181.2428559999998
 20
130.2006659999997
 30
0.0
 11
0.0
 21
130.2006659999997
 31
0.0
  0
LINE
  5
E9
330
D1
100
AcDbEntity
  8
24
  6
Continuous
 62
     1
100
AcDbLine
 10
181.2428559999998
 20
143.265502
 30
0.0
 11
0.0
 21
143.265502
 31
0.0
  0
LINE
  5
EA
330
D1
100
AcDbEntity
  8
24
  6
Continuous
 62
     1
100
AcDbLine
 10
181.2428559999998
 20
150.907757
 30
0.0
 11
0.0
 21
150.907757
 31
0.0
  0
LINE
  5
EB
330
D1
100
AcDbEntity
  8
24
  6
Continuous
 62
     1
100
AcDbLine
 10
181.2428559999998
 20
156.329993
 30
0.0
 11
0.0
 21
156.329993
 31
0.0
  0
LINE
  5
EC
330
D1
100
AcDbEntity
  8
24
  6
Continuous
 62
     1
100
AcDbLine
 10
181.2428559999998
 20
160.53611
 30
0.0
 11
0.0
 21
160.53611
 31
0.0
  0
LINE
  5
ED
330
D1
100
AcDbEntity
  8
24
  6
Continuous
 62
     1
100
AcDbLine
 10
181.2428559999998
 20
163.9725929999999
 30
0.0
 11
0.0
 21
163.9725929999999
 31
0.0
  0
LINE
  5
EE
330
D1
100
AcDbEntity
  8
24
  6
Continuous
 62
     1
100
AcDbLine
 10
181.2428559999998
 20
169.3948289999999
 30
0.0
 11
0.0
 21
169.3948289999999
 31
0.0
  0
LINE
  5
EF
330
D1
100
AcDbEntity
  8
24
  6
Continuous
 62
     1
100
AcDbLine
 10
181.2428559999998
 20
173.6006009999999
 30
0.0
 11
0.0
 21
173.6006009999999
 31
0.0
  0
LINE
  5
F0
330
D1
100
AcDbEntity
  8
24
  6
Continuous
 62
     1
100
AcDbLine
 10
181.2428559999998
 20
186.6654369999999
 30
0.0
 11
0.0
 21
186.6654369999999
 31
0.0
  0
LINE
  5
F1
330
D1
100
AcDbEntity
  8
24
  6
Continuous
 62
     1
100
AcDbLine
 10
181.2428559999998
 20
194.3076919999999
 30
0.0
 11
0.0
 21
194.3076919999999
 31
0.0
  0
LINE
  5
F2
330
D1
100
AcDbEntity
  8
24
  6
Continuous
 62
     1
100
AcDbLine
 10
181.2428559999998
 20
199.730273
 30
0.0
 11
0.0
 21
199.730273
 31
0.0
  0
LINE
  5
F3
330
D1
100
AcDbEntity
  8
24
  6
Continuous
 62
     1
100
AcDbLine
 10
181.2428559999998
 20
203.9360449999999
 30
0.0
 11
0.0
 21
203.9360449999999
 31
0.0
  0
LINE
  5
F4
330
D1
100
AcDbEntity
  8
24
  6
Continuous
 62
     1
100
AcDbLine
 10
181.2428559999998
 20
207.3725279999999
 30
0.0
 11
0.0
 21
207.3725279999999
 31
0.0
  0
LINE
  5
F5
330
D1
100
AcDbEntity
  8
24
  6
Continuous
 62
     1
100
AcDbLine
 10
181.2428559999998
 20
212.7947639999999
 30
0.0
 11
0.0
 21
212.7947639999999
 31
0.0
  0
LINE
  5
F6
330
D1
100
AcDbEntity
  8
24
  6
Continuous
 62
     1
100
AcDbLine
 10
181.2428559999998
 20
217.0008809999999
 30
0.0
 11
0.0
 21
217.0008809999999
 31
0.0
  0
LINE
  5
F7
330
D1
100
AcDbEntity
  8
24
  6
Continuous
 62
     1
100
AcDbLine
 10
181.2428559999998
 20
230.0653719999999
 30
0.0
 11
0.0
 21
230.0653719999999
 31
0.0
  0
LINE
  5
F8
330
D1
100
AcDbEntity
  8
24
  6
Continuous
 62
     1
100
AcDbLine
 10
181.2428559999998
 20
256.1946989999996
 30
0.0
 11
0.0
 21
256.1946989999996
 31
0.0
  0
LINE
  5
F9
330
D1
100
AcDbEntity
  8
24
  6
Continuous
 62
     1
100
AcDbLine
 10
181.2428559999998
 20
260.4008159999998
 30
0.0
 11
0.0
 21
260.4008159999998
 31
0.0
  0
LINE
  5
FA
330
D1
100
AcDbEntity
  8
24
  6
Continuous
 62
     1
100
AcDbLine
 10
117.1358309999999
 20
250.7724629999998
 30
0.0
 11
0.0
 21
250.7724629999998
 31
0.0
  0
LINE
  5
FB
330
D1
100
AcDbEntity
  8
24
  6
Continuous
 62
     1
100
AcDbLine
 10
117.1358309999999
 20
247.3359799999998
 30
0.0
 11
0.0
 21
247.3359799999998
 31
0.0
  0
LINE
  5
FC
330
D1
100
AcDbEntity
  8
24
  6
Continuous
 62
     1
100
AcDbLine
 10
117.1358309999999
 20
243.130207
 30
0.0
 11
0.0
 21
243.130207
 31
0.0
  0
LINE
  5
FD
330
D1
100
AcDbEntity
  8
24
  6
Continuous
 62
     1
100
AcDbLine
 10
117.1358309999999
 20
237.707972
 30
0.0
 11
0.0
 21
237.707972
 31
0.0
  0
TEXT
  5
FE
330
D1
100
AcDbEntity
  8
24
  6
Continuous
 62
     1
100
AcDbText
 10
32.42523899999999
 20
-19.82829600000002
 30
0.0
 40
3.421865999999998
  1
Current (A)
 41
0.7
 11
32.42523899999999
 21
-20.96891800000002
 31
0.0
100
AcDbText
 73
     1
  0
LINE
  5
FF
330
D1
100
AcDbEntity
  8
24
  6
Continuous
 62
     1
100
AcDbLine
 10
0.0
 20
260.4008159999998
 30
0.0
 11
0.0
 21
0.0
 31
0.0
  0
LINE
  5
100
330
D1
100
AcDbEntity
  8
24
  6
Continuous
 62
     1
100
AcDbLine
 10
7.642600000000001
 20
260.4008159999998
 30
0.0
 11
7.642600000000001
 21
0.0
 31
0.0
  0
LINE
  5
101
330
D1
100
AcDbEntity
  8
24
  6
Continuous
 62
     1
100
AcDbLine
 10
17.27060799999988
 20
260.4008159999998
 30
0.0
 11
17.27060799999988
 21
0.0
 31
0.0
  0
LINE
  5
102
330
D1
100
AcDbEntity
  8
24
  6
Continuous
 62
     1
100
AcDbLine
 10
26.12932699999999
 20
260.4008159999998
 30
0.0
 11
26.12932699999999
 21
0.0
 31
0.0
  0
LINE
  5
103
330
D1
100
AcDbEntity
  8
24
  6
Continuous
 62
     1
100
AcDbLine
 10
30.33544399999989
 20
260.4008159999998
 30
0.0
 11
30.33544399999989
 21
0.0
 31
0.0
  0
LINE
  5
104
330
D1
100
AcDbEntity
  8
24
  6
Continuous
 62
     1
100
AcDbLine
 10
43.39993499999979
 20
260.4008159999998
 30
0.0
 11
43.39993499999979
 21
0.0
 31
0.0
  0
TEXT
  5
105
330
D1
100
AcDbEntity
  8
24
  6
Continuous
 62
     1
100
AcDbText
 10
-13.546066
 20
88.392882
 30
0.0
 40
3.421865999999993
  1
Operating time (sec)
 50
90.0
 41
0.7
 11
-12.405444
 21
88.392882
 31
0.0
100
AcDbText
 73
     1
  0
TEXT
  5
106
330
D1
100
AcDbEntity
  8
200
  6
Continuous
 62
     1
100
AcDbText
 10
-9.258413555151078
 20
19.45709099999987
 30
0.0
 40
2.5
  1
0.03
 41
0.6
 72
     2
 11
-5.258413555151078
 21
20.70709099999987
 31
0.0
100
AcDbText
 73
     2
  0
TEXT
  5
107
330
D1
100
AcDbEntity
  8
200
  6
Continuous
 62
     1
100
AcDbText
 10
1.249999999999957
 20
-5.166666666666666
 30
0.0
 40
2.5
  1
2
 50
90.0
 41
0.7
 72
     2
 11
-0.0000000000000426
 21
-4.0
 31
0.0
100
AcDbText
 73
     2
  0
TEXT
  5
108
330
D1
100
AcDbEntity
  8
200
  6
Continuous
 62
     1
100
AcDbText
 10
-9.259367750161601
 20
11.81518099999985
 30
0.0
 40
2.5
  1
0.02
 41
0.6
 72
     2
 11
-5.259367750161601
 21
13.06518099999985
 31
0.0
100
AcDbText
 73
     2
  0
TEXT
  5
109
330
D1
100
AcDbEntity
  8
200
  6
Continuous
 62
     1
100
AcDbText
 10
-8.760999113331504
 20
-1.250000000000142
 30
0.0
 40
2.5
  1
0.01
 41
0.6
 72
     2
 11
-5.260999113331505
 21
-0.0000000000001421
 31
0.0
100
AcDbText
 73
     2
  0
TEXT
  5
10A
330
D1
100
AcDbEntity
  8
200
  6
Continuous
 62
     1
100
AcDbText
 10
27.3793269999999
 20
-5.166666666666666
 30
0.0
 40
2.5
  1
8
 50
90.0
 41
0.7
 72
     2
 11
26.1293269999999
 21
-4.0
 31
0.0
100
AcDbText
 73
     2
  0
TEXT
  5
10B
330
D1
100
AcDbEntity
  8
200
  6
Continuous
 62
     1
100
AcDbText
 10
18.52060799999988
 20
-5.166666666666666
 30
0.0
 40
2.5
  1
5
 50
90.0
 41
0.7
 72
     2
 11
17.27060799999988
 21
-4.0
 31
0.0
100
AcDbText
 73
     2
  0
TEXT
  5
10C
330
D1
100
AcDbEntity
  8
200
  6
Continuous
 62
     1
100
AcDbText
 10
8.892599999999902
 20
-5.166666666666666
 30
0.0
 40
2.5
  1
3
 50
90.0
 41
0.7
 72
     2
 11
7.642599999999902
 21
-4.0
 31
0.0
100
AcDbText
 73
     2
  0
TEXT
  5
10D
330
D1
100
AcDbEntity
  8
200
  6
Continuous
 62
     1
100
AcDbText
 10
44.64993499999989
 20
-6.625
 30
0.0
 40
2.5
  1
20
 50
90.0
 41
0.7
 72
     2
 11
43.39993499999989
 21
-4.0
 31
0.0
100
AcDbText
 73
     2
  0
TEXT
  5
10E
330
D1
100
AcDbEntity
  8
200
  6
Continuous
 62
     1
100
AcDbText
 10
31.58544399999989
 20
-6.041666666666666
 30
0.0
 40
2.5
  1
10
 50
90.0
 41
0.7
 72
     2
 11
30.33544399999989
 21
-4.0
 31
0.0
100
AcDbText
 73
     2
  0
TEXT
  5
10F
330
D1
100
AcDbEntity
  8
200
  6
Continuous
 62
     1
100
AcDbText
 10
-8.002317408877701
 20
68.27960699999978
 30
0.0
 40
2.5
  1
0.4
 41
0.6
 72
     2
 11
-5.252317408877701
 21
69.52960699999978
 31
0.0
100
AcDbText
 73
     2
  0
TEXT
  5
110
330
D1
100
AcDbEntity
  8
200
  6
Continuous
 62
     1
100
AcDbText
 10
-9.25773647314746
 20
24.87967199999988
 30
0.0
 40
2.5
  1
0.04
 41
0.6
 72
     2
 11
-5.25773647314746
 21
26.12967199999988
 31
0.0
100
AcDbText
 73
     2
  0
TEXT
  5
111
330
D1
100
AcDbEntity
  8
200
  6
Continuous
 62
     1
100
AcDbText
 10
-9.257211326075875
 20
29.08544399999984
 30
0.0
 40
2.5
  1
0.05
 41
0.6
 72
     2
 11
-5.257211326075875
 21
30.33544399999984
 31
0.0
100
AcDbText
 73
     2
  0
TEXT
  5
112
330
D1
100
AcDbEntity
  8
200
  6
Continuous
 62
     1
100
AcDbText
 10
-7.505579963030853
 20
42.15062399999984
 30
0.0
 40
2.5
  1
0.1
 41
0.6
 72
     2
 11
-5.255579963030853
 21
43.40062399999984
 31
0.0
100
AcDbText
 73
     2
  0
TEXT
  5
113
330
D1
100
AcDbEntity
  8
200
  6
Continuous
 62
     1
100
AcDbText
 10
-8.003948685891828
 20
55.21511599999985
 30
0.0
 40
2.5
  1
0.2
 41
0.6
 72
     2
 11
-5.253948685891828
 21
56.46511599999985
 31
0.0
100
AcDbText
 73
     2
  0
TEXT
  5
114
330
D1
100
AcDbEntity
  8
200
  6
Continuous
 62
     1
100
AcDbText
 10
-8.002994490881292
 20
62.85702599999979
 30
0.0
 40
2.5
  1
0.3
 41
0.6
 72
     2
 11
-5.252994490881292
 21
64.10702599999979
 31
0.0
100
AcDbText
 73
     2
  0
TEXT
  5
115
330
D1
100
AcDbEntity
  8
200
  6
Continuous
 62
     1
100
AcDbText
 10
-8.001792261806127
 20
72.48537899999971
 30
0.0
 40
2.5
  1
0.5
 41
0.6
 72
     2
 11
-5.251792261806127
 21
73.73537899999971
 31
0.0
100
AcDbText
 73
     2
  0
TEXT
  5
116
330
D1
100
AcDbEntity
  8
200
  6
Continuous
 62
     1
100
AcDbText
 10
-5.748529535716
 20
85.5505589999999
 30
0.0
 40
2.5
  1
1
 41
0.6
 72
     2
 11
-5.248529535716
 21
86.8005589999999
 31
0.0
100
AcDbText
 73
     2
  0
TEXT
  5
117
330
D1
100
AcDbEntity
  8
200
  6
Continuous
 62
     1
100
AcDbText
 10
-6.247575340580623
 20
106.2576499999997
 30
0.0
 40
2.5
  1
3
 41
0.6
 72
     2
 11
-5.247575340580623
 21
107.5076499999997
 31
0.0
100
AcDbText
 73
     2
  0
TEXT
  5
118
330
D1
100
AcDbEntity
  8
200
  6
Continuous
 62
     1
100
AcDbText
 10
-6.248529535716
 20
98.6157389999998
 30
0.0
 40
2.5
  1
2
 41
0.6
 72
     2
 11
-5.248529535716
 21
99.8657389999998
 31
0.0
100
AcDbText
 73
     2
  0
TEXT
  5
119
330
D1
100
AcDbEntity
  8
200
  6
Continuous
 62
     1
100
AcDbText
 10
-6.24689825857699
 20
111.6802309999999
 30
0.0
 40
2.5
  1
4
 41
0.6
 72
     2
 11
-5.24689825857699
 21
112.9302309999999
 31
0.0
100
AcDbText
 73
     2
  0
TEXT
  5
11A
330
D1
100
AcDbEntity
  8
200
  6
Continuous
 62
     1
100
AcDbText
 10
-6.24637311150542
 20
115.8860029999997
 30
0.0
 40
2.5
  1
5
 41
0.6
 72
     2
 11
-5.24637311150542
 21
117.1360029999997
 31
0.0
100
AcDbText
 73
     2
  0
TEXT
  5
11B
330
D1
100
AcDbEntity
  8
200
  6
Continuous
 62
     1
100
AcDbText
 10
-6.994741813014782
 20
128.9506659999997
 30
0.0
 40
2.5
  1
10
 41
0.6
 72
     2
 11
-5.244741813014782
 21
130.2006659999997
 31
0.0
100
AcDbText
 73
     2
  0
TEXT
  5
11C
330
D1
100
AcDbEntity
  8
200
  6
Continuous
 62
     1
100
AcDbText
 10
-7.493110492922721
 20
142.0155019999998
 30
0.0
 40
2.5
  1
20
 41
0.6
 72
     2
 11
-5.243110492922721
 21
143.2655019999998
 31
0.0
100
AcDbText
 73
     2
  0
TEXT
  5
11D
330
D1
100
AcDbEntity
  8
200
  6
Continuous
 62
     1
100
AcDbText
 10
-7.49215625483437
 20
149.6577569999998
 30
0.0
 40
2.5
  1
30
 41
0.6
 72
     2
 11
-5.24215625483437
 21
150.9077569999998
 31
0.0
100
AcDbText
 73
     2
  0
TEXT
  5
11E
330
D1
100
AcDbEntity
  8
200
  6
Continuous
 62
     1
100
AcDbText
 10
-7.491479215908582
 20
155.0799929999998
 30
0.0
 40
2.5
  1
40
 41
0.6
 72
     2
 11
-5.241479215908582
 21
156.3299929999998
 31
0.0
100
AcDbText
 73
     2
  0
TEXT
  5
11F
330
D1
100
AcDbEntity
  8
200
  6
Continuous
 62
     1
100
AcDbText
 10
-7.490524934742293
 20
162.7225929999998
 30
0.0
 40
2.5
  1
60
 41
0.6
 72
     2
 11
-5.240524934742293
 21
163.9725929999998
 31
0.0
100
AcDbText
 73
     2
  0
TEXT
  5
120
330
D1
100
AcDbEntity
  8
200
  6
Continuous
 62
     1
100
AcDbText
 10
-7.490954025759123
 20
159.2861099999998
 30
0.0
 40
2.5
  1
50
 41
0.6
 72
     2
 11
-5.240954025759123
 21
160.5361099999998
 31
0.0
100
AcDbText
 73
     2
  0
TEXT
  5
121
330
D1
100
AcDbEntity
  8
200
  6
Continuous
 62
     1
100
AcDbText
 10
-8.736737190564554
 20
193.0576919999995
 30
0.0
 40
2.5
  1
300
 41
0.6
 72
     2
 11
-5.236737190564554
 21
194.3076919999995
 31
0.0
100
AcDbText
 73
     2
  0
TEXT
  5
122
330
D1
100
AcDbEntity
  8
200
  6
Continuous
 62
     1
100
AcDbText
 10
-8.239322748744982
 20
172.3506009999998
 30
0.0
 40
2.5
  1
100
 41
0.6
 72
     2
 11
-5.239322748744981
 21
173.6006009999998
 31
0.0
100
AcDbText
 73
     2
  0
TEXT
  5
123
330
D1
100
AcDbEntity
  8
200
  6
Continuous
 62
     1
100
AcDbText
 10
-8.737691428652951
 20
185.4154369999998
 30
0.0
 40
2.5
  1
200
 41
0.6
 72
     2
 11
-5.237691428652951
 21
186.6654369999998
 31
0.0
100
AcDbText
 73
     2
  0
TEXT
  5
124
330
D1
100
AcDbEntity
  8
200
  6
Continuous
 62
     1
100
AcDbText
 10
-9.483903641397303
 20
215.7508809999997
 30
0.0
 40
2.5
  1
1000
 41
0.6
 72
     2
 11
-5.233903641397303
 21
217.0008809999997
 31
0.0
100
AcDbText
 73
     2
  0
TEXT
  5
125
330
D1
100
AcDbEntity
  8
200
  6
Continuous
 62
     1
100
AcDbText
 10
-8.735534961489364
 20
202.6860449999999
 30
0.0
 40
2.5
  1
500
 41
0.6
 72
     2
 11
-5.235534961489363
 21
203.9360449999999
 31
0.0
100
AcDbText
 73
     2
  0
TEXT
  5
126
330
D1
100
AcDbEntity
  8
200
  6
Continuous
 62
     1
100
AcDbText
 10
-8.736060108560934
 20
198.4802729999998
 30
0.0
 40
2.5
  1
400
 41
0.6
 72
     2
 11
-5.236060108560933
 21
199.7302729999998
 31
0.0
100
AcDbText
 73
     2
  0
TEXT
  5
127
330
D1
100
AcDbEntity
  8
23
  6
Continuous
 62
     3
100
AcDbText
 10
0.0000000000000001
 20
276.6340526666665
 30
0.0
 40
3.910714999999981
  1
TemBreak2
 41
0.7
 11
0.0
 21
275.3304809999999
 31
0.0
100
AcDbText
 73
     1
  0
TEXT
  5
128
330
D1
100
AcDbEntity
  8
200
  6
Continuous
 62
     1
100
AcDbText
 10
-9.980771491001688
 20
241.8728553743641
 30
0.0
 40
2.5
  1
4000
 41
0.6
 72
     2
 11
-5.230771491001688
 21
243.1228553743641
 31
0.0
100
AcDbText
 73
     2
  0
TEXT
  5
129
330
D1
100
AcDbEntity
  8
200
  6
Continuous
 62
     1
100
AcDbText
 10
-9.981448551393356
 20
236.4506203743642
 30
0.0
 40
2.5
  1
3000
 41
0.6
 72
     2
 11
-5.231448551393356
 21
237.7006203743642
 31
0.0
100
AcDbText
 73
     2
  0
TEXT
  5
12A
330
D1
100
AcDbEntity
  8
200
  6
Continuous
 62
     1
100
AcDbText
 10
-9.98227236438316
 20
228.8153719999997
 30
0.0
 40
2.5
  1
2000
 41
0.6
 72
     2
 11
-5.232272364383161
 21
230.0653719999997
 31
0.0
100
AcDbText
 73
     2
  0
TEXT
  5
12B
330
D1
100
AcDbEntity
  8
200
  6
Continuous
 62
     1
100
AcDbText
 10
-10.72850376865692
 20
258.9971158246213
 30
0.0
 40
2.5
  1
10000
 41
0.6
 72
     2
 11
-5.228503768656921
 21
260.2471158246213
 31
0.0
100
AcDbText
 73
     2
  0
TEXT
  5
12C
330
D1
100
AcDbEntity
  8
200
  6
Continuous
 62
     1
100
AcDbText
 10
-9.980246322336924
 20
246.078628374364
 30
0.0
 40
2.5
  1
5000
 41
0.6
 72
     2
 11
-5.230246322336924
 21
247.328628374364
 31
0.0
100
AcDbText
 73
     2
  0
LINE
  5
12D
330
D1
100
AcDbEntity
  8
24
  6
Continuous
 62
     1
100
AcDbLine
 10
51.042535
 20
260.4008159999998
 30
0.0
 11
51.042535
 21
0.0
 31
0.0
  0
LINE
  5
12E
330
D1
100
AcDbEntity
  8
24
  6
Continuous
 62
     1
100
AcDbLine
 10
60.67054299999998
 20
260.4008159999998
 30
0.0
 11
60.67054299999998
 21
0.0
 31
0.0
  0
LINE
  5
12F
330
D1
100
AcDbEntity
  8
24
  6
Continuous
 62
     1
100
AcDbLine
 10
69.52960600000001
 20
260.4008159999998
 30
0.0
 11
69.52960600000001
 21
0.0
 31
0.0
  0
LINE
  5
130
330
D1
100
AcDbEntity
  8
24
  6
Continuous
 62
     1
100
AcDbLine
 10
73.73572299999991
 20
260.4008159999998
 30
0.0
 11
73.73572299999991
 21
0.0
 31
0.0
  0
LINE
  5
131
330
D1
100
AcDbEntity
  8
24
  6
Continuous
 62
     1
100
AcDbLine
 10
86.80038699999995
 20
260.4008159999998
 30
0.0
 11
86.80038699999995
 21
0.0
 31
0.0
  0
LINE
  5
132
330
D1
100
AcDbEntity
  8
24
  6
Continuous
 62
     1
100
AcDbLine
 10
94.44298699999992
 20
260.4008159999998
 30
0.0
 11
94.44298699999992
 21
0.0
 31
0.0
  0
LINE
  5
133
330
D1
100
AcDbEntity
  8
24
  6
Continuous
 62
     1
100
AcDbLine
 10
104.0706499999999
 20
260.4008159999998
 30
0.0
 11
104.0706499999999
 21
0.0
 31
0.0
  0
LINE
  5
134
330
D1
100
AcDbEntity
  8
24
  6
Continuous
 62
     1
100
AcDbLine
 10
112.9300579999999
 20
260.4008159999998
 30
0.0
 11
112.9300579999999
 21
0.0
 31
0.0
  0
LINE
  5
135
330
D1
100
AcDbEntity
  8
24
  6
Continuous
 62
     1
100
AcDbLine
 10
117.1358309999999
 20
260.4008159999998
 30
0.0
 11
117.1358309999999
 21
0.0
 31
0.0
  0
LINE
  5
136
330
D1
100
AcDbEntity
  8
24
  6
Continuous
 62
     1
100
AcDbLine
 10
181.2428559999998
 20
260.4008159999998
 30
0.0
 11
181.2428559999998
 21
0.0
 31
0.0
  0
LINE
  5
137
330
D1
100
AcDbEntity
  8
24
  6
Continuous
 62
     1
100
AcDbLine
 10
130.2003219999999
 20
230.0653719999999
 30
0.0
 11
130.2003219999999
 21
0.0
 31
0.0
  0
LINE
  5
138
330
D1
100
AcDbEntity
  8
24
  6
Continuous
 62
     1
100
AcDbLine
 10
137.8429209999999
 20
230.0653719999999
 30
0.0
 11
137.8429209999999
 21
0.0
 31
0.0
  0
LINE
  5
139
330
D1
100
AcDbEntity
  8
24
  6
Continuous
 62
     1
100
AcDbLine
 10
147.471274
 20
230.0653719999999
 30
0.0
 11
147.471274
 21
0.0
 31
0.0
  0
LINE
  5
13A
330
D1
100
AcDbEntity
  8
24
  6
Continuous
 62
     1
100
AcDbLine
 10
156.3299929999999
 20
230.0653719999999
 30
0.0
 11
156.3299929999999
 21
0.0
 31
0.0
  0
LINE
  5
13B
330
D1
100
AcDbEntity
  8
24
  6
Continuous
 62
     1
100
AcDbLine
 10
160.5357649999999
 20
230.0653719999999
 30
0.0
 11
160.5357649999999
 21
0.0
 31
0.0
  0
LINE
  5
13C
330
D1
100
AcDbEntity
  8
24
  6
Continuous
 62
     1
100
AcDbLine
 10
173.600257
 20
230.0653719999999
 30
0.0
 11
173.600257
 21
0.0
 31
0.0
  0
TEXT
  5
13D
330
D1
100
AcDbEntity
  8
23
  6
Continuous
 62
     3
100
AcDbText
 10
78.428632
 20
-38.21649633333334
 30
0.0
 40
3.910714999999998
  1
TERASAKI ELECTRIC CO.,LTD.
 41
0.7
 11
78.428632
 21
-39.520068
 31
0.0
100
AcDbText
 73
     1
  0
TEXT
  5
13E
330
D1
100
AcDbEntity
  8
24
  6
Continuous
 62
     1
100
AcDbText
 10
91.790263
 20
-20.06220266666666
 30
0.0
 40
2.444193999999999
  1
primary ==== 6.6kV
 41
0.7
 11
91.790263
 21
-20.876934
 31
0.0
100
AcDbText
 73
     1
  0
TEXT
  5
13F
330
D1
100
AcDbEntity
  8
24
  6
Continuous
 62
     1
100
AcDbText
 10
91.790263
 20
-23.91933166666667
 30
0.0
 40
2.444193999999999
  1
secondary == 110,220,440V
 41
0.7
 11
91.790263
 21
-24.73406300000001
 31
0.0
100
AcDbText
 73
     1
  0
TEXT
  5
140
330
D1
100
AcDbEntity
  8
200
  6
Continuous
 62
     1
100
AcDbText
 10
74.98572299999991
 20
-7.499999999999999
 30
0.0
 40
2.5
  1
100
 50
90.0
 41
0.7
 72
     2
 11
73.73572299999991
 21
-4.0
 31
0.0
100
AcDbText
 73
     2
  0
TEXT
  5
141
330
D1
100
AcDbEntity
  8
200
  6
Continuous
 62
     1
100
AcDbText
 10
70.7796059999999
 20
-6.625
 30
0.0
 40
2.5
  1
80
 50
90.0
 41
0.7
 72
     2
 11
69.5296059999999
 21
-4.0
 31
0.0
100
AcDbText
 73
     2
  0
TEXT
  5
142
330
D1
100
AcDbEntity
  8
200
  6
Continuous
 62
     1
100
AcDbText
 10
61.92054299999989
 20
-6.625
 30
0.0
 40
2.5
  1
50
 50
90.0
 41
0.7
 72
     2
 11
60.67054299999989
 21
-4.0
 31
0.0
100
AcDbText
 73
     2
  0
TEXT
  5
143
330
D1
100
AcDbEntity
  8
200
  6
Continuous
 62
     1
100
AcDbText
 10
52.29253499999988
 20
-6.625
 30
0.0
 40
2.5
  1
30
 50
90.0
 41
0.7
 72
     2
 11
51.04253499999988
 21
-4.0
 31
0.0
100
AcDbText
 73
     2
  0
TEXT
  5
144
330
D1
100
AcDbEntity
  8
200
  6
Continuous
 62
     1
100
AcDbText
 10
95.69298699999992
 20
-8.083333333333332
 30
0.0
 40
2.5
  1
300
 50
90.0
 41
0.7
 72
     2
 11
94.44298699999992
 21
-4.0
 31
0.0
100
AcDbText
 73
     2
  0
TEXT
  5
145
330
D1
100
AcDbEntity
  8
200
  6
Continuous
 62
     1
100
AcDbText
 10
88.05038699999995
 20
-8.083333333333332
 30
0.0
 40
2.5
  1
200
 50
90.0
 41
0.7
 72
     2
 11
86.80038699999995
 21
-4.0
 31
0.0
100
AcDbText
 73
     2
  0
TEXT
  5
146
330
D1
100
AcDbEntity
  8
200
  6
Continuous
 62
     1
100
AcDbText
 10
118.3858309999999
 20
-8.958333333333332
 30
0.0
 40
2.5
  1
1000
 50
90.0
 41
0.7
 72
     2
 11
117.1358309999999
 21
-4.0
 31
0.0
100
AcDbText
 73
     2
  0
TEXT
  5
147
330
D1
100
AcDbEntity
  8
200
  6
Continuous
 62
     1
100
AcDbText
 10
114.1800579999997
 20
-8.083333333333332
 30
0.0
 40
2.5
  1
800
 50
90.0
 41
0.7
 72
     2
 11
112.9300579999997
 21
-4.0
 31
0.0
100
AcDbText
 73
     2
  0
TEXT
  5
148
330
D1
100
AcDbEntity
  8
200
  6
Continuous
 62
     1
100
AcDbText
 10
105.3206499999999
 20
-8.083333333333332
 30
0.0
 40
2.5
  1
500
 50
90.0
 41
0.7
 72
     2
 11
104.0706499999999
 21
-4.0
 31
0.0
100
AcDbText
 73
     2
  0
TEXT
  5
149
330
D1
100
AcDbEntity
  8
200
  6
Continuous
 62
     1
100
AcDbText
 10
139.0929209999999
 20
-9.541666666666667
 30
0.0
 40
2.5
  1
3000
 50
90.0
 41
0.7
 72
     2
 11
137.8429209999999
 21
-4.0
 31
0.0
100
AcDbText
 73
     2
  0
TEXT
  5
14A
330
D1
100
AcDbEntity
  8
200
  6
Continuous
 62
     1
100
AcDbText
 10
131.4503219999998
 20
-9.541666666666667
 30
0.0
 40
2.5
  1
2000
 50
90.0
 41
0.7
 72
     2
 11
130.2003219999998
 21
-4.0
 31
0.0
100
AcDbText
 73
     2
  0
TEXT
  5
14B
330
D1
100
AcDbEntity
  8
200
  6
Continuous
 62
     1
100
AcDbText
 10
161.8726395661999
 20
-10.48817402477792
 30
0.0
 40
2.5
  1
10000
 50
90.0
 41
0.7
 72
     2
 11
160.6226395661999
 21
-4.071507358111261
 31
0.0
100
AcDbText
 73
     2
  0
TEXT
  5
14C
330
D1
100
AcDbEntity
  8
200
  6
Continuous
 62
     1
100
AcDbText
 10
148.7212739999999
 20
-9.541666666666667
 30
0.0
 40
2.5
  1
5000
 50
90.0
 41
0.7
 72
     2
 11
147.4712739999999
 21
-4.0
 31
0.0
100
AcDbText
 73
     2
  0
TEXT
  5
14D
330
D1
100
AcDbEntity
  8
200
  6
Continuous
 62
     1
100
AcDbText
 10
157.5799929999999
 20
-9.541666666666667
 30
0.0
 40
2.5
  1
8000
 50
90.0
 41
0.7
 72
     2
 11
156.3299929999999
 21
-4.0
 31
0.0
100
AcDbText
 73
     2
  0
TEXT
  5
14E
330
D1
100
AcDbEntity
  8
200
  6
Continuous
 62
     1
100
AcDbText
 10
182.5797305662
 20
-11.07150735811126
 30
0.0
 40
2.5
  1
30000
 50
90.0
 41
0.7
 72
     2
 11
181.3297305662
 21
-4.071507358111261
 31
0.0
100
AcDbText
 73
     2
  0
TEXT
  5
14F
330
D1
100
AcDbEntity
  8
200
  6
Continuous
 62
     1
100
AcDbText
 10
174.9371315661998
 20
-11.07150735811126
 30
0.0
 40
2.5
  1
20000
 50
90.0
 41
0.7
 72
     2
 11
173.6871315661998
 21
-4.071507358111261
 31
0.0
100
AcDbText
 73
     2
  0
LINE
  5
150
330
D1
100
AcDbEntity
  8
24
  6
Continuous
 62
     1
100
AcDbLine
 10
130.2003219999999
 20
260.4008159999998
 30
0.0
 11
130.2003219999999
 21
256.1946989999996
 31
0.0
  0
LINE
  5
151
330
D1
100
AcDbEntity
  8
24
  6
Continuous
 62
     1
100
AcDbLine
 10
137.8429209999999
 20
260.4008159999998
 30
0.0
 11
137.8429209999999
 21
256.1946989999996
 31
0.0
  0
LINE
  5
152
330
D1
100
AcDbEntity
  8
24
  6
Continuous
 62
     1
100
AcDbLine
 10
147.471274
 20
260.4008159999998
 30
0.0
 11
147.471274
 21
256.1946989999996
 31
0.0
  0
LINE
  5
153
330
D1
100
AcDbEntity
  8
24
  6
Continuous
 62
     1
100
AcDbLine
 10
156.3299929999999
 20
260.4008159999998
 30
0.0
 11
156.3299929999999
 21
256.1946989999996
 31
0.0
  0
LINE
  5
154
330
D1
100
AcDbEntity
  8
24
  6
Continuous
 62
     1
100
AcDbLine
 10
160.5357649999999
 20
260.4008159999998
 30
0.0
 11
160.5357649999999
 21
256.1946989999996
 31
0.0
  0
LINE
  5
155
330
D1
100
AcDbEntity
  8
24
  6
Continuous
 62
     1
100
AcDbLine
 10
173.600257
 20
260.4008159999998
 30
0.0
 11
173.600257
 21
256.1946989999996
 31
0.0
  0
ENDBLK
  5
157
330
D1
100
AcDbEntity
  8
0
100
AcDbBlockEnd
  0
BLOCK
  5
25C
330
25A
100
AcDbEntity
  8
0
100
AcDbBlockBegin
  2
A$C563C75BC
 70
     0
 10
0.0
 20
0.0
 30
0.0
  3
A$C563C75BC
  1

  0
SPLINE
  5
25B
330
25A
100
AcDbEntity
  8
VPORT-BORDERS
 62
     7
100
AcDbSpline
210
0.0
220
0.0
230
1.0
 70
     8
 71
     3
 72
    23
 73
    19
 74
     0
 42
0.0000000001
 43
0.0000000001
 40
0.0
 40
0.0
 40
0.0
 40
0.0
 40
1.0
 40
1.0
 40
1.0
 40
2.0
 40
2.0
 40
2.0
 40
3.0
 40
3.0
 40
3.0
 40
4.0
 40
4.0
 40
4.0
 40
5.0
 40
5.0
 40
5.0
 40
6.0
 40
6.0
 40
6.0
 40
6.0
 10
42.06237704513887
 20
260.3661922447914
 30
0.0
 10
42.06237704513887
 20
260.3661922447914
 30
0.0
 10
42.06237704513887
 20
254.4277089006075
 30
0.0
 10
42.06237704513887
 20
246.8429866783854
 30
0.0
 10
42.06237704513887
 20
232.2614477786458
 30
0.0
 10
46.83038919791671
 20
204.2188872860242
 30
0.0
 10
48.64733255729166
 20
197.2189700225692
 30
0.0
 10
54.0271936684027
 20
176.4932755781249
 30
0.0
 10
64.13820441059036
 20
147.4773033559026
 30
0.0
 10
69.58524488368064
 20
136.1884144670136
 30
0.0
 10
80.12344746614578
 20
114.3478871232636
 30
0.0
 10
86.81141133333339
 20
112.846170000868
 30
0.0
 10
86.81141133333339
 20
99.61700333420118
 30
0.0
 10
86.81141133333339
 20
86.38783666753452
 30
0.0
 10
86.81141133333339
 20
52.7478572838541
 30
0.0
 10
86.81141133333339
 20
40.5770239505207
 30
0.0
 10
86.81141133333339
 20
23.15620960590258
 30
0.0
 10
87.60378329513882
 20
17.9296552439235
 30
0.0
 10
97.02900972796122
 20
15.76072910568891
 30
0.0
  0
ENDBLK
  5
25D
330
25A
100
AcDbEntity
  8
0
100
AcDbBlockEnd
  0
BLOCK
  5
262
330
25E
100
AcDbEntity
  8
0
100
AcDbBlockBegin
  2
A$C5E035E10
 70
     0
 10
0.0
 20
0.0
 30
0.0
  3
A$C5E035E10
  1

  0
XLINE
  5
25F
330
25E
100
AcDbEntity
  8
0
  6
Continuous
370
     0
100
AcDbXline
 10
0.0
 20
0.0
 30
0.0
 11
1.0
 21
0.0
 31
0.0
  0
ENDBLK
  5
263
330
25E
100
AcDbEntity
  8
0
100
AcDbBlockEnd
  0
BLOCK
  5
3C7
330
3C3
100
AcDbEntity
  8
0
100
AcDbBlockBegin
  2
A$C73C334B0
 70
     0
 10
0.0
 20
0.0
 30
0.0
  3
A$C73C334B0
  1

  0
SPLINE
  5
3C4
330
3C3
100
AcDbEntity
  8
0
100
AcDbSpline
210
0.0
220
0.0
230
1.0
 70
     8
 71
     3
 72
    24
 73
    20
 74
     0
 42
0.0000000001
 43
0.0000000001
 40
0.0
 40
0.0
 40
0.0
 40
0.0
 40
20.0094299182604
 40
40.0881661154555
 40
60.42214122292
 40
81.32124072570976
 40
102.8947857505988
 40
113.9391536217054
 40
125.2479466104155
 40
136.8380079790225
 40
142.3214431690505
 40
147.6559128245048
 40
152.8870701411708
 40
158.0485609032264
 40
168.088217004522
 40
168.088217004522
 40
168.088217004522
 40
168.088217004522
 40
188.088217004522
 40
188.088217004522
 40
188.088217004522
 40
188.088217004522
 10
0.0
 20
-0.0000000000000568
 30
0.0
 10
0.1339761517160696
 20
-6.669431359792667
 30
0.0
 10
0.4023925057773571
 20
-20.03139486096165
 30
0.0
 10
2.091380682347903
 20
-40.1207875752557
 30
0.0
 10
5.688383365047285
 20
-60.28518936538389
 30
0.0
 10
11.9137779453988
 20
-80.31907188104659
 30
0.0
 10
18.6649650508686
 20
-96.84887109050102
 30
0.0
 10
24.8829956478051
 20
-110.1055267456488
 30
0.0
 10
30.03327388393906
 20
-120.1892416404991
 30
0.0
 10
35.31292027509824
 20
-128.0838606936207
 30
0.0
 10
38.32022778713332
 20
-134.9363421126165
 30
0.0
 10
40.19836614482267
 20
-139.9487666482877
 30
0.0
 10
41.6954218377544
 20
-144.971395937929
 30
0.0
 10
43.542986651492
 20
-151.5459940323257
 30
0.0
 10
44.20000009672071
 20
-156.6426961603351
 30
0.0
 10
44.20000009672071
 20
-160.0
 30
0.0
 10
44.20000009672071
 20
-160.0
 30
0.0
 10
44.20000009672071
 20
-166.6666666666667
 30
0.0
 10
44.20000009672071
 20
-173.3333333333334
 30
0.0
 10
44.20000009672071
 20
-180.0
 30
0.0
  0
ENDBLK
  5
3C8
330
3C3
100
AcDbEntity
  8
0
100
AcDbBlockEnd
  0
ENDSEC
  0
SECTION
  2
ENTITIES
  0
MTEXT
  5
9D
330
1F
100
AcDbEntity
  8
レイヤー_5
 62
     7
100
AcDbMText
 10
134.2741470000001
 20
252.2029369999997
 30
0.0
 40
2.444193999999999
 41
0.0
 71
     1
 72
     5
  1
{\fOsaka|b0|i0|c128|p0;\W1.02;200A}
  7
STD
 73
     1
 44
1.0
1001
ACAD
1000
MTEXTBEGIN
1070
    73
1070
     1
1070
    44
1040
1.0
1070
    74
1070
     0
1000
MTEXTEND
  0
MTEXT
  5
9F
330
1F
100
AcDbEntity
  8
レイヤー_5
 62
     7
100
AcDbMText
 10
148.1220530000001
 20
239.7725159999999
 30
0.0
 40
2.444193999999999
 41
0.0
 71
     1
 72
     5
  1
\W1.02;\fOsaka|b0|i0|c128;S400-GF
  7
STD
 73
     1
 44
1.0
1001
ACAD
1000
MTEXTBEGIN
1070
    73
1070
     1
1070
    44
1040
1.0
1070
    74
1070
     0
1000
MTEXTEND
  0
MTEXT
  5
A0
330
1F
100
AcDbEntity
  8
レイヤー_5
 62
     7
100
AcDbMText
 10
148.1220530000001
 20
245.1222319999998
 30
0.0
 40
2.444193999999999
 41
0.0
 71
     1
 72
     5
  1
{\fOsaka|b0|i0|c128|p0;\W1.02;S400-CF,S400-NF}
  7
STD
 73
     1
 44
1.0
1001
ACAD
1000
MTEXTBEGIN
1070
    73
1070
     1
1070
    44
1040
1.0
1070
    74
1070
     0
1000
MTEXTEND
  0
MTEXT
  5
2AC
330
1F
100
AcDbEntity
  8
VPORT-BORDERS
 62
     7
100
AcDbMText
 10
-10.77143499999996
 20
1.440292999999995
 30
0.0
 40
2.444193999999999
 41
0.0
 71
     1
 72
     5
  1
\W1.02;\fOsaka|b0|i0|c128;0.01S
  7
STD
 73
     1
 44
1.0
1001
ACAD
1000
MTEXTBEGIN
1070
    73
1070
     1
1070
    44
1040
1.0
1070
    74
1070
     0
1000
MTEXTEND
  0
LINE
  5
2AD
330
1F
100
AcDbEntity
  8
VPORT-BORDERS
 62
     7
100
AcDbLine
 10
194.3424879999997
 20
0.0
 30
0.0
 11
-0.0000000000000568
 21
0.0
 31
0.0
  0
LINE
  5
2AE
330
1F
100
AcDbEntity
  8
VPORT-BORDERS
 62
     7
100
AcDbLine
 10
-0.0000000000000568
 20
260.400471
 30
0.0
 11
-0.0000000000000568
 21
0.0
 31
0.0
  0
LINE
  5
2AF
330
1F
100
AcDbEntity
  8
VPORT-BORDERS
 62
     7
100
AcDbLine
 10
26.19995199999996
 20
260.400471
 30
0.0
 11
26.19995199999996
 21
0.0
 31
0.0
  0
LINE
  5
2B0
330
1F
100
AcDbEntity
  8
VPORT-BORDERS
 62
     7
100
AcDbLine
 10
13.09997599999985
 20
260.400471
 30
0.0
 11
13.09997599999985
 21
0.0
 31
0.0
  0
MTEXT
  5
2B1
330
1F
100
AcDbEntity
  8
VPORT-BORDERS
 62
     7
100
AcDbMText
 10
25.23783800000004
 20
-14.78531599999996
 30
0.0
 40
2.444193999999999
 41
0.0
 71
     1
 72
     5
  1
\fOsaka|b0|i0|c128;110V
  7
STD
 11
0.0
 21
1.0
 31
0.0
 73
     1
 44
1.0
1001
ACAD
1000
MTEXTBEGIN
1070
    73
1070
     1
1070
    44
1040
1.0
1070
    74
1070
     0
1000
MTEXTEND
  0
MTEXT
  5
2B2
330
1F
100
AcDbEntity
  8
VPORT-BORDERS
 62
     7
100
AcDbMText
 10
-1.444081999999979
 20
-14.78531599999996
 30
0.0
 40
2.444193999999999
 41
0.0
 71
     1
 72
     5
  1
\fOsaka|b0|i0|c128;440V
  7
STD
 11
0.0
 21
1.0
 31
0.0
 73
     1
 44
1.0
1001
ACAD
1000
MTEXTBEGIN
1070
    73
1070
     1
1070
    44
1040
1.0
1070
    74
1070
     0
1000
MTEXTEND
  0
MTEXT
  5
2B3
330
1F
100
AcDbEntity
  8
VPORT-BORDERS
 62
     7
100
AcDbMText
 10
11.65589399999992
 20
-14.78531599999996
 30
0.0
 40
2.444193999999999
 41
0.0
 71
     1
 72
     5
  1
\fOsaka|b0|i0|c128;220V
  7
STD
 11
0.0
 21
1.0
 31
0.0
 73
     1
 44
1.0
1001
ACAD
1000
MTEXTBEGIN
1070
    73
1070
     1
1070
    44
1040
1.0
1070
    74
1070
     0
1000
MTEXTEND
  0
LWPOLYLINE
  5
51B
330
1F
100
AcDbEntity
  8
0
100
AcDbPolyline
 90
      361
 70
     0
 43
0.0
 10
38.39997599999986
 20
260.400471
 10
38.44748253035302
 20
258.8258855542382
 10
38.49537785718622
 20
257.2512925859256
 10
38.54405077697946
 20
255.676684572511
 10
38.59389008621279
 20
254.1020539914436
 10
38.64528458136623
 20
252.5273933201725
 10
38.6986230589198
 20
250.9526950361467
 10
38.75429431535354
 20
249.3779516168153
 10
38.81268714714746
 20
247.8031555396273
 10
38.8741903507816
 20
246.2282992820318
 10
38.93919272273598
 20
244.6533753214779
 10
39.00808305949063
 20
243.0783761354147
 10
39.0812501575256
 20
241.5032942012911
 10
39.15908659860143
 20
239.9281231102126
 10
39.24227815304932
 20
238.3529427114309
 10
39.33200774716573
 20
236.7779791209918
 10
39.42950648714166
 20
235.2034726298055
 10
39.53600547916808
 20
233.6296635287828
 10
39.65273582943601
 20
232.0567921088341
 10
39.78092864413639
 20
230.4850986608698
 10
39.92181502946024
 20
228.9148234758005
 10
40.07662609159853
 20
227.3462068445368
 10
40.24659293674228
 20
225.7794890579891
 10
40.43294667108244
 20
224.2149104070679
 10
40.63691840081001
 20
222.6527111826837
 10
40.85973923211597
 20
221.0931316757471
 10
41.10258863800562
 20
219.5364086710317
 10
41.36571811536582
 20
217.982715939356
 10
41.64857592271142
 20
216.4321727078649
 10
41.95058379599974
 20
214.8848964026961
 10
42.27116347118795
 20
213.3410044499876
 10
42.60973668423331
 20
211.8006142758774
 10
42.9657251710931
 20
210.2638433065034
 10
43.33855066772453
 20
208.7308089680036
 10
43.72763491008484
 20
207.2016286865157
 10
44.13239963413132
 20
205.6764198881779
 10
44.55226657582115
 20
204.155299999128
 10
44.98665747111163
 20
202.6383864455041
 10
45.43499405595996
 20
201.1257966534439
 10
45.89669789207187
 20
199.6176411242841
 10
46.37118687671656
 20
198.1138847337295
 10
46.85787542389785
 20
196.6143539316339
 10
47.35617780963145
 20
195.1188696841671
 10
47.86550830993292
 20
193.627252957499
 10
48.38528120081804
 20
192.1393247177995
 10
48.91491075830234
 20
190.6549059312385
 10
49.45381125840153
 20
189.1738175639858
 10
50.00139697713133
 20
187.6958805822113
 10
50.55708219050728
 20
186.2209159520847
 10
51.12028117454515
 20
184.748744639776
 10
51.69040820526053
 20
183.2791876114552
 10
52.26687755866908
 20
181.8120658332919
 10
52.84910351660734
 20
180.3472002736193
 10
53.43663478989792
 20
178.8844618605746
 10
54.02950226927908
 20
177.4239007218465
 10
54.62784491401523
 20
175.9656071482056
 10
55.23180168337074
 20
174.5096714304226
 10
55.84151153660999
 20
173.0561838592682
 10
56.45711343299738
 20
171.6052347255129
 10
57.07874633179728
 20
170.1569143199276
 10
57.70654919227411
 20
168.7113129332827
 10
58.34066097369221
 20
167.268520856349
 10
58.98122063531597
 20
165.8286283798971
 10
59.62836713640982
 20
164.3917257946976
 10
60.28223943623808
 20
162.9579033915213
 10
60.94297649406519
 20
161.5272514611388
 10
61.61071632687136
 20
160.0998598740907
 10
62.28542214824988
 20
158.6757405439624
 10
62.96667876105561
 20
157.2547366247419
 10
63.65402151735395
 20
155.8366692168801
 10
64.34702717558677
 20
154.4213772196127
 10
65.04571213687921
 20
153.0088885152767
 10
65.75035781804287
 20
151.5993449048263
 10
66.46125005121722
 20
150.1928902333768
 10
67.17903009483944
 20
148.7898890995633
 10
67.90525888371458
 20
147.3912773084738
 10
68.64164413436715
 20
145.9980818305982
 10
69.38987815982621
 20
144.6113182421057
 10
70.15139265093907
 20
143.2318093309302
 10
70.92740204410144
 20
141.8602171768807
 10
71.71911413592439
 20
140.497198948164
 10
72.52512546318037
 20
139.1420144696233
 10
73.33109145791262
 20
137.7869984924079
 10
74.11866595655948
 20
136.4223444246338
 10
74.86959398589224
 20
135.0382945053894
 10
75.57576773357387
 20
133.6305245701604
 10
76.2482559778382
 20
132.204979125103
 10
76.9002584616159
 20
130.7687437642334
 10
77.54296679690452
 20
129.3280161234877
 10
78.16975112924501
 20
127.881113518418
 10
78.76465786790865
 20
126.422230482135
 10
79.31176437346941
 20
124.9455726024255
 10
79.80340901613061
 20
123.4488051407703
 10
80.24568770708148
 20
121.9353549549656
 10
80.64599864663151
 20
120.4091942956366
 10
81.0088195540993
 20
118.8736252249717
 10
81.32674485038235
 20
117.3292228402455
 10
81.58934692336256
 20
115.7758687462604
 10
81.7888855494492
 20
114.213710972538
 10
81.94030640998125
 20
112.6451466046679
 10
82.06994404030659
 20
111.0737018069034
 10
82.2419114864388
 20
109.0470372623894
 42
-0.0211655793138684
 10
82.59997599999984
 20
100.5921751986807
 10
82.59997599999984
 20
80.40047099999998
 10
82.59997599999984
 20
79.68208052465616
 10
82.59997599999984
 20
78.97341013207976
 10
82.59997599999984
 20
78.2743711412278
 10
82.59997599999984
 20
77.58487487105714
 10
82.59997599999984
 20
76.90483264052473
 10
82.59997599999984
 20
76.23415576858758
 10
82.59997599999984
 20
75.57275557420254
 10
82.59997599999984
 20
74.92054337632658
 10
82.59997599999984
 20
74.27743049391665
 10
82.59997599999984
 20
73.6433282459297
 10
82.59997599999984
 20
73.01814795132266
 10
82.59997599999984
 20
72.40180092905244
 10
82.59997599999984
 20
71.79419849807598
 10
82.59997599999984
 20
71.19525197735026
 10
82.59997599999984
 20
70.60487268583219
 10
82.59997599999984
 20
70.02297194247872
 10
82.59997599999984
 20
69.44946106624678
 10
82.59997599999984
 20
68.88425137609335
 10
82.59997599999984
 20
68.32725419097528
 10
82.59997599999984
 20
67.77838082984961
 10
82.59997599999984
 20
67.23754261167323
 10
82.59997599999984
 20
66.70465085540306
 10
82.59997599999984
 20
66.17961687999605
 10
82.59997599999984
 20
65.66235200440917
 10
82.59997599999984
 20
65.15276754759931
 10
82.59997599999984
 20
64.65077482852347
 10
82.59997599999984
 20
64.15628516613856
 10
82.59997599999984
 20
63.66920987940146
 10
82.59997599999984
 20
63.18946028726924
 10
82.59997599999984
 20
62.71694770869874
 10
82.59997599999984
 20
62.25158346264689
 10
82.59997599999984
 20
61.79327886807067
 10
82.59997599999984
 20
61.34194524392703
 10
82.59997599999984
 20
60.89749390917288
 10
82.59997599999984
 20
60.45983618276515
 10
82.59997599999984
 20
60.02888338366084
 10
82.59997599999984
 20
59.60454683081678
 10
82.59997599999984
 20
59.18673784319003
 10
82.59997599999984
 20
58.77536773973748
 10
82.59997599999984
 20
58.370347839416
 10
82.59997599999984
 20
57.97158946118265
 10
82.59997599999984
 20
57.57900392399429
 10
82.59997599999984
 20
57.1925025468079
 10
82.59997599999984
 20
56.81199664858036
 10
82.59997599999984
 20
56.43739754826867
 10
82.59997599999984
 20
56.06861656482976
 10
82.59997599999984
 20
55.70556501722053
 10
82.59997599999984
 20
55.34815422439796
 10
82.59997599999984
 20
54.99629550531897
 10
82.59997599999984
 20
54.64990017894052
 10
82.59997599999984
 20
54.30887956421952
 10
82.59997599999984
 20
53.97314498011294
 10
82.59997599999984
 20
53.64260774557767
 10
82.59997599999984
 20
53.31717917957067
 10
82.59997599999984
 20
52.9967706010489
 10
82.59997599999984
 20
52.68129332896929
 10
82.59997599999984
 20
52.37065868228879
 10
82.59997599999984
 20
52.06477797996431
 10
82.59997599999984
 20
51.76356254095279
 10
82.59997599999984
 20
51.4669236842112
 10
82.59997599999984
 20
51.17477272869646
 10
82.59997599999984
 20
50.88702099336552
 10
82.59997599999984
 20
50.60357979717531
 10
82.59997599999984
 20
50.32436045908275
 10
82.59997599999984
 20
49.77823263301843
 10
82.59997599999984
 20
49.24792806682802
 10
82.59997599999984
 20
48.7327373121671
 10
82.59997599999984
 20
48.23195092069114
 10
82.59997599999984
 20
47.74485944405563
 10
82.59997599999984
 20
47.27075343391613
 10
82.59997599999984
 20
46.80892344192819
 10
82.59997599999984
 20
46.35866001974719
 10
82.59997599999984
 20
45.91925371902873
 10
82.59997599999984
 20
45.48999509142833
 10
82.59997599999984
 20
45.0701746886015
 10
82.59997599999984
 20
44.6590830622037
 10
82.59997599999984
 20
44.25601076389049
 10
82.59997599999984
 20
43.86024834531736
 10
82.59997599999984
 20
43.4710863581398
 10
82.59997599999984
 20
43.08781535401339
 10
82.59997599999984
 20
42.70972588459364
 10
82.59997599999984
 20
42.33610850153596
 10
82.59997599999984
 20
41.59945220112911
 10
82.59997599999984
 20
40.87217086603696
 10
82.59997599999984
 20
40.5102721896227
 10
82.59997599999984
 20
40.41985888901614
 10
82.59997599999984
 20
40.40855762091466
 10
82.59997599999984
 20
40.40290699402663
 10
82.59997599999984
 20
40.4014943375926
 10
82.59997599999984
 20
40.40078800938977
 10
82.59998431829062
 20
40.39802526593724
 10
82.60006595956403
 20
40.37415140297593
 10
82.60074439570646
 20
40.18422898810507
 10
82.6022365847209
 20
39.81004607224804
 10
82.60390994619433
 20
39.44333409617843
 10
82.60576538031028
 20
39.08399912542506
 10
82.6078037872522
 20
38.73194722551665
 10
82.61002606720373
 20
38.38708446198251
 10
82.61243312034833
 20
38.04931690035198
 10
82.61502584686956
 20
37.71855060615371
 10
82.61780514695097
 20
37.39469164491663
 10
82.62077192077603
 20
37.07764608217019
 10
82.62392706852827
 20
36.76731998344314
 10
82.62727149039127
 20
36.46361941426437
 10
82.63080608654851
 20
36.16645044016337
 10
82.63453175718352
 20
35.87571912666891
 10
82.63844940247986
 20
35.59133153930981
 10
82.64255992262105
 20
35.31319374361557
 10
82.64686421779058
 20
35.04121180511493
 10
82.65136318817203
 20
34.77529178933679
 10
82.65605773394891
 20
34.51533976181059
 10
82.6609487553047
 20
34.26126178806516
 10
82.66603715242299
 20
34.01296393362935
 10
82.67132382548728
 20
33.77035226403234
 10
82.67680967468113
 20
33.5333328448034
 10
82.682495600188
 20
33.30181174147134
 10
82.68838250219149
 20
33.07569501956506
 10
82.69447128087508
 20
32.85488874461373
 10
82.70076283642231
 20
32.63929898214656
 10
82.70725806901673
 20
32.42883179769246
 10
82.71395787884186
 20
32.22339325678024
 10
82.72086316608117
 20
32.0228894249392
 10
82.72797483091826
 20
31.82722636769842
 10
82.73529377353662
 20
31.63631015058684
 10
82.74282089411981
 20
31.45004683913328
 10
82.75055709285132
 20
31.26834249886702
 10
82.7585032699147
 20
31.09110319531715
 10
82.76666032549345
 20
30.91823499401261
 10
82.77502915977114
 20
30.74964396048233
 10
82.78361067293131
 20
30.58523616025536
 10
82.79240576515739
 20
30.42491765886103
 10
82.81064028754167
 20
30.11617281468557
 10
82.82973992839217
 20
29.82265795218825
 10
82.84971188917706
 20
29.54362159560134
 10
82.87056337136474
 20
29.27831226915714
 10
82.89230157642323
 20
29.02597849708786
 10
82.91493370582086
 20
28.78586880362582
 10
82.93846696102585
 20
28.55723171300332
 10
82.96290854350637
 20
28.33931574945257
 10
82.98826565473067
 20
28.13136943720598
 10
83.01454549616693
 20
27.93264130049568
 10
83.04175526928348
 20
27.74237986355405
 10
83.06990217554844
 20
27.55983365061337
 10
83.09899341643005
 20
27.38425118590584
 10
83.12903619339655
 20
27.21488099366383
 10
83.16003770791617
 20
27.05097159811953
 10
83.19200516145711
 20
26.89177152350527
 10
83.22494575548757
 20
26.73652929405335
 10
83.29377517089005
 20
26.43491246756564
 10
83.36658356586928
 20
26.14010931251454
 10
83.44351968704925
 20
25.8470858833312
 10
83.52514046816503
 20
25.55518800749576
 10
83.61211707728633
 20
25.26498722600445
 10
83.70512068794743
 20
24.97705513848712
 10
83.80482247368258
 20
24.69196334457365
 10
83.91189360802604
 20
24.41028344389378
 10
84.02700526451203
 20
24.13258703607727
 10
84.15082861667483
 20
23.85944572075408
 10
84.28403483804871
 20
23.59143109755388
 10
84.42729510216794
 20
23.32911476610661
 10
84.58128058256667
 20
23.07306832604201
 10
84.74635398012118
 20
22.82369399774041
 10
84.9215334552368
 20
22.58065572786501
 10
85.10547093433119
 20
22.34341636766169
 10
85.29681833593839
 20
22.11143876404725
 10
85.4942275785924
 20
21.88418576393866
 10
85.69635058082729
 20
21.66112021425272
 10
85.90196907720317
 20
21.44175592064261
 10
86.11070336460564
 20
21.22593586288326
 10
86.3225070072856
 20
21.01363384345541
 10
86.5373344176926
 20
20.80482399779646
 10
86.75514000827609
 20
20.59948046134377
 10
86.97587819148564
 20
20.39757736953487
 10
87.19950337977071
 20
20.19908885780711
 10
87.42596998558079
 20
20.00398906159796
 10
87.65523242136541
 20
19.81225211634478
 10
87.88724509957408
 20
19.62385215748514
 10
88.12196243265622
 20
19.43876332045636
 10
88.35933883306147
 20
19.25695974069589
 10
88.59932871323925
 20
19.07841555364115
 10
88.84188648563904
 20
18.90310489472966
 10
89.33452335690279
 20
18.56208070308588
 10
89.83688474644877
 20
18.2336802492639
 10
90.34860595387302
 20
17.91769661676329
 10
90.86932227877147
 20
17.61392288908342
 10
91.39866902074031
 20
17.32215214972376
 10
91.93628147937536
 20
17.04217748218377
 10
92.48179495427272
 20
16.77379196996281
 10
93.03484474502848
 20
16.51678869656041
 10
93.5950661512386
 20
16.27096074547592
 10
94.16209447249917
 20
16.03610120020886
 10
94.73556500840608
 20
15.81200314425859
 10
95.31511305855541
 20
15.59845966112465
 10
95.90037392254322
 20
15.39526383430643
 10
96.49098289996556
 20
15.20220874730336
 10
97.08657529041836
 20
15.01908748361489
 10
97.68678639349772
 20
14.84569312674046
 10
98.29125150879965
 20
14.68181876017957
 10
98.89960593592009
 20
14.52725746743152
 10
99.51148497445508
 20
14.38180233199591
 10
100.1265239240007
 20
14.24524643737203
 10
100.7443580841531
 20
14.1173828670594
 10
101.364622754508
 20
13.9980047045575
 10
101.9869532346617
 20
13.88690503336568
 10
102.61098482421
 20
13.78387693698346
 10
103.2363528227491
 20
13.68871349891026
 10
103.8626925298749
 20
13.60120780264543
 10
104.4896392451835
 20
13.52115293168856
 10
105.1168282682709
 20
13.448341969539
 10
105.7438948987331
 20
13.38256799969616
 10
106.3704744361662
 20
13.32362410565957
 10
106.9962021801661
 20
13.27130337092865
 10
107.6207134303289
 20
13.22539887900278
 10
108.2436434862505
 20
13.18570371338148
 10
108.8646276475271
 20
13.15201095756407
 10
109.4833012137547
 20
13.12411369505014
 10
110.0992994845293
 20
13.10180500933904
 10
110.7122577594468
 20
13.08487798393025
 10
111.3218113381033
 20
13.07312570232318
 10
111.9275955200949
 20
13.06634124801724
 10
112.5292618839003
 20
13.06430166658458
 10
112.8301914028184
 20
13.06442877768069
 10
112.9876564294867
 20
13.06448278973477
 10
113.157635426468
 20
13.06452365684106
 10
113.2492230900751
 20
13.06453947702312
 10
113.3462257577593
 20
13.0645523901494
 10
113.4494056000202
 20
13.0645625226137
 10
113.5595247873576
 20
13.06457000080962
 10
113.677345490271
 20
13.06457495113102
 10
113.8036298792599
 20
13.06457749997156
 10
113.939140124824
 20
13.06457777372498
 10
114.0846383974631
 20
13.06457589878499
 10
114.2408868676766
 20
13.06457200154534
 10
114.4086477059642
 20
13.06456620839981
 10
114.5886830828254
 20
13.06455864574201
 10
114.7817551687601
 20
13.06454943996579
 10
114.9886261342678
 20
13.06453871746481
 10
115.2100581498479
 20
13.06452660463276
 10
115.4468133860002
 20
13.06451322786347
 10
115.5711753900722
 20
13.06450610500042
 10
115.6996540132245
 20
13.06449871355062
 10
115.8323445267698
 20
13.06449106931342
 10
115.9693422020203
 20
13.06448318808793
 10
116.1107423102886
 20
13.06447508567345
 10
116.2566401228869
 20
13.0644667778692
 10
116.4071309111279
 20
13.0644582804743
 10
116.5623099463242
 20
13.06444960928803
 10
116.7222724997881
 20
13.06444078010958
 10
116.887113842832
 20
13.06443180873822
 10
117.0569292467684
 20
13.06442271097313
 10
117.2318139829098
 20
13.06441350261349
 10
117.4118633225685
 20
13.06440419945858
 10
117.5971725370568
 20
13.06439481730763
 10
117.7878368976874
 20
13.06438537195976
 10
117.983951675773
 20
13.06437587921425
 10
118.1856121426258
 20
13.06436635487034
 10
118.3929135695583
 20
13.06435681472715
  0
LWPOLYLINE
  5
51C
330
1F
100
AcDbEntity
  8
0
100
AcDbPolyline
 90
      394
 70
     0
 43
0.0
 10
38.39997599999987
 20
260.400471
 10
38.44748253035299
 20
258.8258855542382
 10
38.49537785718622
 20
257.2512925859256
 10
38.54405077697947
 20
255.676684572511
 10
38.5938900862128
 20
254.1020539914436
 10
38.64528458136624
 20
252.5273933201725
 10
38.69862305891979
 20
250.9526950361467
 10
38.75429431535354
 20
249.3779516168153
 10
38.81268714714746
 20
247.8031555396273
 10
38.8741903507816
 20
246.2282992820318
 10
38.93919272273598
 20
244.6533753214779
 10
39.00808305949062
 20
243.0783761354147
 10
39.08125015752557
 20
241.5032942012911
 10
39.15908659860143
 20
239.9281231102126
 10
39.24227815304931
 20
238.3529427114309
 10
39.33200774716573
 20
236.7779791209918
 10
39.42950648714168
 20
235.2034726298055
 10
39.53600547916808
 20
233.6296635287828
 10
39.65273582943598
 20
232.0567921088341
 10
39.78092864413639
 20
230.4850986608698
 10
39.92181502946022
 20
228.9148234758005
 10
40.07662609159853
 20
227.3462068445368
 10
40.24659293674226
 20
225.7794890579891
 10
40.43294667108244
 20
224.2149104070679
 10
40.63691840081003
 20
222.6527111826837
 10
40.85973923211599
 20
221.0931316757471
 10
41.10258863800559
 20
219.5364086710317
 10
41.36571811536582
 20
217.982715939356
 10
41.64857592271146
 20
216.4321727078649
 10
41.95058379599974
 20
214.8848964026961
 10
42.27116347118793
 20
213.3410044499876
 10
42.60973668423331
 20
211.8006142758774
 10
42.96572517109308
 20
210.2638433065034
 10
43.33855066772453
 20
208.7308089680036
 10
43.72763491008487
 20
207.2016286865157
 10
44.13239963413132
 20
205.6764198881779
 10
44.55226657582114
 20
204.155299999128
 10
44.98665747111163
 20
202.6383864455041
 10
45.43499405595996
 20
201.1257966534439
 10
45.89669789207187
 20
199.6176411242841
 10
46.37118687671658
 20
198.1138847337295
 10
46.85787542389788
 20
196.6143539316339
 10
47.35617780963145
 20
195.1188696841671
 10
47.86550830993298
 20
193.627252957499
 10
48.38528120081804
 20
192.1393247177995
 10
48.91491075830235
 20
190.6549059312385
 10
49.45381125840157
 20
189.1738175639858
 10
50.0013969771313
 20
187.6958805822113
 10
50.55708219050728
 20
186.2209159520847
 10
51.12028117454515
 20
184.748744639776
 10
51.69040820526049
 20
183.2791876114552
 10
52.26687755866908
 20
181.8120658332919
 10
52.84910351660733
 20
180.3472002736193
 10
53.43663478989792
 20
178.8844618605746
 10
54.02950226927908
 20
177.4239007218465
 10
54.62784491401521
 20
175.9656071482056
 10
55.23180168337074
 20
174.5096714304226
 10
55.84151153661001
 20
173.0561838592682
 10
56.45711343299741
 20
171.6052347255129
 10
57.07874633179727
 20
170.1569143199276
 10
57.70654919227411
 20
168.7113129332827
 10
58.34066097369219
 20
167.268520856349
 10
58.98122063531598
 20
165.8286283798971
 10
59.62836713640978
 20
164.3917257946976
 10
60.2822394362381
 20
162.9579033915213
 10
60.94297649406517
 20
161.5272514611388
 10
61.61071632687138
 20
160.0998598740907
 10
62.28542214824988
 20
158.6757405439624
 10
62.9666787610556
 20
157.2547366247419
 10
63.65402151735395
 20
155.8366692168801
 10
64.34702717558677
 20
154.4213772196127
 10
65.04571213687921
 20
153.0088885152767
 10
65.75035781804285
 20
151.5993449048263
 10
66.46125005121722
 20
150.1928902333768
 10
67.17903009483944
 20
148.7898890995633
 10
67.90525888371454
 20
147.3912773084738
 10
68.64164413436713
 20
145.9980818305982
 10
69.3898781598262
 20
144.6113182421057
 10
70.15139265093909
 20
143.2318093309302
 10
70.92740204410141
 20
141.8602171768807
 10
71.71911413592437
 20
140.497198948164
 10
72.52512546318036
 20
139.1420144696233
 10
73.33109145791262
 20
137.7869984924079
 10
74.11866595655948
 20
136.4223444246338
 10
74.86959398589227
 20
135.0382945053894
 10
75.57576773357389
 20
133.6305245701604
 10
76.2482559778382
 20
132.204979125103
 10
76.9002584616159
 20
130.7687437642334
 10
77.54296679690452
 20
129.3280161234877
 10
77.54296679690452
 20
129.3280161234877
 10
77.54296679690452
 20
129.3280161234877
 42
-0.0950269540406426
 10
80.9999759999998
 20
111.1378773354675
 10
80.9999759999998
 20
76.23415576858758
 10
80.9999759999998
 20
75.57275557420254
 10
80.9999759999998
 20
74.92054337632658
 10
80.9999759999998
 20
74.27743049391665
 10
80.9999759999998
 20
73.6433282459297
 10
80.9999759999998
 20
73.01814795132266
 10
80.9999759999998
 20
72.40180092905244
 10
80.9999759999998
 20
71.79419849807598
 10
80.9999759999998
 20
71.19525197735026
 10
80.9999759999998
 20
70.60487268583219
 10
80.9999759999998
 20
70.02297194247872
 10
80.9999759999998
 20
69.44946106624678
 10
80.9999759999998
 20
68.88425137609335
 10
80.9999759999998
 20
68.32725419097528
 10
80.9999759999998
 20
67.77838082984961
 10
80.9999759999998
 20
67.23754261167323
 10
80.9999759999998
 20
66.70465085540303
 10
80.9999759999998
 20
66.17961687999605
 10
80.9999759999998
 20
65.66235200440917
 10
80.9999759999998
 20
65.15276754759931
 10
80.9999759999998
 20
64.65077482852347
 10
80.9999759999998
 20
64.15628516613856
 10
80.9999759999998
 20
63.66920987940146
 10
80.9999759999998
 20
63.18946028726924
 10
80.9999759999998
 20
62.71694770869871
 10
80.9999759999998
 20
62.25158346264689
 10
80.9999759999998
 20
61.79327886807067
 10
80.9999759999998
 20
61.34194524392703
 10
80.9999759999998
 20
60.89749390917288
 10
80.9999759999998
 20
60.45983618276515
 10
80.9999759999998
 20
60.02888338366084
 10
80.9999759999998
 20
59.60454683081678
 10
80.9999759999998
 20
59.18673784319003
 10
80.9999759999998
 20
58.77536773973748
 10
80.9999759999998
 20
58.370347839416
 10
80.9999759999998
 20
57.97158946118265
 10
80.9999759999998
 20
57.57900392399429
 10
80.9999759999998
 20
57.19250254680787
 10
80.9999759999998
 20
56.81199664858036
 10
80.9999759999998
 20
56.43739754826867
 10
80.9999759999998
 20
56.06861656482976
 10
80.9999759999998
 20
55.70556501722053
 10
80.9999759999998
 20
55.34815422439796
 10
80.9999759999998
 20
54.99629550531897
 10
80.9999759999998
 20
54.64990017894052
 10
80.9999759999998
 20
54.30887956421952
 10
80.9999759999998
 20
53.97314498011294
 10
80.9999759999998
 20
53.64260774557767
 10
80.9999759999998
 20
53.31717917957067
 10
80.9999759999998
 20
52.99677060104889
 10
80.9999759999998
 20
52.68129332896926
 10
80.9999759999998
 20
52.37065868228876
 10
80.9999759999998
 20
52.06477797996431
 10
80.9999759999998
 20
51.76356254095279
 10
80.9999759999998
 20
51.4669236842112
 10
80.9999759999998
 20
51.17477272869646
 10
80.9999759999998
 20
50.88702099336552
 10
80.9999759999998
 20
50.60357979717531
 10
80.9999759999998
 20
50.32436045908275
 10
80.9999759999998
 20
50.04927429804482
 10
80.9999759999998
 20
49.77823263301843
 10
80.9999759999998
 20
49.5111467829605
 10
80.9999759999998
 20
49.24792806682802
 10
80.9999759999998
 20
48.98848780357791
 10
80.9999759999998
 20
48.7327373121671
 10
80.9999759999998
 20
48.48058791155249
 10
80.9999759999998
 20
48.23195092069114
 10
80.9999759999998
 20
47.98673765853985
 10
80.9999759999998
 20
47.74485944405563
 10
80.9999759999998
 20
47.50622759619543
 10
80.9999759999998
 20
47.27075343391613
 10
80.9999759999998
 20
47.03834827617474
 10
80.9999759999998
 20
46.80892344192815
 10
80.9999759999998
 20
46.58239025013332
 10
80.9999759999998
 20
46.35866001974719
 10
80.9999759999998
 20
45.91925371902873
 10
80.9999759999998
 20
45.48999509142833
 10
80.9999759999998
 20
45.07017468860146
 10
80.9999759999998
 20
44.65908306220367
 10
80.9999759999998
 20
44.25601076389045
 10
80.9999759999998
 20
43.86024834531736
 10
80.9999759999998
 20
43.4710863581398
 10
80.9999759999998
 20
43.08781535401339
 10
80.9999759999998
 20
42.70972588459364
 10
80.9999759999998
 20
42.33610850153596
 10
80.9999759999998
 20
41.96625375649595
 10
80.9999759999998
 20
41.59945220112911
 10
80.9999759999998
 20
40.87217086603696
 10
80.9999759999998
 20
40.51027218962263
 10
80.9999759999998
 20
40.41985888901614
 10
80.9999759999998
 20
40.40855762091459
 10
80.9999759999998
 20
40.40290699402658
 10
80.9999759999998
 20
40.4014943375926
 10
80.9999759999998
 20
40.40078800938977
 10
80.9999759999998
 20
40.40061142733956
 10
80.9999759999998
 20
40.40052313631457
 10
80.99998431829055
 20
40.39802526593724
 10
81.00006595956395
 20
40.37415140297593
 10
81.00074439570644
 20
40.18422898810507
 10
81.00223658472087
 20
39.81004607224804
 10
81.00390994619427
 20
39.4433340961785
 10
81.00576538031019
 20
39.08399912542506
 10
81.00780378725216
 20
38.73194722551671
 10
81.01002606720369
 20
38.38708446198257
 10
81.0124331203483
 20
38.04931690035198
 10
81.01502584686954
 20
37.71855060615371
 10
81.01780514695091
 20
37.39469164491663
 10
81.02077192077599
 20
37.07764608217019
 10
81.02392706852823
 20
36.76731998344314
 10
81.0272714903912
 20
36.46361941426443
 10
81.03080608654847
 20
36.16645044016343
 10
81.03453175718348
 20
35.87571912666891
 10
81.03844940247981
 20
35.59133153930986
 10
81.04255992262102
 20
35.31319374361557
 10
81.04686421779055
 20
35.04121180511493
 10
81.051363188172
 20
34.77529178933686
 10
81.05605773394882
 20
34.51533976181064
 10
81.06094875530466
 20
34.26126178806522
 10
81.06603715242295
 20
34.01296393362935
 10
81.07132382548725
 20
33.77035226403234
 10
81.07680967468104
 20
33.5333328448034
 10
81.08249560018798
 20
33.30181174147134
 10
81.08838250219147
 20
33.07569501956506
 10
81.09447128087504
 20
32.85488874461373
 10
81.10076283642227
 20
32.63929898214656
 10
81.10725806901667
 20
32.42883179769246
 10
81.1139578788418
 20
32.2233932567803
 10
81.12086316608111
 20
32.0228894249392
 10
81.12797483091823
 20
31.82722636769842
 10
81.13529377353655
 20
31.63631015058684
 10
81.14282089411977
 20
31.45004683913328
 10
81.15055709285128
 20
31.26834249886702
 10
81.15850326991466
 20
31.09110319531715
 10
81.16666032549344
 20
30.91823499401261
 10
81.17502915977111
 20
30.74964396048233
 10
81.18361067293127
 20
30.58523616025543
 10
81.19240576515737
 20
30.42491765886103
 10
81.20141533663298
 20
30.26859452182811
 10
81.21064028754162
 20
30.11617281468557
 10
81.22008151806685
 20
29.96755860296259
 10
81.22973992839211
 20
29.82265795218825
 10
81.23961641870103
 20
29.68137692789156
 10
81.24971188917706
 20
29.54362159560139
 10
81.26002724000379
 20
29.40929802084685
 10
81.27056337136471
 20
29.27831226915714
 10
81.2813211834433
 20
29.15057040606115
 10
81.29230157642322
 20
29.02597849708786
 10
81.30350545048788
 20
28.90444260776638
 10
81.31493370582084
 20
28.78586880362582
 10
81.32658724260563
 20
28.67016315019515
 10
81.33846696102581
 20
28.55723171300332
 10
81.36290854350631
 20
28.33931574945263
 10
81.38826565473063
 20
28.13136943720598
 10
81.41454549616694
 20
27.93264130049568
 10
81.44175526928346
 20
27.74237986355405
 10
81.46990217554835
 20
27.55983365061337
 10
81.49899341643005
 20
27.38425118590584
 10
81.52903619339651
 20
27.21488099366383
 10
81.56003770791611
 20
27.05097159811953
 10
81.59200516145707
 20
26.89177152350527
 10
81.62494575548754
 20
26.73652929405335
 10
81.69377517089001
 20
26.43491246756564
 10
81.76658356586928
 20
26.14010931251454
 10
81.84351968704921
 20
25.8470858833312
 10
81.92514046816498
 20
25.55518800749576
 10
82.0121170772863
 20
25.26498722600445
 10
82.1051206879474
 20
24.97705513848718
 10
82.20482247368257
 20
24.69196334457365
 10
82.311893608026
 20
24.41028344389378
 10
82.427005264512
 20
24.13258703607733
 10
82.5508286166748
 20
23.85944572075408
 10
82.61621692036447
 20
23.72476184766174
 10
82.68403483804869
 20
23.59143109755394
 10
82.75436626641925
 20
23.4595249203843
 10
82.82729510216787
 20
23.32911476610661
 10
82.90290524198642
 20
23.20027208467462
 10
82.98128058256663
 20
23.07306832604201
 10
83.06246976951355
 20
22.94755558414357
 10
83.14635398012114
 20
22.82369399774041
 10
83.23276471208997
 20
22.70141642702601
 10
83.32153345523673
 20
22.58065572786506
 10
83.50547093433114
 20
22.34341636766169
 10
83.69681833593835
 20
22.11143876404731
 10
83.89422757859238
 20
21.88418576393872
 10
84.09635058082725
 20
21.66112021425272
 10
84.30196907720315
 20
21.44175592064261
 10
84.5107033646056
 20
21.22593586288332
 10
84.72250700728556
 20
21.01363384345547
 10
84.93733441769256
 20
20.80482399779646
 10
85.15514000827606
 20
20.59948046134383
 10
85.3758781914856
 20
20.39757736953487
 10
85.59950337977067
 20
20.19908885780711
 10
85.82596998558075
 20
20.00398906159796
 10
86.05523242136536
 20
19.81225211634484
 10
86.28724509957399
 20
19.62385215748514
 10
86.5219624326562
 20
19.43876332045636
 10
86.75933883306145
 20
19.25695974069589
 10
86.99932871323923
 20
19.07841555364121
 10
87.24188648563901
 20
18.90310489472966
 10
87.48696656271031
 20
18.73100189939879
 10
87.7345233569027
 20
18.56208070308588
 10
87.98451128066572
 20
18.39631544122847
 10
88.23688474644873
 20
18.23368024926395
 10
88.49159816670129
 20
18.07414926262976
 10
88.74860595387298
 20
17.91769661676335
 10
89.00786252041321
 20
17.76429644710207
 10
89.26932227877149
 20
17.61392288908348
 10
89.53293964139735
 20
17.4665500781449
 10
89.7986690207403
 20
17.32215214972382
 10
90.06646482924979
 20
17.18070323925758
 10
90.3362814793753
 20
17.04217748218377
 10
90.60807338356642
 20
16.90654901393975
 10
90.88179495427269
 20
16.77379196996287
 10
91.15740060394351
 20
16.6438804856906
 10
91.43484474502844
 20
16.51678869656041
 10
91.71408178997696
 20
16.39249073800971
 10
91.99506615123857
 20
16.27096074547592
 10
92.27775224126281
 20
16.1521728543965
 10
92.56209447249908
 20
16.03610120020886
 10
92.84804725739704
 20
15.92271991835042
 10
93.13556500840606
 20
15.81200314425865
 10
93.4246021379757
 20
15.7039250133709
 10
93.71511305855536
 20
15.59845966112471
 10
94.00705218259467
 20
15.49558122295741
 10
94.30037392254318
 20
15.39526383430649
 10
94.59503269085026
 20
15.29748163060935
 10
94.89098289996553
 20
15.20220874730341
 10
95.48657529041834
 20
15.01908748361495
 10
96.08678639349768
 20
14.84569312674051
 10
96.6912515087996
 20
14.68181876017957
 10
97.29960593592002
 20
14.52725746743158
 10
97.91148497445504
 20
14.38180233199591
 10
98.52652392400074
 20
14.24524643737203
 10
99.14435808415305
 20
14.11738286705946
 10
99.76462275450804
 20
13.9980047045575
 10
100.3869532346617
 20
13.88690503336573
 10
101.01098482421
 20
13.78387693698346
 10
101.636352822749
 20
13.68871349891026
 10
102.2626925298748
 20
13.60120780264549
 10
102.8896392451835
 20
13.52115293168856
 10
103.5168282682709
 20
13.448341969539
 10
104.1438948987331
 20
13.38256799969622
 10
104.7704744361662
 20
13.32362410565963
 10
105.396202180166
 20
13.27130337092865
 10
106.0207134303288
 20
13.22539887900278
 10
106.6436434862504
 20
13.18570371338148
 10
107.2646276475271
 20
13.15201095756413
 10
107.8833012137547
 20
13.1241136950502
 10
108.4992994845292
 20
13.1018050093391
 10
109.1122577594467
 20
13.08487798393025
 10
109.7218113381033
 20
13.07312570232318
 10
110.3275955200949
 20
13.06634124801729
 10
110.9292618839002
 20
13.06430166658464
 10
111.2307346880085
 20
13.06442877768074
 10
111.3094884780294
 20
13.06445749002313
 10
111.3916998419132
 20
13.06448278973482
 10
111.4784829768031
 20
13.06450480320956
 10
111.5709520798423
 20
13.06452365684112
 10
111.6702213481737
 20
13.06453947702317
 10
111.7774049789404
 20
13.06455239014946
 10
111.8936171692855
 20
13.0645625226137
 10
112.0199721163523
 20
13.06457000080968
 10
112.0873013102634
 20
13.06457278405509
 10
112.1575840172836
 20
13.06457495113108
 10
112.2309595120557
 20
13.06457651783683
 10
112.3075670692225
 20
13.06457749997156
 10
112.387545963427
 20
13.06457791333457
 10
112.4710354693122
 20
13.06457777372498
 10
112.5581748615208
 20
13.06457709694206
 10
112.6491034146959
 20
13.06457589878499
 10
112.7439604034801
 20
13.06457419505307
 10
112.8428851025165
 20
13.0645720015454
 10
112.9460167864479
 20
13.06456933406122
 10
113.053494729917
 20
13.06456620839981
 10
113.1654582075669
 20
13.06456264036035
 10
113.2820464940407
 20
13.06455864574207
 10
113.403398863981
 20
13.06455424034413
 10
113.5296545920307
 20
13.06454943996579
 10
113.6609529528328
 20
13.06454426040631
 10
113.7974332210301
 20
13.06453871746481
 10
113.9392346712654
 20
13.06453282694059
 10
114.0864965781816
 20
13.06452660463282
 10
114.2393582164215
 20
13.06452006634072
 10
114.3979588606286
 20
13.06451322786353
 10
114.5624377854452
 20
13.06450610500042
 10
114.7329342655144
 20
13.06449871355068
 10
114.9095875754789
 20
13.06449106931342
 10
115.0925369899818
 20
13.06448318808799
 10
115.2819217836659
 20
13.06447508567351
 10
115.4778812311737
 20
13.0644667778692
 10
115.6805546071485
 20
13.0644582804743
 10
115.8900811862334
 20
13.06444960928803
 10
116.1066002430711
 20
13.06444078010958
 10
116.3302510523044
 20
13.06443180873822
 10
116.5611728885761
 20
13.06442271097313
 10
116.7995050265293
 20
13.06441350261349
 10
117.0453867408068
 20
13.06440419945858
 10
117.298957306051
 20
13.06439481730763
 10
117.5603559969052
 20
13.06438537195976
 10
117.8297220880128
 20
13.06437587921425
 10
118.1071948540162
 20
13.06436635487029
 10
118.3929135695583
 20
13.06435681472715
  0
LWPOLYLINE
  5
51D
330
1F
100
AcDbEntity
  8
0
100
AcDbPolyline
 90
      458
 70
     0
 43
0.0
 10
38.39997599999987
 20
260.400471
 10
38.44748253035299
 20
258.8258855542382
 10
38.49537785718622
 20
257.2512925859256
 10
38.54405077697947
 20
255.676684572511
 10
38.5938900862128
 20
254.1020539914436
 10
38.64528458136624
 20
252.5273933201725
 10
38.69862305891979
 20
250.9526950361467
 10
38.75429431535354
 20
249.3779516168153
 10
38.81268714714746
 20
247.8031555396273
 10
38.8741903507816
 20
246.2282992820318
 10
38.93919272273598
 20
244.6533753214779
 10
39.00808305949062
 20
243.0783761354147
 10
39.08125015752557
 20
241.5032942012911
 10
39.15908659860143
 20
239.9281231102126
 10
39.24227815304931
 20
238.3529427114309
 10
39.33200774716573
 20
236.7779791209918
 10
39.42950648714168
 20
235.2034726298055
 10
39.53600547916808
 20
233.6296635287828
 10
39.65273582943598
 20
232.0567921088341
 10
39.78092864413639
 20
230.4850986608698
 10
39.92181502946022
 20
228.9148234758005
 10
40.07662609159853
 20
227.3462068445368
 10
40.24659293674226
 20
225.7794890579891
 10
40.43294667108244
 20
224.2149104070679
 10
40.63691840081003
 20
222.6527111826837
 10
40.85973923211599
 20
221.0931316757471
 10
41.10258863800559
 20
219.5364086710317
 10
41.36571811536582
 20
217.982715939356
 10
41.64857592271146
 20
216.4321727078649
 10
41.95058379599974
 20
214.8848964026961
 10
42.27116347118793
 20
213.3410044499876
 10
42.60973668423331
 20
211.8006142758774
 10
42.96572517109308
 20
210.2638433065034
 10
43.33855066772453
 20
208.7308089680036
 10
43.72763491008487
 20
207.2016286865157
 10
44.13239963413132
 20
205.6764198881779
 10
44.55226657582114
 20
204.155299999128
 10
44.98665747111163
 20
202.6383864455041
 10
45.43499405595996
 20
201.1257966534439
 10
45.89669789207187
 20
199.6176411242841
 10
46.37118687671658
 20
198.1138847337295
 10
46.85787542389788
 20
196.6143539316339
 10
47.35617780963145
 20
195.1188696841671
 10
47.86550830993298
 20
193.627252957499
 10
48.38528120081804
 20
192.1393247177995
 10
48.91491075830235
 20
190.6549059312385
 10
49.45381125840157
 20
189.1738175639858
 10
50.0013969771313
 20
187.6958805822113
 10
50.55708219050728
 20
186.2209159520847
 10
51.12028117454515
 20
184.748744639776
 10
51.69040820526049
 20
183.2791876114552
 10
52.26687755866908
 20
181.8120658332919
 10
52.84910351660733
 20
180.3472002736193
 10
53.43663478989792
 20
178.8844618605746
 10
54.02950226927908
 20
177.4239007218465
 10
54.62784491401521
 20
175.9656071482056
 10
55.23180168337074
 20
174.5096714304226
 10
55.84151153661001
 20
173.0561838592682
 10
56.45711343299741
 20
171.6052347255129
 10
57.07874633179727
 20
170.1569143199276
 10
57.70654919227411
 20
168.7113129332827
 10
58.34066097369219
 20
167.268520856349
 10
58.98122063531598
 20
165.8286283798971
 10
59.62836713640978
 20
164.3917257946976
 10
60.2822394362381
 20
162.9579033915213
 10
60.94297649406517
 20
161.5272514611388
 10
61.61071632687138
 20
160.0998598740907
 10
62.28542214824988
 20
158.6757405439624
 10
62.9666787610556
 20
157.2547366247419
 10
63.65402151735395
 20
155.8366692168801
 10
64.34702717558677
 20
154.4213772196127
 10
65.04571213687921
 20
153.0088885152767
 10
65.75035781804285
 20
151.5993449048263
 10
66.46125005121722
 20
150.1928902333768
 10
67.17903009483944
 20
148.7898890995633
 10
67.90525888371454
 20
147.3912773084738
 10
68.64164413436713
 20
145.9980818305982
 10
69.3898781598262
 20
144.6113182421057
 10
70.15139265093909
 20
143.2318093309302
 10
70.92740204410141
 20
141.8602171768807
 10
71.71911413592437
 20
140.497198948164
 10
72.52512546318036
 20
139.1420144696233
 10
73.33109145791262
 20
137.7869984924079
 10
74.11866595655948
 20
136.4223444246338
 10
74.86959398589227
 20
135.0382945053894
 10
74.86959398589227
 20
135.0382945053894
 10
74.86959398589227
 20
135.0382945053894
 42
-0.1061983825136843
 10
79.19997599999985
 20
114.7462978886286
 10
79.19997599999985
 20
79.68208052465616
 10
79.19997599999985
 20
79.32653586058723
 10
79.19997599999985
 20
78.97341013207976
 10
79.19997599999985
 20
78.62269225400344
 10
79.19997599999985
 20
78.2743711412278
 10
79.19997599999985
 20
77.92843570862249
 10
79.19997599999985
 20
77.58487487105714
 10
79.19997599999985
 20
77.24367754340136
 10
79.19997599999985
 20
76.90483264052473
 10
79.19997599999985
 20
76.56832907729693
 10
79.19997599999985
 20
76.23415576858758
 10
79.19997599999985
 20
75.90230162926622
 10
79.19997599999985
 20
75.57275557420254
 10
79.19997599999985
 20
75.24550651826612
 10
79.19997599999985
 20
74.92054337632658
 10
79.19997599999985
 20
74.59785506325356
 10
79.19997599999985
 20
74.27743049391665
 10
79.19997599999985
 20
73.95925858318548
 10
79.19997599999985
 20
73.6433282459297
 10
79.19997599999985
 20
73.32962839701886
 10
79.19997599999985
 20
73.01814795132266
 10
79.19997599999985
 20
72.70887582371063
 10
79.19997599999985
 20
72.40180092905244
 10
79.19997599999985
 20
72.09691218221768
 10
79.19997599999985
 20
71.79419849807598
 10
79.19997599999985
 20
71.49364879149698
 10
79.19997599999985
 20
71.19525197735026
 10
79.19997599999985
 20
70.89899697050547
 10
79.19997599999985
 20
70.60487268583219
 10
79.19997599999985
 20
70.31286803820006
 10
79.19997599999985
 20
70.02297194247872
 10
79.19997599999985
 20
69.73517331353775
 10
79.19997599999985
 20
69.44946106624678
 10
79.19997599999985
 20
69.16582411547546
 10
79.19997599999985
 20
68.88425137609335
 10
79.19997599999985
 20
68.32725419097528
 10
79.19997599999985
 20
67.77838082984961
 10
79.19997599999985
 20
67.23754261167323
 10
79.19997599999985
 20
66.70465085540303
 10
79.19997599999985
 20
66.17961687999605
 10
79.19997599999985
 20
65.66235200440917
 10
79.19997599999985
 20
65.15276754759931
 10
79.19997599999985
 20
64.65077482852347
 10
79.19997599999985
 20
64.15628516613856
 10
79.19997599999985
 20
63.66920987940146
 10
79.19997599999985
 20
63.18946028726924
 10
79.19997599999985
 20
62.71694770869871
 10
79.19997599999985
 20
62.25158346264689
 10
79.19997599999985
 20
61.79327886807067
 10
79.19997599999985
 20
61.34194524392703
 10
79.19997599999985
 20
60.89749390917288
 10
79.19997599999985
 20
60.45983618276515
 10
79.19997599999985
 20
60.02888338366084
 10
79.19997599999985
 20
59.60454683081678
 10
79.19997599999985
 20
59.18673784319003
 10
79.19997599999985
 20
58.77536773973748
 10
79.19997599999985
 20
58.370347839416
 10
79.19997599999985
 20
57.97158946118265
 10
79.19997599999985
 20
57.57900392399429
 10
79.19997599999985
 20
57.19250254680787
 10
79.19997599999985
 20
56.81199664858036
 10
79.19997599999985
 20
56.43739754826867
 10
79.19997599999985
 20
56.06861656482976
 10
79.19997599999985
 20
55.70556501722053
 10
79.19997599999985
 20
55.34815422439796
 10
79.19997599999985
 20
54.99629550531897
 10
79.19997599999985
 20
54.64990017894052
 10
79.19997599999985
 20
54.30887956421952
 10
79.19997599999985
 20
53.97314498011294
 10
79.19997599999985
 20
53.64260774557767
 10
79.19997599999985
 20
53.31717917957067
 10
79.19997599999985
 20
52.99677060104889
 10
79.19997599999985
 20
52.68129332896926
 10
79.19997599999985
 20
52.37065868228876
 10
79.19997599999985
 20
52.06477797996431
 10
79.19997599999985
 20
51.76356254095279
 10
79.19997599999985
 20
51.4669236842112
 10
79.19997599999985
 20
51.17477272869646
 10
79.19997599999985
 20
50.88702099336552
 10
79.19997599999985
 20
50.60357979717531
 10
79.19997599999985
 20
50.32436045908275
 10
79.19997599999985
 20
50.04927429804482
 10
79.19997599999985
 20
49.77823263301843
 10
79.19997599999985
 20
49.5111467829605
 10
79.19997599999985
 20
49.24792806682802
 10
79.19997599999985
 20
48.98848780357791
 10
79.19997599999985
 20
48.7327373121671
 10
79.19997599999985
 20
48.48058791155249
 10
79.19997599999985
 20
48.23195092069114
 10
79.19997599999985
 20
47.98673765853985
 10
79.19997599999985
 20
47.74485944405563
 10
79.19997599999985
 20
47.50622759619543
 10
79.19997599999985
 20
47.27075343391613
 10
79.19997599999985
 20
47.03834827617474
 10
79.19997599999985
 20
46.80892344192815
 10
79.19997599999985
 20
46.58239025013332
 10
79.19997599999985
 20
46.35866001974719
 10
79.19997599999985
 20
46.13764406972665
 10
79.19997599999985
 20
45.91925371902873
 10
79.19997599999985
 20
45.70340028661028
 10
79.19997599999985
 20
45.48999509142833
 10
79.19997599999985
 20
45.27894945243974
 10
79.19997599999985
 20
45.07017468860146
 10
79.19997599999985
 20
44.86358211887046
 10
79.19997599999985
 20
44.65908306220367
 10
79.19997599999985
 20
44.25601076389045
 10
79.19997599999985
 20
43.86024834531736
 10
79.19997599999985
 20
43.4710863581398
 10
79.19997599999985
 20
43.08781535401339
 10
79.19997599999985
 20
42.70972588459364
 10
79.19997599999985
 20
42.33610850153596
 10
79.19997599999985
 20
41.96625375649595
 10
79.19997599999985
 20
41.59945220112911
 10
79.19997599999985
 20
40.87217086603696
 10
79.19997599999985
 20
40.51027218962263
 10
79.19997599999985
 20
40.41985888901614
 10
79.19997599999985
 20
40.40855762091459
 10
79.19997599999985
 20
40.40290699402658
 10
79.19997599999985
 20
40.4014943375926
 10
79.19997599999985
 20
40.40078800938977
 10
79.19997599999985
 20
40.40061142733956
 10
79.19997599999985
 20
40.40052313631457
 10
79.19997599999985
 20
40.400478990802
 10
79.19998431829061
 20
40.39802526593724
 10
79.20006595956401
 20
40.37415140297593
 10
79.20074439570647
 20
40.18422898810507
 10
79.20223658472092
 20
39.81004607224804
 10
79.20390994619435
 20
39.4433340961785
 10
79.20576538031028
 20
39.08399912542506
 10
79.2078037872522
 20
38.73194722551671
 10
79.21002606720375
 20
38.38708446198257
 10
79.21243312034836
 20
38.04931690035198
 10
79.21502584686962
 20
37.71855060615378
 10
79.21780514695099
 20
37.39469164491663
 10
79.22077192077603
 20
37.07764608217019
 10
79.22392706852829
 20
36.7673199834432
 10
79.22727149039126
 20
36.46361941426443
 10
79.23080608654853
 20
36.16645044016343
 10
79.23453175718354
 20
35.87571912666897
 10
79.23844940247987
 20
35.59133153930986
 10
79.24255992262105
 20
35.31319374361557
 10
79.24686421779059
 20
35.04121180511499
 10
79.25136318817205
 20
34.77529178933686
 10
79.25605773394892
 20
34.51533976181064
 10
79.26094875530472
 20
34.26126178806522
 10
79.26603715242302
 20
34.01296393362935
 10
79.2713238254873
 20
33.77035226403234
 10
79.27680967468113
 20
33.5333328448034
 10
79.28249560018802
 20
33.30181174147134
 10
79.28838250219151
 20
33.07569501956506
 10
79.29447128087509
 20
32.85488874461373
 10
79.30076283642231
 20
32.63929898214661
 10
79.30725806901674
 20
32.42883179769251
 10
79.31395787884184
 20
32.2233932567803
 10
79.3208631660812
 20
32.0228894249392
 10
79.32797483091826
 20
31.82722636769842
 10
79.33529377353662
 20
31.63631015058684
 10
79.34282089411981
 20
31.45004683913328
 10
79.35055709285132
 20
31.26834249886702
 10
79.3585032699147
 20
31.09110319531715
 10
79.36666032549348
 20
30.91823499401267
 10
79.37502915977117
 20
30.74964396048233
 10
79.38361067293131
 20
30.58523616025543
 10
79.39240576515745
 20
30.42491765886103
 10
79.40141533663304
 20
30.26859452182816
 10
79.41064028754168
 20
30.11617281468563
 10
79.42008151806689
 20
29.96755860296259
 10
79.4297399283922
 20
29.82265795218831
 10
79.43961641870107
 20
29.68137692789156
 10
79.44971188917711
 20
29.54362159560139
 10
79.46002724000384
 20
29.40929802084685
 10
79.47056337136475
 20
29.27831226915714
 10
79.48132118344337
 20
29.15057040606115
 10
79.49230157642325
 20
29.02597849708786
 10
79.50350545048792
 20
28.90444260776638
 10
79.51493370582089
 20
28.78586880362582
 10
79.52658724260569
 20
28.67016315019515
 10
79.53846696102586
 20
28.55723171300332
 10
79.55057376126489
 20
28.44698055757942
 10
79.56290854350638
 20
28.33931574945263
 10
79.57547220793377
 20
28.2341433541518
 10
79.58826565473067
 20
28.13136943720598
 10
79.60128978408056
 20
28.03090006414425
 10
79.61454549616695
 20
27.93264130049568
 10
79.64175526928348
 20
27.74237986355405
 10
79.66990217554844
 20
27.55983365061337
 10
79.69899341643006
 20
27.38425118590584
 10
79.72903619339655
 20
27.21488099366383
 10
79.76003770791618
 20
27.05097159811953
 10
79.79200516145711
 20
26.89177152350527
 10
79.82494575548759
 20
26.73652929405335
 10
79.85886669147581
 20
26.5844934339961
 10
79.89377517089005
 20
26.43491246756564
 10
79.96658356586933
 20
26.14010931251454
 10
80.04351968704927
 20
25.8470858833312
 10
80.12514046816503
 20
25.55518800749576
 10
80.21211707728635
 20
25.26498722600445
 10
80.30512068794745
 20
24.97705513848718
 10
80.40482247368258
 20
24.69196334457365
 10
80.45739492393241
 20
24.55066118260265
 10
80.51189360802608
 20
24.41028344389378
 10
80.56840242265534
 20
24.27090157840075
 10
80.62700526451203
 20
24.13258703607733
 10
80.68778603028798
 20
23.99541126687717
 10
80.75082861667487
 20
23.85944572075408
 10
80.81621692036454
 20
23.72476184766174
 10
80.88403483804873
 20
23.59143109755394
 10
80.95436626641927
 20
23.4595249203843
 10
81.02729510216795
 20
23.32911476610661
 10
81.10290524198646
 20
23.20027208467462
 10
81.18128058256667
 20
23.07306832604201
 10
81.2624697695136
 20
22.94755558414357
 10
81.3463539801212
 20
22.82369399774041
 10
81.43276471209002
 20
22.70141642702601
 10
81.52153345523679
 20
22.58065572786506
 10
81.61249169937827
 20
22.46134475612206
 10
81.70547093433119
 20
22.34341636766169
 10
81.80030264991229
 20
22.22680341834859
 10
81.89681833593841
 20
22.11143876404731
 10
82.09422757859242
 20
21.88418576393872
 10
82.29635058082731
 20
21.66112021425272
 10
82.5019690772032
 20
21.44175592064261
 10
82.71070336460564
 20
21.22593586288332
 10
82.92250700728562
 20
21.01363384345547
 10
83.13733441769263
 20
20.80482399779646
 10
83.35514000827613
 20
20.59948046134383
 10
83.57587819148566
 20
20.39757736953487
 10
83.79950337977069
 20
20.19908885780711
 10
84.02596998558079
 20
20.00398906159796
 10
84.2552324213654
 20
19.81225211634484
 10
84.48724509957406
 20
19.62385215748514
 10
84.72196243265626
 20
19.43876332045636
 10
84.95933883306149
 20
19.25695974069589
 10
85.19932871323925
 20
19.07841555364121
 10
85.44188648563903
 20
18.90310489472966
 10
85.68696656271036
 20
18.73100189939879
 10
85.93452335690278
 20
18.56208070308588
 10
86.18451128066576
 20
18.39631544122847
 10
86.4368847464488
 20
18.23368024926395
 10
86.69159816670136
 20
18.07414926262976
 10
86.94860595387304
 20
17.91769661676335
 10
87.20786252041325
 20
17.76429644710207
 10
87.46932227877151
 20
17.61392288908348
 10
87.73293964139739
 20
17.4665500781449
 10
87.99866902074032
 20
17.32215214972382
 10
88.26646482924983
 20
17.18070323925758
 10
88.53628147937538
 20
17.04217748218377
 10
88.80807338356644
 20
16.90654901393975
 10
89.08179495427273
 20
16.77379196996287
 10
89.35740060394357
 20
16.6438804856906
 10
89.63484474502847
 20
16.51678869656041
 10
89.914081789977
 20
16.39249073800971
 10
90.19506615123859
 20
16.27096074547592
 10
90.47775224126283
 20
16.1521728543965
 10
90.76209447249913
 20
16.03610120020886
 10
91.04804725739708
 20
15.92271991835042
 10
91.3355650084061
 20
15.81200314425865
 10
91.62460213797571
 20
15.7039250133709
 10
91.9151130585554
 20
15.59845966112471
 10
92.20705218259473
 20
15.49558122295741
 10
92.50037392254323
 20
15.39526383430649
 10
92.79503269085031
 20
15.29748163060935
 10
93.09098289996555
 20
15.20220874730341
 10
93.38817896233841
 20
15.10941931982614
 10
93.68657529041836
 20
15.01908748361495
 10
93.986126296655
 20
14.93118737410725
 10
94.28678639349772
 20
14.84569312674051
 10
94.58850999339608
 20
14.76257887695215
 10
94.89125150879965
 20
14.68181876017957
 10
95.19496535215781
 20
14.60338691186024
 10
95.49960593592009
 20
14.52725746743158
 10
95.80512767253596
 20
14.453404562331
 10
96.11148497445507
 20
14.38180233199591
 10
96.41863225412684
 20
14.31242491186378
 10
96.72652392400076
 20
14.24524643737203
 10
97.03511439652634
 20
14.18024104395812
 10
97.34435808415309
 20
14.11738286705946
 10
97.65420939933052
 20
14.05664604211341
 10
97.96462275450807
 20
13.9980047045575
 10
98.27555256213532
 20
13.94143298982914
 10
98.58695323466172
 20
13.88690503336573
 10
99.21098482421008
 20
13.78387693698346
 10
99.83635282274908
 20
13.68871349891026
 10
100.4626925298749
 20
13.60120780264549
 10
101.0896392451835
 20
13.52115293168856
 10
101.7168282682709
 20
13.448341969539
 10
102.3438948987331
 20
13.38256799969622
 10
102.9704744361662
 20
13.32362410565963
 10
103.5962021801661
 20
13.27130337092865
 10
104.2207134303289
 20
13.22539887900278
 10
104.8436434862505
 20
13.18570371338148
 10
105.4646276475271
 20
13.15201095756413
 10
106.0833012137547
 20
13.1241136950502
 10
106.6992994845292
 20
13.1018050093391
 10
107.3122577594467
 20
13.08487798393025
 10
107.9218113381033
 20
13.07312570232318
 10
108.5275955200949
 20
13.06634124801729
 10
109.1292618839003
 20
13.06430166658464
 10
109.2791431068154
 20
13.06436060952904
 10
109.4313458838474
 20
13.06442877768074
 10
109.5114546663102
 20
13.06445749002313
 10
109.5962486808932
 20
13.06448278973482
 10
109.6872381547137
 20
13.06450480320956
 10
109.735528134812
 20
13.06451461710617
 10
109.7859333148885
 20
13.06452365684112
 10
109.8386424733329
 20
13.06453193821375
 10
109.8938443885348
 20
13.06453947702317
 10
109.9517278388837
 20
13.06454628906869
 10
110.0124816027692
 20
13.06455239014946
 10
110.0762944585811
 20
13.06455779606472
 10
110.143355184709
 20
13.0645625226137
 10
110.2138525595426
 20
13.06456658559563
 10
110.2879753614713
 20
13.06457000080968
 10
110.3659123688848
 20
13.06457278405509
 10
110.4478523601728
 20
13.06457495113102
 10
110.5339841137249
 20
13.06457651783683
 10
110.6244964079305
 20
13.06457749997156
 10
110.7195780211794
 20
13.06457791333457
 10
110.8194177318614
 20
13.06457777372498
 10
110.924204318366
 20
13.06457709694206
 10
111.0341265590828
 20
13.06457589878499
 10
111.1493732324014
 20
13.06457419505307
 10
111.2701331167114
 20
13.0645720015454
 10
111.3965949904025
 20
13.06456933406122
 10
111.528947631864
 20
13.06456620839981
 10
111.6673798194859
 20
13.06456264036035
 10
111.8120803316579
 20
13.06455864574207
 10
111.9632379467695
 20
13.06455424034413
 10
112.1210414432102
 20
13.06454943996579
 10
112.2856795993697
 20
13.06454426040631
 10
112.4573411936377
 20
13.06453871746481
 10
112.6362150044037
 20
13.06453282694059
 10
112.822489810057
 20
13.06452660463282
 10
113.0163543889877
 20
13.06452006634072
 10
113.2179975195855
 20
13.06451322786353
 10
113.4276079802399
 20
13.06450610500042
 10
113.5354599525851
 20
13.0645024418614
 10
113.6453745493405
 20
13.06449871355068
 10
113.7573753678048
 20
13.06449492204302
 10
113.8714860052768
 20
13.06449106931342
 10
113.9877300590552
 20
13.06448715733677
 10
114.1061311264386
 20
13.06448318808799
 10
114.2267128047258
 20
13.06447916354193
 10
114.3494986912154
 20
13.06447508567351
 10
114.4745123832062
 20
13.06447095645763
 10
114.6017774779965
 20
13.0644667778692
 10
114.7313175728853
 20
13.06446255188314
 10
114.8631562651718
 20
13.0644582804743
 10
114.9973171521542
 20
13.06445396561764
 10
115.1338238311314
 20
13.06444960928803
 10
115.2726998994019
 20
13.06444521346037
 10
115.4139689542645
 20
13.06444078010958
 10
115.5576545930179
 20
13.06443631121055
 10
115.7037804129608
 20
13.06443180873822
 10
115.8523700113919
 20
13.06442727466742
 10
116.0034469856099
 20
13.06442271097313
 10
116.1570349329135
 20
13.0644181196302
 10
116.3131574506013
 20
13.06441350261349
 10
116.4718381359723
 20
13.06440886189802
 10
116.6331005863248
 20
13.06440419945858
 10
116.7969683989579
 20
13.06439951727014
 10
116.9634651711695
 20
13.06439481730763
 10
117.1326145002589
 20
13.06439010154582
 10
117.3044399835253
 20
13.06438537195976
 10
117.478965218267
 20
13.06438063052423
 10
117.6562138017826
 20
13.06437587921425
 10
117.8362093313708
 20
13.06437112000464
 10
118.0189754043304
 20
13.06436635487029
 10
118.20453561796
 20
13.06436158578617
 10
118.3929135695583
 20
13.06435681472715
  0
LWPOLYLINE
  5
51E
330
1F
100
AcDbEntity
  8
0
100
AcDbPolyline
 90
      530
 70
     0
 43
0.0
 10
38.39997599999987
 20
260.400471
 10
38.44748253035299
 20
258.8258855542382
 10
38.49537785718622
 20
257.2512925859256
 10
38.54405077697947
 20
255.676684572511
 10
38.5938900862128
 20
254.1020539914436
 10
38.64528458136624
 20
252.5273933201725
 10
38.69862305891979
 20
250.9526950361467
 10
38.75429431535354
 20
249.3779516168153
 10
38.81268714714746
 20
247.8031555396273
 10
38.8741903507816
 20
246.2282992820318
 10
38.93919272273598
 20
244.6533753214779
 10
39.00808305949062
 20
243.0783761354147
 10
39.08125015752557
 20
241.5032942012911
 10
39.15908659860143
 20
239.9281231102126
 10
39.24227815304931
 20
238.3529427114309
 10
39.33200774716573
 20
236.7779791209918
 10
39.42950648714168
 20
235.2034726298055
 10
39.53600547916808
 20
233.6296635287828
 10
39.65273582943598
 20
232.0567921088341
 10
39.78092864413639
 20
230.4850986608698
 10
39.92181502946022
 20
228.9148234758005
 10
40.07662609159853
 20
227.3462068445368
 10
40.24659293674226
 20
225.7794890579891
 10
40.43294667108244
 20
224.2149104070679
 10
40.63691840081003
 20
222.6527111826837
 10
40.85973923211599
 20
221.0931316757471
 10
41.10258863800559
 20
219.5364086710317
 10
41.36571811536582
 20
217.982715939356
 10
41.64857592271146
 20
216.4321727078649
 10
41.95058379599974
 20
214.8848964026961
 10
42.27116347118793
 20
213.3410044499876
 10
42.60973668423331
 20
211.8006142758774
 10
42.96572517109308
 20
210.2638433065034
 10
43.33855066772453
 20
208.7308089680036
 10
43.72763491008487
 20
207.2016286865157
 10
44.13239963413132
 20
205.6764198881779
 10
44.55226657582114
 20
204.155299999128
 10
44.98665747111163
 20
202.6383864455041
 10
45.43499405595996
 20
201.1257966534439
 10
45.89669789207187
 20
199.6176411242841
 10
46.37118687671658
 20
198.1138847337295
 10
46.85787542389788
 20
196.6143539316339
 10
47.35617780963145
 20
195.1188696841671
 10
47.86550830993298
 20
193.627252957499
 10
48.38528120081804
 20
192.1393247177995
 10
48.91491075830235
 20
190.6549059312385
 10
49.45381125840157
 20
189.1738175639858
 10
50.0013969771313
 20
187.6958805822113
 10
50.55708219050728
 20
186.2209159520847
 10
51.12028117454515
 20
184.748744639776
 10
51.69040820526049
 20
183.2791876114552
 10
52.26687755866908
 20
181.8120658332919
 10
52.84910351660733
 20
180.3472002736193
 10
53.43663478989792
 20
178.8844618605746
 10
54.02950226927908
 20
177.4239007218465
 10
54.62784491401521
 20
175.9656071482056
 10
55.23180168337074
 20
174.5096714304226
 10
55.84151153661001
 20
173.0561838592682
 10
56.45711343299741
 20
171.6052347255129
 10
57.07874633179727
 20
170.1569143199276
 10
57.70654919227411
 20
168.7113129332827
 10
58.34066097369219
 20
167.268520856349
 10
58.98122063531598
 20
165.8286283798971
 10
59.62836713640978
 20
164.3917257946976
 10
60.2822394362381
 20
162.9579033915213
 10
60.94297649406517
 20
161.5272514611388
 10
61.61071632687138
 20
160.0998598740907
 10
62.28542214824988
 20
158.6757405439624
 10
62.9666787610556
 20
157.2547366247419
 10
63.65402151735395
 20
155.8366692168801
 10
64.34702717558677
 20
154.4213772196127
 10
65.04571213687921
 20
153.0088885152767
 10
65.75035781804285
 20
151.5993449048263
 10
66.46125005121722
 20
150.1928902333768
 10
67.17903009483944
 20
148.7898890995633
 10
67.90525888371454
 20
147.3912773084738
 10
68.64164413436713
 20
145.9980818305982
 10
69.3898781598262
 20
144.6113182421057
 10
70.15139265093909
 20
143.2318093309302
 10
70.92740204410141
 20
141.8602171768807
 10
71.71911413592437
 20
140.497198948164
 10
72.52512546318036
 20
139.1420144696233
 10
72.52512546318036
 20
139.1420144696233
 10
72.52512546318036
 20
139.1420144696233
 10
72.52512546317873
 20
139.142014469626
 42
-0.10978045544221
 10
77.19997599999985
 20
118.0529052929093
 10
77.19997599999985
 20
80.04005520941694
 10
77.19997599999985
 20
79.68208052465616
 10
77.19997599999985
 20
79.32653586058723
 10
77.19997599999985
 20
78.97341013207976
 10
77.19997599999985
 20
78.62269225400344
 10
77.19997599999985
 20
78.2743711412278
 10
77.19997599999985
 20
77.92843570862249
 10
77.19997599999985
 20
77.58487487105714
 10
77.19997599999985
 20
77.24367754340136
 10
77.19997599999985
 20
76.90483264052473
 10
77.19997599999985
 20
76.56832907729693
 10
77.19997599999985
 20
76.23415576858758
 10
77.19997599999985
 20
75.90230162926622
 10
77.19997599999985
 20
75.57275557420254
 10
77.19997599999985
 20
75.24550651826612
 10
77.19997599999985
 20
74.92054337632658
 10
77.19997599999985
 20
74.59785506325356
 10
77.19997599999985
 20
74.27743049391665
 10
77.19997599999985
 20
73.95925858318548
 10
77.19997599999985
 20
73.6433282459297
 10
77.19997599999985
 20
73.32962839701886
 10
77.19997599999985
 20
73.01814795132266
 10
77.19997599999985
 20
72.70887582371063
 10
77.19997599999985
 20
72.40180092905244
 10
77.19997599999985
 20
72.09691218221768
 10
77.19997599999985
 20
71.79419849807598
 10
77.19997599999985
 20
71.49364879149698
 10
77.19997599999985
 20
71.19525197735026
 10
77.19997599999985
 20
70.89899697050547
 10
77.19997599999985
 20
70.60487268583219
 10
77.19997599999985
 20
70.31286803820006
 10
77.19997599999985
 20
70.02297194247872
 10
77.19997599999985
 20
69.73517331353775
 10
77.19997599999985
 20
69.44946106624678
 10
77.19997599999985
 20
69.16582411547546
 10
77.19997599999985
 20
68.88425137609335
 10
77.19997599999985
 20
68.60473176297009
 10
77.19997599999985
 20
68.32725419097528
 10
77.19997599999985
 20
68.0518075749786
 10
77.19997599999985
 20
67.77838082984961
 10
77.19997599999985
 20
67.50696287045792
 10
77.19997599999985
 20
67.23754261167323
 10
77.19997599999985
 20
66.97010896836502
 10
77.19997599999985
 20
66.70465085540303
 10
77.19997599999985
 20
66.44115718765684
 10
77.19997599999985
 20
66.17961687999605
 10
77.19997599999985
 20
65.92001884729029
 10
77.19997599999985
 20
65.66235200440917
 10
77.19997599999985
 20
65.4066052662223
 10
77.19997599999985
 20
65.15276754759931
 10
77.19997599999985
 20
64.90082776340982
 10
77.19997599999985
 20
64.65077482852347
 10
77.19997599999985
 20
64.40259765780985
 10
77.19997599999985
 20
64.15628516613856
 10
77.19997599999985
 20
63.91182626837923
 10
77.19997599999985
 20
63.66920987940146
 10
77.19997599999985
 20
63.42842491407495
 10
77.19997599999985
 20
63.18946028726924
 10
77.19997599999985
 20
62.95230491385392
 10
77.19997599999985
 20
62.71694770869871
 10
77.19997599999985
 20
62.48337758667315
 10
77.19997599999985
 20
62.25158346264689
 10
77.19997599999985
 20
62.02155425148953
 10
77.19997599999985
 20
61.79327886807067
 10
77.19997599999985
 20
61.56674622725994
 10
77.19997599999985
 20
61.34194524392703
 10
77.19997599999985
 20
61.11886483294146
 10
77.19997599999985
 20
60.89749390917288
 10
77.19997599999985
 20
60.67782138749089
 10
77.19997599999985
 20
60.45983618276515
 10
77.19997599999985
 20
60.24352720986525
 10
77.19997599999985
 20
60.02888338366084
 10
77.19997599999985
 20
59.81589361902146
 10
77.19997599999985
 20
59.60454683081678
 10
77.19997599999985
 20
59.39483193391646
 10
77.19997599999985
 20
59.18673784319003
 10
77.19997599999985
 20
58.98025347350714
 10
77.19997599999985
 20
58.77536773973748
 10
77.19997599999985
 20
58.370347839416
 10
77.19997599999985
 20
57.97158946118265
 10
77.19997599999985
 20
57.57900392399429
 10
77.19997599999985
 20
57.19250254680787
 10
77.19997599999985
 20
56.81199664858036
 10
77.19997599999985
 20
56.43739754826867
 10
77.19997599999985
 20
56.06861656482976
 10
77.19997599999985
 20
55.70556501722053
 10
77.19997599999985
 20
55.34815422439796
 10
77.19997599999985
 20
54.99629550531897
 10
77.19997599999985
 20
54.64990017894052
 10
77.19997599999985
 20
54.30887956421952
 10
77.19997599999985
 20
53.97314498011294
 10
77.19997599999985
 20
53.64260774557767
 10
77.19997599999985
 20
53.31717917957067
 10
77.19997599999985
 20
52.99677060104889
 10
77.19997599999985
 20
52.68129332896926
 10
77.19997599999985
 20
52.37065868228876
 10
77.19997599999985
 20
52.06477797996431
 10
77.19997599999985
 20
51.76356254095279
 10
77.19997599999985
 20
51.4669236842112
 10
77.19997599999985
 20
51.17477272869646
 10
77.19997599999985
 20
50.88702099336552
 10
77.19997599999985
 20
50.60357979717531
 10
77.19997599999985
 20
50.32436045908275
 10
77.19997599999985
 20
50.04927429804482
 10
77.19997599999985
 20
49.77823263301843
 10
77.19997599999985
 20
49.5111467829605
 10
77.19997599999985
 20
49.24792806682802
 10
77.19997599999985
 20
48.98848780357791
 10
77.19997599999985
 20
48.7327373121671
 10
77.19997599999985
 20
48.48058791155249
 10
77.19997599999985
 20
48.23195092069114
 10
77.19997599999985
 20
47.98673765853985
 10
77.19997599999985
 20
47.74485944405563
 10
77.19997599999985
 20
47.50622759619543
 10
77.19997599999985
 20
47.27075343391613
 10
77.19997599999985
 20
47.03834827617474
 10
77.19997599999985
 20
46.80892344192815
 10
77.19997599999985
 20
46.58239025013332
 10
77.19997599999985
 20
46.35866001974719
 10
77.19997599999985
 20
46.13764406972665
 10
77.19997599999985
 20
45.91925371902873
 10
77.19997599999985
 20
45.70340028661028
 10
77.19997599999985
 20
45.48999509142833
 10
77.19997599999985
 20
45.27894945243974
 10
77.19997599999985
 20
45.07017468860146
 10
77.19997599999985
 20
44.86358211887046
 10
77.19997599999985
 20
44.65908306220367
 10
77.19997599999985
 20
44.45658883755803
 10
77.19997599999985
 20
44.25601076389045
 10
77.19997599999985
 20
44.05726016015793
 10
77.19997599999985
 20
43.86024834531736
 10
77.19997599999985
 20
43.4710863581398
 10
77.19997599999985
 20
43.08781535401339
 10
77.19997599999985
 20
42.70972588459364
 10
77.19997599999985
 20
42.33610850153596
 10
77.19997599999985
 20
41.96625375649595
 10
77.19997599999985
 20
41.59945220112911
 10
77.19997599999985
 20
41.23499438709091
 10
77.19997599999985
 20
40.87217086603696
 10
77.19997599999985
 20
40.51027218962263
 10
77.19997599999985
 20
40.41985888901614
 10
77.19997599999985
 20
40.40855762091459
 10
77.19997599999985
 20
40.40290699402658
 10
77.19997599999985
 20
40.4014943375926
 10
77.19997599999985
 20
40.40078800938977
 10
77.19997599999985
 20
40.40061142733956
 10
77.19997599999985
 20
40.40052313631457
 10
77.19997599999985
 20
40.400478990802
 10
77.1999843182906
 20
40.39802526593724
 10
77.20006595956402
 20
40.37415140297593
 10
77.20074439570645
 20
40.18422898810507
 10
77.20146789991779
 20
39.99619779179875
 10
77.20223658472092
 20
39.81004607224804
 10
77.20305056263879
 20
39.62576208764415
 10
77.20390994619434
 20
39.4433340961785
 10
77.20481484791053
 20
39.26275035604181
 10
77.20576538031028
 20
39.08399912542506
 10
77.20676165591652
 20
38.90706866251969
 10
77.20780378725223
 20
38.73194722551671
 10
77.20889188684032
 20
38.55862307260725
 10
77.21002606720375
 20
38.38708446198257
 10
77.21120644086545
 20
38.21731965183369
 10
77.21243312034836
 20
38.04931690035198
 10
77.21370621817545
 20
37.88306446572835
 10
77.21502584686962
 20
37.71855060615378
 10
77.2163921189538
 20
37.55576357981944
 10
77.21780514695097
 20
37.39469164491663
 10
77.21926504338409
 20
37.23532305963642
 10
77.22077192077603
 20
37.07764608217019
 10
77.22232589164978
 20
36.92164897070882
 10
77.22392706852829
 20
36.7673199834432
 10
77.22557556393446
 20
36.61464737856466
 10
77.22727149039126
 20
36.46361941426443
 10
77.22901496042164
 20
36.31422434873355
 10
77.23080608654853
 20
36.16645044016343
 10
77.23264498129481
 20
36.02028594674493
 10
77.23453175718354
 20
35.87571912666897
 10
77.23844940247989
 20
35.59133153930986
 10
77.24255992262105
 20
35.31319374361557
 10
77.24686421779058
 20
35.04121180511499
 10
77.25136318817205
 20
34.77529178933686
 10
77.25605773394891
 20
34.51533976181064
 10
77.26094875530472
 20
34.26126178806522
 10
77.26603715242302
 20
34.01296393362935
 10
77.2713238254873
 20
33.77035226403234
 10
77.27680967468113
 20
33.5333328448034
 10
77.28249560018801
 20
33.30181174147134
 10
77.28838250219148
 20
33.07569501956506
 10
77.29447128087509
 20
32.85488874461373
 10
77.3007628364223
 20
32.63929898214661
 10
77.30725806901673
 20
32.42883179769251
 10
77.31395787884185
 20
32.2233932567803
 10
77.32086316608119
 20
32.0228894249392
 10
77.32797483091826
 20
31.82722636769842
 10
77.33529377353661
 20
31.63631015058684
 10
77.34282089411981
 20
31.45004683913328
 10
77.35055709285131
 20
31.26834249886702
 10
77.35850326991471
 20
31.09110319531715
 10
77.36666032549348
 20
30.91823499401267
 10
77.37502915977117
 20
30.74964396048233
 10
77.38361067293131
 20
30.58523616025543
 10
77.39240576515745
 20
30.42491765886103
 10
77.40141533663304
 20
30.26859452182816
 10
77.41064028754171
 20
30.11617281468563
 10
77.4200815180669
 20
29.96755860296259
 10
77.42973992839217
 20
29.82265795218831
 10
77.43961641870106
 20
29.68137692789156
 10
77.44971188917711
 20
29.54362159560139
 10
77.46002724000383
 20
29.40929802084685
 10
77.47056337136474
 20
29.27831226915714
 10
77.48132118344337
 20
29.15057040606115
 10
77.49230157642326
 20
29.02597849708786
 10
77.50350545048792
 20
28.90444260776638
 10
77.51493370582089
 20
28.78586880362582
 10
77.5265872426057
 20
28.67016315019515
 10
77.53846696102586
 20
28.55723171300332
 10
77.5505737612649
 20
28.44698055757942
 10
77.56290854350638
 20
28.33931574945263
 10
77.57547220793377
 20
28.2341433541518
 10
77.58826565473069
 20
28.13136943720598
 10
77.60128978408056
 20
28.03090006414425
 10
77.61454549616697
 20
27.93264130049568
 10
77.62803369117344
 20
27.83649921178932
 10
77.64175526928347
 20
27.74237986355405
 10
77.65571113068066
 20
27.65018932131904
 10
77.66990217554845
 20
27.55983365061337
 10
77.68432930407039
 20
27.471218916966
 10
77.69899341643004
 20
27.38425118590584
 10
77.72903619339655
 20
27.21488099366383
 10
77.76003770791618
 20
27.05097159811953
 10
77.79200516145711
 20
26.89177152350527
 10
77.82494575548759
 20
26.73652929405335
 10
77.85886669147583
 20
26.5844934339961
 10
77.89377517089005
 20
26.43491246756564
 10
77.96658356586933
 20
26.14010931251454
 10
78.04351968704927
 20
25.8470858833312
 10
78.12514046816504
 20
25.55518800749576
 10
78.21211707728635
 20
25.26498722600445
 10
78.25782355907854
 20
25.12070187052223
 10
78.30512068794745
 20
24.97705513848718
 10
78.35409236058488
 20
24.83411847985309
 10
78.40482247368257
 20
24.69196334457365
 10
78.45739492393239
 20
24.55066118260265
 10
78.51189360802607
 20
24.41028344389378
 10
78.56840242265533
 20
24.27090157840075
 10
78.62700526451205
 20
24.13258703607733
 10
78.68778603028798
 20
23.99541126687717
 10
78.75082861667486
 20
23.85944572075408
 10
78.81621692036453
 20
23.72476184766174
 10
78.88403483804873
 20
23.59143109755394
 10
78.95436626641927
 20
23.4595249203843
 10
79.02729510216794
 20
23.32911476610661
 10
79.10290524198646
 20
23.20027208467462
 10
79.18128058256667
 20
23.07306832604201
 10
79.26246976951356
 20
22.94755558414357
 10
79.34635398012118
 20
22.82369399774041
 10
79.43276471209002
 20
22.70141642702601
 10
79.52153345523678
 20
22.58065572786506
 10
79.61249169937826
 20
22.46134475612206
 10
79.7054709343312
 20
22.34341636766169
 10
79.8003026499123
 20
22.22680341834859
 10
79.89681833593841
 20
22.11143876404731
 10
79.9948494822262
 20
21.99725526062247
 10
80.09422757859242
 20
21.88418576393872
 10
80.2963505808273
 20
21.66112021425272
 10
80.50196907720318
 20
21.44175592064261
 10
80.71070336460563
 20
21.22593586288332
 10
80.92250700728561
 20
21.01363384345547
 10
81.13733441769261
 20
20.80482399779646
 10
81.35514000827612
 20
20.59948046134383
 10
81.57587819148565
 20
20.39757736953487
 10
81.7995033797707
 20
20.19908885780711
 10
82.0259699855808
 20
20.00398906159796
 10
82.2552324213654
 20
19.81225211634484
 10
82.48724509957405
 20
19.62385215748514
 10
82.72196243265625
 20
19.43876332045636
 10
82.95933883306148
 20
19.25695974069589
 10
83.19932871323926
 20
19.07841555364121
 10
83.44188648563905
 20
18.90310489472966
 10
83.68696656271037
 20
18.73100189939879
 10
83.9345233569028
 20
18.56208070308588
 10
84.18451128066577
 20
18.39631544122847
 10
84.43688474644879
 20
18.23368024926395
 10
84.69159816670137
 20
18.07414926262976
 10
84.94860595387303
 20
17.91769661676335
 10
85.20786252041324
 20
17.76429644710207
 10
85.46932227877153
 20
17.61392288908348
 10
85.73293964139741
 20
17.4665500781449
 10
85.99866902074031
 20
17.32215214972382
 10
86.2664648292498
 20
17.18070323925758
 10
86.53628147937537
 20
17.04217748218377
 10
86.80807338356649
 20
16.90654901393975
 10
87.08179495427271
 20
16.77379196996287
 10
87.35740060394356
 20
16.6438804856906
 10
87.63484474502847
 20
16.51678869656041
 10
87.914081789977
 20
16.39249073800971
 10
88.19506615123861
 20
16.27096074547592
 10
88.47775224126284
 20
16.1521728543965
 10
88.76209447249914
 20
16.03610120020886
 10
89.04804725739706
 20
15.92271991835042
 10
89.33556500840611
 20
15.81200314425865
 10
89.62460213797575
 20
15.7039250133709
 10
89.9151130585554
 20
15.59845966112471
 10
90.20705218259472
 20
15.49558122295741
 10
90.50037392254321
 20
15.39526383430649
 10
90.79503269085032
 20
15.29748163060935
 10
91.09098289996556
 20
15.20220874730341
 10
91.38817896233843
 20
15.10941931982614
 10
91.68657529041835
 20
15.01908748361495
 10
91.98612629665495
 20
14.93118737410725
 10
92.28678639349771
 20
14.84569312674051
 10
92.58850999339612
 20
14.76257887695215
 10
92.89125150879966
 20
14.68181876017957
 10
93.19496535215781
 20
14.60338691186024
 10
93.49960593592006
 20
14.52725746743158
 10
93.80512767253597
 20
14.453404562331
 10
94.11148497445507
 20
14.38180233199591
 10
94.4186322541268
 20
14.31242491186378
 10
94.72652392400076
 20
14.24524643737203
 10
95.03511439652635
 20
14.18024104395812
 10
95.3443580841531
 20
14.11738286705946
 10
95.6542093993305
 20
14.05664604211341
 10
95.96462275450807
 20
13.9980047045575
 10
96.27555256213533
 20
13.94143298982914
 10
96.5869532346617
 20
13.88690503336573
 10
96.89877918453682
 20
13.8343949706047
 10
97.21098482421005
 20
13.78387693698346
 10
97.52352456613095
 20
13.73532506793953
 10
97.83635282274907
 20
13.68871349891026
 10
98.14942400651389
 20
13.64401636533307
 10
98.4626925298749
 20
13.60120780264549
 10
98.77611280528164
 20
13.56026194628481
 10
99.08963924518353
 20
13.52115293168856
 10
99.40322626203013
 20
13.48385489429415
 10
99.71682826827095
 20
13.448341969539
 10
100.0303996763554
 20
13.41458829286057
 10
100.3438948987331
 20
13.38256799969622
 10
100.6572683478536
 20
13.35225522548342
 10
100.9704744361662
 20
13.32362410565963
 10
101.2834675761205
 20
13.29664877566222
 10
101.5962021801661
 20
13.27130337092865
 10
101.9086326607524
 20
13.24756202689639
 10
102.2207134303289
 20
13.22539887900278
 10
102.532398901345
 20
13.20478806268539
 10
102.8436434862505
 20
13.18570371338148
 10
103.4646276475271
 20
13.15201095756413
 10
104.0833012137547
 20
13.1241136950502
 10
104.6992994845292
 20
13.1018050093391
 10
105.3122577594468
 20
13.08487798393025
 10
105.9218113381033
 20
13.07312570232318
 10
106.5275955200949
 20
13.06634124801729
 10
107.1292618839003
 20
13.06430166658464
 10
107.2791431799618
 20
13.06436060952904
 10
107.3545096971444
 20
13.06439652631394
 10
107.4320249903351
 20
13.06442877768074
 10
107.5136393199554
 20
13.06445749002313
 10
107.5565930798083
 20
13.06447055855818
 10
107.6013029464264
 20
13.06448278973482
 10
107.6480127023627
 20
13.06449419935222
 10
107.6969661301697
 20
13.06450480320956
 10
107.7484070124
 20
13.06451461710617
 10
107.8025791316065
 20
13.06452365684112
 10
107.8597262703416
 20
13.06453193821375
 10
107.9200922111581
 20
13.06453947702317
 10
107.9839207366085
 20
13.06454628906869
 10
108.0514556292456
 20
13.06455239014946
 10
108.1229406716221
 20
13.06455779606472
 10
108.1986196462907
 20
13.0645625226137
 10
108.278736335804
 20
13.06456658559563
 10
108.3635345227146
 20
13.06457000080968
 10
108.4532579895752
 20
13.06457278405509
 10
108.5481505189386
 20
13.06457495113102
 10
108.6484558933572
 20
13.06457651783683
 10
108.7544178953838
 20
13.06457749997156
 10
108.866280307571
 20
13.06457791333457
 10
108.9842869124717
 20
13.06457777372498
 10
109.0456704692372
 20
13.06457750149275
 10
109.1086814926384
 20
13.06457709694206
 10
109.1733504554942
 20
13.06457656204787
 10
109.2397078306238
 20
13.06457589878499
 10
109.3077840908462
 20
13.06457510912844
 10
109.3776097089805
 20
13.06457419505307
 10
109.4492151578458
 20
13.06457315853373
 10
109.5226309102612
 20
13.0645720015454
 10
109.5978874390458
 20
13.06457072606292
 10
109.6750152170187
 20
13.06456933406122
 10
109.7540447169988
 20
13.06456782751524
 10
109.8350064118051
 20
13.06456620839981
 10
109.917930774257
 20
13.06456447868987
 10
110.0028482771736
 20
13.06456264036035
 10
110.0897893933739
 20
13.06456069538609
 10
110.178784595677
 20
13.06455864574207
 10
110.2698643569019
 20
13.06455649340307
 10
110.3630591498677
 20
13.06455424034413
 10
110.4583994473935
 20
13.06455188854005
 10
110.5559157222984
 20
13.06454943996579
 10
110.6556384474015
 20
13.06454689659625
 10
110.7575980955218
 20
13.06454426040631
 10
110.8618251394784
 20
13.06454153337085
 10
110.9683500520905
 20
13.06453871746481
 10
111.077203306177
 20
13.06453581466309
 10
111.1884153745572
 20
13.06453282694059
 10
111.3020167300499
 20
13.06452975627218
 10
111.4180378454741
 20
13.06452660463282
 10
111.5365091936491
 20
13.06452337399736
 10
111.6574612473944
 20
13.06452006634072
 10
111.7809244795286
 20
13.0645166836378
 10
111.906929362871
 20
13.06451322786353
 10
112.0355063702405
 20
13.06450970099274
 10
112.1666859744563
 20
13.06450610500042
 10
112.3004986483373
 20
13.0645024418614
 10
112.4369748647028
 20
13.06449871355068
 10
112.5761450963718
 20
13.06449492204302
 10
112.7180398161634
 20
13.06449106931342
 10
112.8626894968966
 20
13.06448715733677
 10
113.0101246113905
 20
13.06448318808799
 10
113.1603756324643
 20
13.06447916354193
 10
113.313473032937
 20
13.06447508567351
 10
113.4694472856277
 20
13.06447095645763
 10
113.628328863355
 20
13.0644667778692
 10
113.7901482389384
 20
13.06446255188314
 10
113.9549358851976
 20
13.0644582804743
 10
114.1227222749511
 20
13.06445396561764
 10
114.293537881018
 20
13.06444960928803
 10
114.4674131762174
 20
13.06444521346037
 10
114.6443786333683
 20
13.06444078010958
 10
114.8244647252899
 20
13.06443631121055
 10
115.0077019248013
 20
13.06443180873822
 10
115.1941207047215
 20
13.06442727466742
 10
115.3837515378696
 20
13.06442271097313
 10
115.5766248970647
 20
13.0644181196302
 10
115.7727712551258
 20
13.06441350261349
 10
115.9722210848721
 20
13.06440886189802
 10
116.1750048591227
 20
13.06440419945858
 10
116.3811530506966
 20
13.06439951727014
 10
116.5906961324122
 20
13.06439481730763
 10
116.8036645770893
 20
13.06439010154582
 10
117.0200888575477
 20
13.06438537195976
 10
117.2399994466056
 20
13.06438063052423
 10
117.4634268170824
 20
13.06437587921425
 10
117.6904014417969
 20
13.06437112000464
 10
117.9209537935683
 20
13.06436635487029
 10
118.1551143452158
 20
13.06436158578617
 10
118.3929135695583
 20
13.06435681472715
  0
LWPOLYLINE
  5
51F
330
1F
100
AcDbEntity
  8
0
100
AcDbPolyline
 90
      568
 70
     0
 43
0.0
 10
38.39997599999987
 20
260.400471
 10
38.44748253035299
 20
258.8258855542382
 10
38.49537785718622
 20
257.2512925859256
 10
38.54405077697947
 20
255.676684572511
 10
38.5938900862128
 20
254.1020539914436
 10
38.64528458136624
 20
252.5273933201725
 10
38.69862305891979
 20
250.9526950361467
 10
38.75429431535354
 20
249.3779516168153
 10
38.81268714714746
 20
247.8031555396273
 10
38.8741903507816
 20
246.2282992820318
 10
38.93919272273598
 20
244.6533753214779
 10
39.00808305949062
 20
243.0783761354147
 10
39.08125015752557
 20
241.5032942012911
 10
39.15908659860143
 20
239.9281231102126
 10
39.24227815304931
 20
238.3529427114309
 10
39.33200774716573
 20
236.7779791209918
 10
39.42950648714168
 20
235.2034726298055
 10
39.53600547916808
 20
233.6296635287828
 10
39.65273582943598
 20
232.0567921088341
 10
39.78092864413639
 20
230.4850986608698
 10
39.92181502946022
 20
228.9148234758005
 10
40.07662609159853
 20
227.3462068445368
 10
40.24659293674226
 20
225.7794890579891
 10
40.43294667108244
 20
224.2149104070679
 10
40.63691840081003
 20
222.6527111826837
 10
40.85973923211599
 20
221.0931316757471
 10
41.10258863800559
 20
219.5364086710317
 10
41.36571811536582
 20
217.982715939356
 10
41.64857592271146
 20
216.4321727078649
 10
41.95058379599974
 20
214.8848964026961
 10
42.27116347118793
 20
213.3410044499876
 10
42.60973668423331
 20
211.8006142758774
 10
42.96572517109308
 20
210.2638433065034
 10
43.33855066772453
 20
208.7308089680036
 10
43.72763491008487
 20
207.2016286865157
 10
44.13239963413132
 20
205.6764198881779
 10
44.55226657582114
 20
204.155299999128
 10
44.98665747111163
 20
202.6383864455041
 10
45.43499405595996
 20
201.1257966534439
 10
45.89669789207187
 20
199.6176411242841
 10
46.37118687671658
 20
198.1138847337295
 10
46.85787542389788
 20
196.6143539316339
 10
47.35617780963145
 20
195.1188696841671
 10
47.86550830993298
 20
193.627252957499
 10
48.38528120081804
 20
192.1393247177995
 10
48.91491075830235
 20
190.6549059312385
 10
49.45381125840157
 20
189.1738175639858
 10
50.0013969771313
 20
187.6958805822113
 10
50.55708219050728
 20
186.2209159520847
 10
51.12028117454515
 20
184.748744639776
 10
51.69040820526049
 20
183.2791876114552
 10
52.26687755866908
 20
181.8120658332919
 10
52.84910351660733
 20
180.3472002736193
 10
53.43663478989792
 20
178.8844618605746
 10
54.02950226927908
 20
177.4239007218465
 10
54.62784491401521
 20
175.9656071482056
 10
55.23180168337074
 20
174.5096714304226
 10
55.84151153661001
 20
173.0561838592682
 10
56.45711343299741
 20
171.6052347255129
 10
57.07874633179727
 20
170.1569143199276
 10
57.70654919227411
 20
168.7113129332827
 10
58.34066097369219
 20
167.268520856349
 10
58.98122063531598
 20
165.8286283798971
 10
59.62836713640978
 20
164.3917257946976
 10
60.2822394362381
 20
162.9579033915213
 10
60.94297649406517
 20
161.5272514611388
 10
61.61071632687138
 20
160.0998598740907
 10
62.28542214824988
 20
158.6757405439624
 10
62.9666787610556
 20
157.2547366247419
 10
63.65402151735395
 20
155.8366692168801
 10
64.34702717558677
 20
154.4213772196127
 10
65.04571213687921
 20
153.0088885152767
 10
65.75035781804285
 20
151.5993449048263
 10
66.46125005121722
 20
150.1928902333768
 10
67.17903009483944
 20
148.7898890995633
 10
67.90525888371454
 20
147.3912773084738
 10
68.64164413436713
 20
145.9980818305982
 10
68.64164413436713
 20
145.9980818305982
 10
68.64164413436713
 20
145.9980818305982
 10
68.64164413436713
 20
145.9980818305982
 42
-0.1266625550389643
 10
74.99997599999985
 20
121.498066263038
 10
74.99997599999985
 20
76.23415576858758
 10
74.99997599999985
 20
75.90230162926622
 10
74.99997599999985
 20
75.57275557420254
 10
74.99997599999985
 20
75.24550651826612
 10
74.99997599999985
 20
74.92054337632658
 10
74.99997599999985
 20
74.59785506325356
 10
74.99997599999985
 20
74.27743049391665
 10
74.99997599999985
 20
73.95925858318548
 10
74.99997599999985
 20
73.6433282459297
 10
74.99997599999985
 20
73.32962839701886
 10
74.99997599999985
 20
73.01814795132266
 10
74.99997599999985
 20
72.70887582371063
 10
74.99997599999985
 20
72.40180092905244
 10
74.99997599999985
 20
72.09691218221768
 10
74.99997599999985
 20
71.79419849807598
 10
74.99997599999985
 20
71.49364879149698
 10
74.99997599999985
 20
71.19525197735026
 10
74.99997599999985
 20
70.89899697050547
 10
74.99997599999985
 20
70.60487268583219
 10
74.99997599999985
 20
70.31286803820006
 10
74.99997599999985
 20
70.02297194247872
 10
74.99997599999985
 20
69.73517331353775
 10
74.99997599999985
 20
69.44946106624678
 10
74.99997599999985
 20
69.16582411547546
 10
74.99997599999985
 20
68.88425137609335
 10
74.99997599999985
 20
68.60473176297009
 10
74.99997599999985
 20
68.32725419097528
 10
74.99997599999985
 20
68.0518075749786
 10
74.99997599999985
 20
67.77838082984961
 10
74.99997599999985
 20
67.50696287045792
 10
74.99997599999985
 20
67.23754261167323
 10
74.99997599999985
 20
66.97010896836502
 10
74.99997599999985
 20
66.70465085540303
 10
74.99997599999985
 20
66.44115718765684
 10
74.99997599999985
 20
66.17961687999605
 10
74.99997599999985
 20
65.92001884729029
 10
74.99997599999985
 20
65.66235200440917
 10
74.99997599999985
 20
65.4066052662223
 10
74.99997599999985
 20
65.15276754759931
 10
74.99997599999985
 20
64.90082776340982
 10
74.99997599999985
 20
64.65077482852347
 10
74.99997599999985
 20
64.40259765780985
 10
74.99997599999985
 20
64.15628516613856
 10
74.99997599999985
 20
63.91182626837923
 10
74.99997599999985
 20
63.66920987940146
 10
74.99997599999985
 20
63.42842491407495
 10
74.99997599999985
 20
63.18946028726924
 10
74.99997599999985
 20
62.95230491385392
 10
74.99997599999985
 20
62.71694770869871
 10
74.99997599999985
 20
62.48337758667315
 10
74.99997599999985
 20
62.25158346264689
 10
74.99997599999985
 20
62.02155425148953
 10
74.99997599999985
 20
61.79327886807067
 10
74.99997599999985
 20
61.56674622725994
 10
74.99997599999985
 20
61.34194524392703
 10
74.99997599999985
 20
61.11886483294146
 10
74.99997599999985
 20
60.89749390917288
 10
74.99997599999985
 20
60.67782138749089
 10
74.99997599999985
 20
60.45983618276515
 10
74.99997599999985
 20
60.24352720986525
 10
74.99997599999985
 20
60.02888338366084
 10
74.99997599999985
 20
59.81589361902146
 10
74.99997599999985
 20
59.60454683081678
 10
74.99997599999985
 20
59.39483193391646
 10
74.99997599999985
 20
59.18673784319003
 10
74.99997599999985
 20
58.98025347350714
 10
74.99997599999985
 20
58.77536773973748
 10
74.99997599999985
 20
58.57206955675053
 10
74.99997599999985
 20
58.370347839416
 10
74.99997599999985
 20
58.17019150260353
 10
74.99997599999985
 20
57.97158946118265
 10
74.99997599999985
 20
57.77453063002305
 10
74.99997599999985
 20
57.57900392399429
 10
74.99997599999985
 20
57.38499825796603
 10
74.99997599999985
 20
57.19250254680787
 10
74.99997599999985
 20
57.00150570538946
 10
74.99997599999985
 20
56.81199664858036
 10
74.99997599999985
 20
56.62396429125021
 10
74.99997599999985
 20
56.43739754826867
 10
74.99997599999985
 20
56.2522853345053
 10
74.99997599999985
 20
56.06861656482976
 10
74.99997599999985
 20
55.88638015411163
 10
74.99997599999985
 20
55.70556501722053
 10
74.99997599999985
 20
55.5261600690261
 10
74.99997599999985
 20
55.34815422439796
 10
74.99997599999985
 20
55.17153639820572
 10
74.99997599999985
 20
54.99629550531897
 10
74.99997599999985
 20
54.82242046060735
 10
74.99997599999985
 20
54.64990017894052
 10
74.99997599999985
 20
54.478723575188
 10
74.99997599999985
 20
54.30887956421952
 10
74.99997599999985
 20
54.1403570609046
 10
74.99997599999985
 20
53.97314498011294
 10
74.99997599999985
 20
53.80723223671402
 10
74.99997599999985
 20
53.64260774557767
 10
74.99997599999985
 20
53.31717917957067
 10
74.99997599999985
 20
52.99677060104889
 10
74.99997599999985
 20
52.68129332896926
 10
74.99997599999985
 20
52.37065868228876
 10
74.99997599999985
 20
52.06477797996431
 10
74.99997599999985
 20
51.76356254095279
 10
74.99997599999985
 20
51.4669236842112
 10
74.99997599999985
 20
51.17477272869646
 10
74.99997599999985
 20
50.88702099336552
 10
74.99997599999985
 20
50.60357979717531
 10
74.99997599999985
 20
50.32436045908275
 10
74.99997599999985
 20
50.04927429804482
 10
74.99997599999985
 20
49.77823263301843
 10
74.99997599999985
 20
49.5111467829605
 10
74.99997599999985
 20
49.24792806682802
 10
74.99997599999985
 20
48.98848780357791
 10
74.99997599999985
 20
48.7327373121671
 10
74.99997599999985
 20
48.48058791155249
 10
74.99997599999985
 20
48.23195092069114
 10
74.99997599999985
 20
47.98673765853985
 10
74.99997599999985
 20
47.74485944405563
 10
74.99997599999985
 20
47.50622759619543
 10
74.99997599999985
 20
47.27075343391613
 10
74.99997599999985
 20
47.03834827617474
 10
74.99997599999985
 20
46.80892344192815
 10
74.99997599999985
 20
46.58239025013332
 10
74.99997599999985
 20
46.35866001974719
 10
74.99997599999985
 20
46.13764406972665
 10
74.99997599999985
 20
45.91925371902873
 10
74.99997599999985
 20
45.70340028661028
 10
74.99997599999985
 20
45.48999509142833
 10
74.99997599999985
 20
45.27894945243974
 10
74.99997599999985
 20
45.07017468860146
 10
74.99997599999985
 20
44.86358211887046
 10
74.99997599999985
 20
44.65908306220367
 10
74.99997599999985
 20
44.45658883755803
 10
74.99997599999985
 20
44.25601076389045
 10
74.99997599999985
 20
44.05726016015793
 10
74.99997599999985
 20
43.86024834531736
 10
74.99997599999985
 20
43.66488663832564
 10
74.99997599999985
 20
43.4710863581398
 10
74.99997599999985
 20
43.27875882371677
 10
74.99997599999985
 20
43.08781535401339
 10
74.99997599999985
 20
42.70972588459364
 10
74.99997599999985
 20
42.33610850153596
 10
74.99997599999985
 20
41.96625375649595
 10
74.99997599999985
 20
41.59945220112911
 10
74.99997599999985
 20
41.23499438709091
 10
74.99997599999985
 20
40.87217086603696
 10
74.99997599999985
 20
40.51027218962263
 10
74.99997599999985
 20
40.41985888901614
 10
74.99997599999985
 20
40.40855762091459
 10
74.99997599999985
 20
40.40290699402658
 10
74.99997599999985
 20
40.4014943375926
 10
74.99997599999985
 20
40.40078800938977
 10
74.99997599999985
 20
40.40061142733956
 10
74.99997599999985
 20
40.40052313631457
 10
74.99997599999985
 20
40.400478990802
 10
74.99998431829062
 20
40.39802526593724
 10
75.00006595956401
 20
40.37415140297593
 10
75.00074439570645
 20
40.18422898810507
 10
75.00146789991777
 20
39.99619779179875
 10
75.00223658472091
 20
39.81004607224804
 10
75.00305056263876
 20
39.62576208764415
 10
75.00390994619431
 20
39.4433340961785
 10
75.00481484791048
 20
39.26275035604181
 10
75.00576538031022
 20
39.08399912542506
 10
75.00676165591648
 20
38.90706866251969
 10
75.00780378725218
 20
38.73194722551671
 10
75.0088918868403
 20
38.55862307260725
 10
75.01002606720368
 20
38.38708446198257
 10
75.01120644086542
 20
38.21731965183369
 10
75.01243312034834
 20
38.04931690035198
 10
75.0137062181754
 20
37.88306446572835
 10
75.01502584686956
 20
37.71855060615378
 10
75.01639211895376
 20
37.55576357981944
 10
75.01780514695095
 20
37.39469164491663
 10
75.01926504338405
 20
37.23532305963642
 10
75.02077192077599
 20
37.07764608217019
 10
75.02232589164975
 20
36.92164897070882
 10
75.02392706852825
 20
36.7673199834432
 10
75.02557556393444
 20
36.61464737856466
 10
75.02727149039123
 20
36.46361941426443
 10
75.02901496042163
 20
36.31422434873355
 10
75.03080608654848
 20
36.16645044016343
 10
75.03264498129481
 20
36.02028594674493
 10
75.03453175718352
 20
35.87571912666897
 10
75.03646652673754
 20
35.7327382381269
 10
75.03844940247984
 20
35.59133153930986
 10
75.04048049693337
 20
35.45148728840894
 10
75.04255992262101
 20
35.31319374361557
 10
75.04468779206575
 20
35.17643916312062
 10
75.04686421779057
 20
35.04121180511499
 10
75.04908931231835
 20
34.90749992779001
 10
75.05136318817199
 20
34.77529178933686
 10
75.05368595787452
 20
34.64457564794662
 10
75.05605773394887
 20
34.51533976181064
 10
75.05847862891794
 20
34.38757238911984
 10
75.06094875530469
 20
34.26126178806522
 10
75.06346822563202
 20
34.13639621683797
 10
75.06603715242298
 20
34.01296393362935
 10
75.0686556482004
 20
33.89095319663045
 10
75.07132382548727
 20
33.77035226403234
 10
75.07404179680651
 20
33.65114939402622
 10
75.07680967468108
 20
33.5333328448034
 10
75.07962757163395
 20
33.41689087455478
 10
75.08249560018798
 20
33.30181174147134
 10
75.08541387286619
 20
33.18808370374437
 10
75.08838250219149
 20
33.07569501956506
 10
75.09140160068678
 20
32.96463394712447
 10
75.09447128087507
 20
32.85488874461373
 10
75.09759165527926
 20
32.74644767022403
 10
75.10076283642231
 20
32.63929898214661
 10
75.10398493682713
 20
32.53343093857245
 10
75.10725806901668
 20
32.42883179769251
 10
75.11395787884182
 20
32.2233932567803
 10
75.12086316608112
 20
32.0228894249392
 10
75.12797483091823
 20
31.82722636769842
 10
75.1352937735366
 20
31.63631015058684
 10
75.14282089411977
 20
31.45004683913328
 10
75.1505570928513
 20
31.26834249886702
 10
75.15850326991468
 20
31.09110319531715
 10
75.16666032549344
 20
30.91823499401267
 10
75.17502915977113
 20
30.74964396048233
 10
75.18361067293128
 20
30.58523616025543
 10
75.19240576515739
 20
30.42491765886103
 10
75.20141533663299
 20
30.26859452182816
 10
75.21064028754167
 20
30.11617281468563
 10
75.22008151806686
 20
29.96755860296259
 10
75.22973992839212
 20
29.82265795218831
 10
75.23961641870105
 20
29.68137692789156
 10
75.24971188917709
 20
29.54362159560139
 10
75.26002724000381
 20
29.40929802084685
 10
75.2705633713647
 20
29.27831226915714
 10
75.28132118344335
 20
29.15057040606115
 10
75.29230157642324
 20
29.02597849708786
 10
75.3035054504879
 20
28.90444260776638
 10
75.31493370582087
 20
28.78586880362582
 10
75.32658724260567
 20
28.67016315019515
 10
75.33846696102583
 20
28.55723171300332
 10
75.35057376126488
 20
28.44698055757942
 10
75.36290854350632
 20
28.33931574945263
 10
75.37547220793377
 20
28.2341433541518
 10
75.38826565473065
 20
28.13136943720598
 10
75.40128978408053
 20
28.03090006414425
 10
75.41454549616695
 20
27.93264130049568
 10
75.42803369117341
 20
27.83649921178932
 10
75.44175526928349
 20
27.74237986355405
 10
75.45571113068063
 20
27.65018932131904
 10
75.46990217554841
 20
27.55983365061337
 10
75.48432930407037
 20
27.471218916966
 10
75.49899341643004
 20
27.38425118590584
 10
75.51389541281094
 20
27.29883652296213
 10
75.52903619339655
 20
27.21488099366383
 10
75.54441665837043
 20
27.13229066353995
 10
75.56003770791615
 20
27.05097159811953
 10
75.59200516145708
 20
26.89177152350527
 10
75.62494575548756
 20
26.73652929405335
 10
75.6588666914758
 20
26.5844934339961
 10
75.69377517089002
 20
26.43491246756564
 10
75.72967839519844
 20
26.28703491899438
 10
75.76658356586931
 20
26.14010931251454
 10
75.84351968704926
 20
25.8470858833312
 10
75.88370254745234
 20
25.70096053359731
 10
75.92514046816503
 20
25.55518800749576
 10
75.9679173458791
 20
25.40983975498023
 10
76.01211707728634
 20
25.26498722600445
 10
76.05782355907852
 20
25.12070187052223
 10
76.10512068794744
 20
24.97705513848718
 10
76.15409236058488
 20
24.83411847985309
 10
76.20482247368257
 20
24.69196334457365
 10
76.25739492393236
 20
24.55066118260265
 10
76.31189360802601
 20
24.41028344389378
 10
76.36840242265535
 20
24.27090157840075
 10
76.42700526451204
 20
24.13258703607733
 10
76.48778603028794
 20
23.99541126687717
 10
76.55082861667485
 20
23.85944572075408
 10
76.61621692036447
 20
23.72476184766174
 10
76.68403483804872
 20
23.59143109755394
 10
76.75436626641925
 20
23.4595249203843
 10
76.82729510216787
 20
23.32911476610661
 10
76.90290524198643
 20
23.20027208467462
 10
76.98128058256664
 20
23.07306832604201
 10
77.06246976951359
 20
22.94755558414357
 10
77.14635398012117
 20
22.82369399774041
 10
77.23276471209001
 20
22.70141642702601
 10
77.32153345523681
 20
22.58065572786506
 10
77.41249169937827
 20
22.46134475612206
 10
77.50547093433119
 20
22.34341636766169
 10
77.60030264991229
 20
22.22680341834859
 10
77.69681833593839
 20
22.11143876404731
 10
77.79484948222618
 20
21.99725526062247
 10
77.89422757859241
 20
21.88418576393872
 10
77.99478411485387
 20
21.77216312986059
 10
78.09635058082728
 20
21.66112021425272
 10
78.30196907720318
 20
21.44175592064261
 10
78.51070336460563
 20
21.22593586288332
 10
78.7225070072856
 20
21.01363384345547
 10
78.9373344176926
 20
20.80482399779646
 10
79.15514000827609
 20
20.59948046134383
 10
79.37587819148562
 20
20.39757736953487
 10
79.59950337977069
 20
20.19908885780711
 10
79.82596998558078
 20
20.00398906159796
 10
80.0552324213654
 20
19.81225211634484
 10
80.28724509957404
 20
19.62385215748514
 10
80.52196243265623
 20
19.43876332045636
 10
80.75933883306147
 20
19.25695974069589
 10
80.99932871323924
 20
19.07841555364121
 10
81.24188648563903
 20
18.90310489472966
 10
81.48696656271033
 20
18.73100189939879
 10
81.73452335690276
 20
18.56208070308588
 10
81.98451128066572
 20
18.39631544122847
 10
82.23688474644877
 20
18.23368024926395
 10
82.49159816670134
 20
18.07414926262976
 10
82.748605953873
 20
17.91769661676335
 10
83.00786252041325
 20
17.76429644710207
 10
83.26932227877151
 20
17.61392288908348
 10
83.53293964139737
 20
17.4665500781449
 10
83.79866902074031
 20
17.32215214972382
 10
84.06646482924982
 20
17.18070323925758
 10
84.33628147937536
 20
17.04217748218377
 10
84.60807338356643
 20
16.90654901393975
 10
84.88179495427271
 20
16.77379196996287
 10
85.15740060394355
 20
16.6438804856906
 10
85.43484474502845
 20
16.51678869656041
 10
85.71408178997698
 20
16.39249073800971
 10
85.99506615123862
 20
16.27096074547592
 10
86.27775224126281
 20
16.1521728543965
 10
86.56209447249912
 20
16.03610120020886
 10
86.84804725739706
 20
15.92271991835042
 10
87.13556500840608
 20
15.81200314425865
 10
87.42460213797571
 20
15.7039250133709
 10
87.71511305855543
 20
15.59845966112471
 10
88.00705218259473
 20
15.49558122295741
 10
88.30037392254322
 20
15.39526383430649
 10
88.59503269085029
 20
15.29748163060935
 10
88.89098289996553
 20
15.20220874730341
 10
89.18817896233838
 20
15.10941931982614
 10
89.48657529041835
 20
15.01908748361495
 10
89.78612629665496
 20
14.93118737410725
 10
90.08678639349772
 20
14.84569312674051
 10
90.38850999339606
 20
14.76257887695215
 10
90.69125150879962
 20
14.68181876017957
 10
90.99496535215781
 20
14.60338691186024
 10
91.29960593592004
 20
14.52725746743158
 10
91.60512767253591
 20
14.453404562331
 10
91.91148497445507
 20
14.38180233199591
 10
92.21863225412681
 20
14.31242491186378
 10
92.52652392400074
 20
14.24524643737203
 10
92.83511439652633
 20
14.18024104395812
 10
93.14435808415309
 20
14.11738286705946
 10
93.45420939933047
 20
14.05664604211341
 10
93.76462275450808
 20
13.9980047045575
 10
94.07555256213527
 20
13.94143298982914
 10
94.38695323466172
 20
13.88690503336573
 10
94.69877918453681
 20
13.8343949706047
 10
95.01098482421005
 20
13.78387693698346
 10
95.32352456613088
 20
13.73532506793953
 10
95.63635282274907
 20
13.68871349891026
 10
95.94942400651389
 20
13.64401636533307
 10
96.26269252987491
 20
13.60120780264549
 10
96.57611280528159
 20
13.56026194628481
 10
96.8896392451835
 20
13.52115293168856
 10
97.20322626203014
 20
13.48385489429415
 10
97.51682826827092
 20
13.448341969539
 10
97.83039967635545
 20
13.41458829286057
 10
98.14389489873315
 20
13.38256799969622
 10
98.45726834785359
 20
13.35225522548342
 10
98.77047443616621
 20
13.32362410565963
 10
99.08346757612058
 20
13.29664877566222
 10
99.39620218016614
 20
13.27130337092865
 10
99.70863266075241
 20
13.24756202689639
 10
100.0207134303288
 20
13.22539887900278
 10
100.332398901345
 20
13.20478806268539
 10
100.6436434862505
 20
13.18570371338148
 10
100.9544015974947
 20
13.16811996652859
 10
101.2646276475271
 20
13.15201095756413
 10
101.5742760487973
 20
13.13735082192551
 10
101.8833012137547
 20
13.1241136950502
 10
102.1916575548488
 20
13.11227371237555
 10
102.4992994845292
 20
13.1018050093391
 10
102.8061814152454
 20
13.0926817213782
 10
103.1122577594467
 20
13.08487798393025
 10
103.4174829295829
 20
13.0783679324328
 10
103.7218113381033
 20
13.07312570232318
 10
104.0251973974575
 20
13.06912542903887
 10
104.3275955200949
 20
13.06634124801729
 10
104.6289601184651
 20
13.06474729469585
 10
104.9292618839003
 20
13.06430166658464
 10
105.0791432606813
 20
13.06436060952904
 10
105.1546173915901
 20
13.06439652631394
 10
105.2327744055427
 20
13.06442877768074
 10
105.2736201970692
 20
13.06444356833037
 10
105.3160501534473
 20
13.06445749002313
 10
105.3603687560405
 20
13.06447055855818
 10
105.4068804862124
 20
13.06448278973482
 10
105.4558898253264
 20
13.06449419935222
 10
105.5077012547463
 20
13.06450480320956
 10
105.5626192558355
 20
13.06451461710617
 10
105.6209483099576
 20
13.06452365684112
 10
105.682992898476
 20
13.06453193821375
 10
105.7490575027544
 20
13.06453947702317
 10
105.8194466041563
 20
13.06454628906869
 10
105.8944646840452
 20
13.06455239014946
 10
105.9338047413483
 20
13.06455517901531
 10
105.9744162237847
 20
13.06455779606472
 10
106.0163371915245
 20
13.06456024327258
 10
106.0596057047384
 20
13.0645625226137
 10
106.1042598235967
 20
13.06456463606309
 10
106.1503376082698
 20
13.06456658559563
 10
106.1978771189282
 20
13.0645683731862
 10
106.2469164157425
 20
13.06457000080968
 10
106.2974935588829
 20
13.06457147044102
 10
106.3496466085199
 20
13.06457278405509
 10
106.4034136248241
 20
13.06457394362678
 10
106.4588326679657
 20
13.06457495113108
 10
106.5159417981154
 20
13.06457580854277
 10
106.5747790754435
 20
13.06457651783683
 10
106.6353825601204
 20
13.0645770809881
 10
106.6977903123164
 20
13.06457749997156
 10
106.7620403922022
 20
13.06457777676212
 10
106.8281708599483
 20
13.06457791333457
 10
106.8962197757251
 20
13.06457791166389
 10
106.9662251997029
 20
13.06457777372498
 10
107.0382251920523
 20
13.06457750149275
 10
107.1122578129437
 20
13.06457709694206
 10
107.1883611225474
 20
13.06457656204787
 10
107.266573181034
 20
13.06457589878505
 10
107.3469320485739
 20
13.06457510912844
 10
107.4294757853376
 20
13.06457419505307
 10
107.5142424514954
 20
13.06457315853373
 10
107.6012701072179
 20
13.0645720015454
 10
107.6905968126754
 20
13.06457072606292
 10
107.7822606280385
 20
13.06456933406122
 10
107.8762996134774
 20
13.06456782751524
 10
107.9727518291625
 20
13.06456620839981
 10
108.0716553352645
 20
13.06456447868987
 10
108.173048191954
 20
13.06456264036035
 10
108.2769684594012
 20
13.06456069538609
 10
108.3834541977766
 20
13.06455864574207
 10
108.4925434672507
 20
13.06455649340307
 10
108.6042743279937
 20
13.06455424034413
 10
108.7186848401764
 20
13.06455188854005
 10
108.8358130639689
 20
13.06454943996579
 10
108.9556970595418
 20
13.06454689659625
 10
109.0783748870656
 20
13.06454426040631
 10
109.2038846067107
 20
13.06454153337085
 10
109.3322642786475
 20
13.06453871746481
 10
109.4635519630465
 20
13.06453581466309
 10
109.597785720078
 20
13.06453282694059
 10
109.7350036099125
 20
13.06452975627218
 10
109.8752436927203
 20
13.06452660463282
 10
110.0185440286719
 20
13.06452337399736
 10
110.1649426779383
 20
13.06452006634072
 10
110.3144777006896
 20
13.0645166836378
 10
110.4671871570961
 20
13.06451322786353
 10
110.6231091073283
 20
13.06450970099274
 10
110.7822816115567
 20
13.06450610500042
 10
110.9447427299517
 20
13.06450244186146
 10
111.1105305226837
 20
13.06449871355068
 10
111.2796830499233
 20
13.06449492204302
 10
111.4522383718407
 20
13.06449106931347
 10
111.6282345486066
 20
13.06448715733683
 10
111.8077096403912
 20
13.06448318808799
 10
111.9907017073651
 20
13.06447916354193
 10
112.1772488096988
 20
13.06447508567351
 10
112.3673890075625
 20
13.06447095645763
 10
112.5611603611263
 20
13.0644667778692
 10
112.7586009305611
 20
13.06446255188314
 10
112.959748776038
 20
13.06445828047435
 10
113.1646419577268
 20
13.06445396561764
 10
113.3733185357979
 20
13.06444960928803
 10
113.5858165704219
 20
13.06444521346043
 10
113.8021741217692
 20
13.06444078010963
 10
114.0224292500101
 20
13.06443631121061
 10
114.2466200153151
 20
13.06443180873827
 10
114.4747844778548
 20
13.06442727466748
 10
114.7069606977995
 20
13.06442271097319
 10
114.9431867353196
 20
13.0644181196302
 10
115.1835006505857
 20
13.06441350261354
 10
115.4279405037682
 20
13.06440886189807
 10
115.6765443550374
 20
13.06440419945863
 10
115.9293502645639
 20
13.0643995172702
 10
116.1863962925173
 20
13.06439481730763
 10
116.4477204990688
 20
13.06439010154588
 10
116.7133609443896
 20
13.06438537195981
 10
116.9833556886495
 20
13.06438063052428
 10
117.2577427920189
 20
13.06437587921431
 10
117.5365603146682
 20
13.06437112000469
 10
117.8198463167678
 20
13.06436635487034
 10
118.1076388584882
 20
13.06436158578623
 10
118.3999759999998
 20
13.0643568147272
  0
LWPOLYLINE
  5
520
330
1F
100
AcDbEntity
  8
0
100
AcDbPolyline
 90
      654
 70
     0
 43
0.0
 10
38.39997599999987
 20
260.400471
 10
38.44748253035299
 20
258.8258855542382
 10
38.49537785718622
 20
257.2512925859256
 10
38.54405077697947
 20
255.676684572511
 10
38.5938900862128
 20
254.1020539914436
 10
38.64528458136624
 20
252.5273933201725
 10
38.69862305891979
 20
250.9526950361467
 10
38.75429431535354
 20
249.3779516168153
 10
38.81268714714746
 20
247.8031555396273
 10
38.8741903507816
 20
246.2282992820318
 10
38.93919272273598
 20
244.6533753214779
 10
39.00808305949062
 20
243.0783761354147
 10
39.08125015752557
 20
241.5032942012911
 10
39.15908659860143
 20
239.9281231102126
 10
39.24227815304931
 20
238.3529427114309
 10
39.33200774716573
 20
236.7779791209918
 10
39.42950648714168
 20
235.2034726298055
 10
39.53600547916808
 20
233.6296635287828
 10
39.65273582943598
 20
232.0567921088341
 10
39.78092864413639
 20
230.4850986608698
 10
39.92181502946022
 20
228.9148234758005
 10
40.07662609159853
 20
227.3462068445368
 10
40.24659293674226
 20
225.7794890579891
 10
40.43294667108244
 20
224.2149104070679
 10
40.63691840081003
 20
222.6527111826837
 10
40.85973923211599
 20
221.0931316757471
 10
41.10258863800559
 20
219.5364086710317
 10
41.36571811536582
 20
217.982715939356
 10
41.64857592271146
 20
216.4321727078649
 10
41.95058379599974
 20
214.8848964026961
 10
42.27116347118793
 20
213.3410044499876
 10
42.60973668423331
 20
211.8006142758774
 10
42.96572517109308
 20
210.2638433065034
 10
43.33855066772453
 20
208.7308089680036
 10
43.72763491008487
 20
207.2016286865157
 10
44.13239963413132
 20
205.6764198881779
 10
44.55226657582114
 20
204.155299999128
 10
44.98665747111163
 20
202.6383864455041
 10
45.43499405595996
 20
201.1257966534439
 10
45.89669789207187
 20
199.6176411242841
 10
46.37118687671658
 20
198.1138847337295
 10
46.85787542389788
 20
196.6143539316339
 10
47.35617780963145
 20
195.1188696841671
 10
47.86550830993298
 20
193.627252957499
 10
48.38528120081804
 20
192.1393247177995
 10
48.91491075830235
 20
190.6549059312385
 10
49.45381125840157
 20
189.1738175639858
 10
50.0013969771313
 20
187.6958805822113
 10
50.55708219050728
 20
186.2209159520847
 10
51.12028117454515
 20
184.748744639776
 10
51.69040820526049
 20
183.2791876114552
 10
52.26687755866908
 20
181.8120658332919
 10
52.84910351660733
 20
180.3472002736193
 10
53.43663478989792
 20
178.8844618605746
 10
54.02950226927908
 20
177.4239007218465
 10
54.62784491401521
 20
175.9656071482056
 10
55.23180168337074
 20
174.5096714304226
 10
55.84151153661001
 20
173.0561838592682
 10
56.45711343299741
 20
171.6052347255129
 10
57.07874633179727
 20
170.1569143199276
 10
57.70654919227411
 20
168.7113129332827
 10
58.34066097369219
 20
167.268520856349
 10
58.98122063531598
 20
165.8286283798971
 10
59.62836713640978
 20
164.3917257946976
 10
60.2822394362381
 20
162.9579033915213
 10
60.94297649406517
 20
161.5272514611388
 10
61.61071632687138
 20
160.0998598740907
 10
62.28542214824988
 20
158.6757405439624
 10
62.9666787610556
 20
157.2547366247419
 10
63.65402151735395
 20
155.8366692168801
 10
64.34702717558677
 20
154.4213772196127
 10
65.04571213687921
 20
153.0088885152767
 10
65.75035781804285
 20
151.5993449048263
 10
66.46125005121722
 20
150.1928902333768
 10
67.17903009483944
 20
148.7898890995633
 10
67.90525888371454
 20
147.3912773084738
 10
68.64164413436713
 20
145.9980818305982
 10
68.64164413436713
 20
145.9980818305982
 10
68.64164413436713
 20
145.9980818305982
 10
68.64164413436713
 20
145.9980818305982
 10
68.64164413436713
 20
145.9980818305982
 42
-0.0766413093061996
 10
72.49997599999985
 20
125.6851081162203
 10
72.49997599999985
 20
79.68208052465616
 10
72.49997599999985
 20
79.32653586058723
 10
72.49997599999985
 20
78.97341013207976
 10
72.49997599999985
 20
78.62269225400344
 10
72.49997599999985
 20
78.2743711412278
 10
72.49997599999985
 20
77.92843570862249
 10
72.49997599999985
 20
77.58487487105714
 10
72.49997599999985
 20
77.24367754340136
 10
72.49997599999985
 20
76.90483264052473
 10
72.49997599999985
 20
76.56832907729693
 10
72.49997599999985
 20
76.23415576858758
 10
72.49997599999985
 20
75.90230162926622
 10
72.49997599999985
 20
75.57275557420254
 10
72.49997599999985
 20
75.24550651826612
 10
72.49997599999985
 20
74.92054337632658
 10
72.49997599999985
 20
74.59785506325356
 10
72.49997599999985
 20
74.27743049391665
 10
72.49997599999985
 20
73.95925858318548
 10
72.49997599999985
 20
73.6433282459297
 10
72.49997599999985
 20
73.32962839701886
 10
72.49997599999985
 20
73.01814795132266
 10
72.49997599999985
 20
72.70887582371063
 10
72.49997599999985
 20
72.40180092905244
 10
72.49997599999985
 20
72.09691218221768
 10
72.49997599999985
 20
71.79419849807598
 10
72.49997599999985
 20
71.49364879149698
 10
72.49997599999985
 20
71.19525197735026
 10
72.49997599999985
 20
70.89899697050547
 10
72.49997599999985
 20
70.60487268583219
 10
72.49997599999985
 20
70.31286803820006
 10
72.49997599999985
 20
70.02297194247872
 10
72.49997599999985
 20
69.73517331353775
 10
72.49997599999985
 20
69.44946106624678
 10
72.49997599999985
 20
69.16582411547546
 10
72.49997599999985
 20
68.88425137609335
 10
72.49997599999985
 20
68.60473176297009
 10
72.49997599999985
 20
68.32725419097528
 10
72.49997599999985
 20
68.0518075749786
 10
72.49997599999985
 20
67.77838082984961
 10
72.49997599999985
 20
67.50696287045792
 10
72.49997599999985
 20
67.23754261167323
 10
72.49997599999985
 20
66.97010896836502
 10
72.49997599999985
 20
66.70465085540303
 10
72.49997599999985
 20
66.44115718765684
 10
72.49997599999985
 20
66.17961687999605
 10
72.49997599999985
 20
65.92001884729029
 10
72.49997599999985
 20
65.66235200440917
 10
72.49997599999985
 20
65.4066052662223
 10
72.49997599999985
 20
65.15276754759931
 10
72.49997599999985
 20
64.90082776340982
 10
72.49997599999985
 20
64.65077482852347
 10
72.49997599999985
 20
64.40259765780985
 10
72.49997599999985
 20
64.15628516613856
 10
72.49997599999985
 20
63.91182626837923
 10
72.49997599999985
 20
63.66920987940146
 10
72.49997599999985
 20
63.42842491407495
 10
72.49997599999985
 20
63.18946028726924
 10
72.49997599999985
 20
62.95230491385392
 10
72.49997599999985
 20
62.71694770869871
 10
72.49997599999985
 20
62.48337758667315
 10
72.49997599999985
 20
62.25158346264689
 10
72.49997599999985
 20
62.02155425148953
 10
72.49997599999985
 20
61.79327886807067
 10
72.49997599999985
 20
61.56674622725994
 10
72.49997599999985
 20
61.34194524392703
 10
72.49997599999985
 20
61.11886483294146
 10
72.49997599999985
 20
60.89749390917288
 10
72.49997599999985
 20
60.67782138749089
 10
72.49997599999985
 20
60.45983618276515
 10
72.49997599999985
 20
60.24352720986525
 10
72.49997599999985
 20
60.02888338366084
 10
72.49997599999985
 20
59.81589361902146
 10
72.49997599999985
 20
59.60454683081678
 10
72.49997599999985
 20
59.39483193391646
 10
72.49997599999985
 20
59.18673784319003
 10
72.49997599999985
 20
58.98025347350714
 10
72.49997599999985
 20
58.77536773973748
 10
72.49997599999985
 20
58.57206955675053
 10
72.49997599999985
 20
58.370347839416
 10
72.49997599999985
 20
58.17019150260353
 10
72.49997599999985
 20
57.97158946118265
 10
72.49997599999985
 20
57.77453063002305
 10
72.49997599999985
 20
57.57900392399429
 10
72.49997599999985
 20
57.38499825796603
 10
72.49997599999985
 20
57.19250254680787
 10
72.49997599999985
 20
57.00150570538946
 10
72.49997599999985
 20
56.81199664858036
 10
72.49997599999985
 20
56.62396429125021
 10
72.49997599999985
 20
56.43739754826867
 10
72.49997599999985
 20
56.2522853345053
 10
72.49997599999985
 20
56.06861656482976
 10
72.49997599999985
 20
55.88638015411163
 10
72.49997599999985
 20
55.70556501722053
 10
72.49997599999985
 20
55.5261600690261
 10
72.49997599999985
 20
55.34815422439796
 10
72.49997599999985
 20
55.17153639820572
 10
72.49997599999985
 20
54.99629550531897
 10
72.49997599999985
 20
54.82242046060735
 10
72.49997599999985
 20
54.64990017894052
 10
72.49997599999985
 20
54.478723575188
 10
72.49997599999985
 20
54.30887956421952
 10
72.49997599999985
 20
54.1403570609046
 10
72.49997599999985
 20
53.97314498011294
 10
72.49997599999985
 20
53.80723223671402
 10
72.49997599999985
 20
53.64260774557767
 10
72.49997599999985
 20
53.47926042157332
 10
72.49997599999985
 20
53.31717917957067
 10
72.49997599999985
 20
53.15635293443932
 10
72.49997599999985
 20
52.99677060104889
 10
72.49997599999985
 20
52.83842109426903
 10
72.49997599999985
 20
52.68129332896926
 10
72.49997599999985
 20
52.52537622001931
 10
72.49997599999985
 20
52.37065868228876
 10
72.49997599999985
 20
52.21712963064724
 10
72.49997599999985
 20
52.06477797996431
 10
72.49997599999985
 20
51.9135926451096
 10
72.49997599999985
 20
51.76356254095279
 10
72.49997599999985
 20
51.61467658236347
 10
72.49997599999985
 20
51.4669236842112
 10
72.49997599999985
 20
51.32029276136567
 10
72.49997599999985
 20
51.17477272869646
 10
72.49997599999985
 20
51.03035250107321
 10
72.49997599999985
 20
50.88702099336552
 10
72.49997599999985
 20
50.74476712044301
 10
72.49997599999985
 20
50.60357979717531
 10
72.49997599999985
 20
50.463447938432
 10
72.49997599999985
 20
50.32436045908275
 10
72.49997599999985
 20
50.04927429804482
 10
72.49997599999985
 20
49.77823263301843
 10
72.49997599999985
 20
49.5111467829605
 10
72.49997599999985
 20
49.24792806682802
 10
72.49997599999985
 20
48.98848780357791
 10
72.49997599999985
 20
48.7327373121671
 10
72.49997599999985
 20
48.48058791155249
 10
72.49997599999985
 20
48.23195092069114
 10
72.49997599999985
 20
47.98673765853985
 10
72.49997599999985
 20
47.74485944405563
 10
72.49997599999985
 20
47.50622759619543
 10
72.49997599999985
 20
47.27075343391613
 10
72.49997599999985
 20
47.03834827617474
 10
72.49997599999985
 20
46.80892344192815
 10
72.49997599999985
 20
46.58239025013332
 10
72.49997599999985
 20
46.35866001974719
 10
72.49997599999985
 20
46.13764406972665
 10
72.49997599999985
 20
45.91925371902873
 10
72.49997599999985
 20
45.70340028661028
 10
72.49997599999985
 20
45.48999509142833
 10
72.49997599999985
 20
45.27894945243974
 10
72.49997599999985
 20
45.07017468860146
 10
72.49997599999985
 20
44.86358211887046
 10
72.49997599999985
 20
44.65908306220367
 10
72.49997599999985
 20
44.45658883755803
 10
72.49997599999985
 20
44.25601076389045
 10
72.49997599999985
 20
44.05726016015793
 10
72.49997599999985
 20
43.86024834531736
 10
72.49997599999985
 20
43.66488663832564
 10
72.49997599999985
 20
43.4710863581398
 10
72.49997599999985
 20
43.27875882371677
 10
72.49997599999985
 20
43.08781535401339
 10
72.49997599999985
 20
42.89816726798671
 10
72.49997599999985
 20
42.70972588459364
 10
72.49997599999985
 20
42.33610850153596
 10
72.49997599999985
 20
41.96625375649595
 10
72.49997599999985
 20
41.59945220112911
 10
72.49997599999985
 20
41.23499438709091
 10
72.49997599999985
 20
40.87217086603696
 10
72.49997599999985
 20
40.51027218962263
 10
72.49997599999985
 20
40.41985888901614
 10
72.49997599999985
 20
40.40855762091459
 10
72.49997599999985
 20
40.40290699402658
 10
72.49997599999985
 20
40.4014943375926
 10
72.49997599999985
 20
40.40078800938977
 10
72.49997599999985
 20
40.40061142733956
 10
72.49997599999985
 20
40.40052313631457
 10
72.49997599999985
 20
40.400478990802
 10
72.49998431829062
 20
40.39802526593724
 10
72.50006595956403
 20
40.37415140297593
 10
72.50074439570645
 20
40.18422898810507
 10
72.50146789991778
 20
39.99619779179875
 10
72.50223658472091
 20
39.81004607224804
 10
72.50305056263876
 20
39.62576208764415
 10
72.50390994619433
 20
39.4433340961785
 10
72.50481484791048
 20
39.26275035604181
 10
72.50576538031023
 20
39.08399912542506
 10
72.50676165591648
 20
38.90706866251969
 10
72.5078037872522
 20
38.73194722551671
 10
72.5088918868403
 20
38.55862307260725
 10
72.51002606720373
 20
38.38708446198257
 10
72.51120644086544
 20
38.21731965183369
 10
72.51243312034834
 20
38.04931690035198
 10
72.5137062181754
 20
37.88306446572835
 10
72.51502584686956
 20
37.71855060615378
 10
72.51639211895376
 20
37.55576357981944
 10
72.51780514695095
 20
37.39469164491663
 10
72.51926504338405
 20
37.23532305963642
 10
72.52077192077601
 20
37.07764608217019
 10
72.52232589164975
 20
36.92164897070882
 10
72.52392706852825
 20
36.7673199834432
 10
72.52557556393444
 20
36.61464737856466
 10
72.52727149039123
 20
36.46361941426443
 10
72.52901496042163
 20
36.31422434873355
 10
72.53080608654848
 20
36.16645044016343
 10
72.53264498129481
 20
36.02028594674493
 10
72.53453175718352
 20
35.87571912666897
 10
72.53646652673754
 20
35.7327382381269
 10
72.53844940247984
 20
35.59133153930986
 10
72.54048049693337
 20
35.45148728840894
 10
72.54255992262105
 20
35.31319374361557
 10
72.54468779206575
 20
35.17643916312062
 10
72.5468642177906
 20
35.04121180511499
 10
72.54908931231835
 20
34.90749992779001
 10
72.55136318817202
 20
34.77529178933686
 10
72.55368595787455
 20
34.64457564794662
 10
72.55605773394887
 20
34.51533976181064
 10
72.55847862891794
 20
34.38757238911984
 10
72.56094875530469
 20
34.26126178806522
 10
72.56346822563205
 20
34.13639621683797
 10
72.56603715242298
 20
34.01296393362935
 10
72.5686556482004
 20
33.89095319663045
 10
72.57132382548727
 20
33.77035226403234
 10
72.57404179680654
 20
33.65114939402622
 10
72.57680967468108
 20
33.5333328448034
 10
72.57962757163395
 20
33.41689087455478
 10
72.58249560018798
 20
33.30181174147134
 10
72.58541387286619
 20
33.18808370374437
 10
72.58838250219149
 20
33.07569501956506
 10
72.59140160068679
 20
32.96463394712447
 10
72.59447128087507
 20
32.85488874461373
 10
72.59759165527928
 20
32.74644767022403
 10
72.60076283642231
 20
32.63929898214661
 10
72.60398493682714
 20
32.53343093857245
 10
72.60725806901671
 20
32.42883179769251
 10
72.61058234551395
 20
32.32548981769804
 10
72.61395787884182
 20
32.2233932567803
 10
72.61738478152324
 20
32.1225303731303
 10
72.62086316608115
 20
32.0228894249392
 10
72.62439314503852
 20
31.92445867039817
 10
72.62797483091825
 20
31.82722636769842
 10
72.63160833624329
 20
31.73118077503102
 10
72.63529377353663
 20
31.63631015058684
 10
72.63903125532111
 20
31.54260275255723
 10
72.64282089411979
 20
31.45004683913328
 10
72.64666280245553
 20
31.35863066850618
 10
72.65055709285132
 20
31.26834249886702
 10
72.65450387783005
 20
31.17917058840692
 10
72.65850326991468
 20
31.09110319531715
 10
72.66255538162816
 20
31.00412857778872
 10
72.66666032549344
 20
30.91823499401267
 10
72.67081821403348
 20
30.83341070218013
 10
72.67502915977113
 20
30.74964396048233
 10
72.67929327522946
 20
30.66692302711039
 10
72.68361067293129
 20
30.58523616025543
 10
72.6924057651574
 20
30.42491765886103
 10
72.70141533663299
 20
30.26859452182816
 10
72.71064028754167
 20
30.11617281468563
 10
72.72008151806686
 20
29.96755860296259
 10
72.72973992839215
 20
29.82265795218831
 10
72.73961641870106
 20
29.68137692789156
 10
72.74971188917709
 20
29.54362159560139
 10
72.76002724000381
 20
29.40929802084685
 10
72.77056337136473
 20
29.27831226915714
 10
72.78132118344335
 20
29.15057040606115
 10
72.79230157642324
 20
29.02597849708786
 10
72.80350545048792
 20
28.90444260776638
 10
72.81493370582087
 20
28.78586880362582
 10
72.82658724260567
 20
28.67016315019515
 10
72.83846696102583
 20
28.55723171300332
 10
72.85057376126488
 20
28.44698055757942
 10
72.86290854350635
 20
28.33931574945263
 10
72.87547220793377
 20
28.2341433541518
 10
72.88826565473065
 20
28.13136943720598
 10
72.90128978408055
 20
28.03090006414425
 10
72.91454549616695
 20
27.93264130049568
 10
72.92803369117341
 20
27.83649921178932
 10
72.94175526928349
 20
27.74237986355405
 10
72.95571113068063
 20
27.65018932131904
 10
72.96990217554844
 20
27.55983365061337
 10
72.98432930407037
 20
27.471218916966
 10
72.99899341643004
 20
27.38425118590584
 10
73.01389541281094
 20
27.29883652296213
 10
73.02903619339655
 20
27.21488099366383
 10
73.04441665837045
 20
27.13229066353995
 10
73.06003770791615
 20
27.05097159811953
 10
73.0759002422172
 20
26.97082986293163
 10
73.09200516145708
 20
26.89177152350527
 10
73.12494575548756
 20
26.73652929405335
 10
73.1588666914758
 20
26.5844934339961
 10
73.19377517089003
 20
26.43491246756564
 10
73.22967839519844
 20
26.28703491899438
 10
73.26658356586931
 20
26.14010931251454
 10
73.304507990264
 20
25.9934926067437
 10
73.34351968704926
 20
25.8470858833312
 10
73.38370254745234
 20
25.70096053359731
 10
73.42514046816503
 20
25.55518800749576
 10
73.4679173458791
 20
25.40983975498023
 10
73.51211707728634
 20
25.26498722600445
 10
73.55782355907852
 20
25.12070187052223
 10
73.60512068794744
 20
24.97705513848718
 10
73.65409236058488
 20
24.83411847985309
 10
73.70482247368257
 20
24.69196334457365
 10
73.75739492393236
 20
24.55066118260265
 10
73.81189360802601
 20
24.41028344389378
 10
73.86840242265535
 20
24.27090157840075
 10
73.92700526451204
 20
24.13258703607733
 10
73.98778603028794
 20
23.99541126687717
 10
74.05082861667485
 20
23.85944572075408
 10
74.11621692036447
 20
23.72476184766174
 10
74.18403483804872
 20
23.59143109755394
 10
74.25436626641925
 20
23.4595249203843
 10
74.32729510216789
 20
23.32911476610661
 10
74.40290524198643
 20
23.20027208467462
 10
74.48128058256664
 20
23.07306832604201
 10
74.56246976951359
 20
22.94755558414357
 10
74.64635398012117
 20
22.82369399774041
 10
74.73276471209001
 20
22.70141642702601
 10
74.82153345523681
 20
22.58065572786506
 10
74.91249169937825
 20
22.46134475612206
 10
75.00547093433119
 20
22.34341636766169
 10
75.10030264991229
 20
22.22680341834859
 10
75.19681833593839
 20
22.11143876404731
 10
75.29484948222618
 20
21.99725526062247
 10
75.39422757859241
 20
21.88418576393872
 10
75.49478411485385
 20
21.77216312986059
 10
75.59635058082728
 20
21.66112021425272
 10
75.69876718784055
 20
21.55099329657236
 10
75.80196907720317
 20
21.44175592064261
 10
75.90594970227282
 20
21.33340452043638
 10
76.01070336460563
 20
21.22593586288332
 10
76.1162243657578
 20
21.11934671491309
 10
76.22250700728557
 20
21.01363384345547
 10
76.32954559074511
 20
20.90879401544004
 10
76.43733441769254
 20
20.80482399779646
 10
76.54586778968415
 20
20.70172055745451
 10
76.65514000827609
 20
20.59948046134383
 10
76.7651453750245
 20
20.49810047639403
 10
76.87587819148561
 20
20.39757736953487
 10
76.98733275921559
 20
20.29790790769602
 10
77.09950337977066
 20
20.19908885780711
 10
77.21238435470699
 20
20.10111698679788
 10
77.32596998558078
 20
20.00398906159796
 10
77.44025457394815
 20
19.90770184913708
 10
77.55523242136539
 20
19.81225211634484
 10
77.67089782938859
 20
19.71763663015099
 10
77.78724509957403
 20
19.62385215748514
 10
77.90426853347783
 20
19.53089546527707
 10
78.02196243265623
 20
19.43876332045636
 10
78.14032109866537
 20
19.34745248995278
 10
78.25933883306146
 20
19.25695974069589
 10
78.37900993740068
 20
19.1672818396155
 10
78.49932871323924
 20
19.07841555364121
 10
78.74188648563901
 20
18.90310489472966
 10
78.98696656271034
 20
18.73100189939879
 10
79.23452335690275
 20
18.56208070308588
 10
79.48451128066572
 20
18.39631544122847
 10
79.73688474644875
 20
18.23368024926395
 10
79.99159816670132
 20
18.07414926262976
 10
80.248605953873
 20
17.91769661676335
 10
80.50786252041318
 20
17.76429644710207
 10
80.76932227877149
 20
17.61392288908348
 10
81.03293964139735
 20
17.4665500781449
 10
81.29866902074025
 20
17.32215214972382
 10
81.5664648292498
 20
17.18070323925758
 10
81.83628147937531
 20
17.04217748218377
 10
82.10807338356643
 20
16.90654901393975
 10
82.38179495427269
 20
16.77379196996287
 10
82.65740060394351
 20
16.6438804856906
 10
82.93484474502845
 20
16.51678869656041
 10
83.21408178997698
 20
16.39249073800971
 10
83.49506615123862
 20
16.27096074547592
 10
83.77775224126279
 20
16.1521728543965
 10
84.06209447249912
 20
16.03610120020886
 10
84.34804725739706
 20
15.92271991835042
 10
84.63556500840606
 20
15.81200314425865
 10
84.92460213797569
 20
15.7039250133709
 10
85.2151130585554
 20
15.59845966112471
 10
85.50705218259471
 20
15.49558122295741
 10
85.80037392254318
 20
15.39526383430649
 10
86.09503269085029
 20
15.29748163060935
 10
86.39098289996551
 20
15.20220874730341
 10
86.68817896233838
 20
15.10941931982614
 10
86.98657529041835
 20
15.01908748361495
 10
87.28612629665496
 20
14.93118737410725
 10
87.58678639349772
 20
14.84569312674051
 10
87.88850999339606
 20
14.76257887695215
 10
88.19125150879962
 20
14.68181876017957
 10
88.49496535215775
 20
14.60338691186024
 10
88.79960593591999
 20
14.52725746743158
 10
89.10512767253591
 20
14.453404562331
 10
89.41148497445505
 20
14.38180233199591
 10
89.71863225412681
 20
14.31242491186378
 10
90.02652392400072
 20
14.24524643737203
 10
90.33511439652633
 20
14.18024104395812
 10
90.64435808415304
 20
14.11738286705946
 10
90.95420939933047
 20
14.05664604211341
 10
91.26462275450803
 20
13.9980047045575
 10
91.57555256213527
 20
13.94143298982914
 10
91.88695323466168
 20
13.88690503336573
 10
92.19877918453681
 20
13.8343949706047
 10
92.51098482420999
 20
13.78387693698346
 10
92.82352456613093
 20
13.73532506793953
 10
93.13635282274905
 20
13.68871349891026
 10
93.44942400651389
 20
13.64401636533307
 10
93.76269252987489
 20
13.60120780264549
 10
94.07611280528158
 20
13.56026194628481
 10
94.38963924518349
 20
13.52115293168856
 10
94.70322626203008
 20
13.48385489429415
 10
95.0168282682709
 20
13.448341969539
 10
95.3303996763554
 20
13.41458829286057
 10
95.64389489873311
 20
13.38256799969622
 10
95.95726834785358
 20
13.35225522548342
 10
96.27047443616621
 20
13.32362410565963
 10
96.58346757612058
 20
13.29664877566222
 10
96.89620218016607
 20
13.27130337092865
 10
97.20863266075241
 20
13.24756202689639
 10
97.52071343032884
 20
13.22539887900278
 10
97.83239890134504
 20
13.20478806268539
 10
98.1436434862505
 20
13.18570371338148
 10
98.45440159749468
 20
13.16811996652859
 10
98.76462764752712
 20
13.15201095756413
 10
99.07427604879728
 20
13.13735082192551
 10
99.38330121375472
 20
13.1241136950502
 10
99.69165755484885
 20
13.11227371237555
 10
99.99929948452923
 20
13.1018050093391
 10
100.3061814152454
 20
13.0926817213782
 10
100.6122577594467
 20
13.08487798393025
 10
100.9174829295829
 20
13.0783679324328
 10
101.2218113381033
 20
13.07312570232318
 10
101.5251973974575
 20
13.06912542903887
 10
101.8275955200949
 20
13.06634124801729
 10
102.1289601184651
 20
13.06474729469585
 10
102.4292618839003
 20
13.06430166658464
 10
102.5791433521144
 20
13.06436060952904
 10
102.6547393800353
 20
13.06439652631394
 10
102.6935837309731
 20
13.06441310227501
 10
102.7336232886522
 20
13.06442877768074
 10
102.77523128964
 20
13.06444356833037
 10
102.8187809705038
 20
13.06445749002313
 10
102.864645567811
 20
13.06447055855818
 10
102.9131983181289
 20
13.06448278973482
 10
102.9648124580249
 20
13.06449419935222
 10
103.0198612240664
 20
13.06450480320956
 10
103.0787178528206
 20
13.06451461710617
 10
103.1096907521423
 20
13.06451923275637
 10
103.141755580855
 20
13.06452365684112
 10
103.1749589935295
 20
13.06452789133527
 10
103.2093476447369
 20
13.06453193821375
 10
103.2449681890479
 20
13.06453579945139
 10
103.2818672810336
 20
13.06453947702317
 10
103.3200915752648
 20
13.06454297290395
 10
103.3596877263124
 20
13.06454628906869
 10
103.4007023887475
 20
13.06454942749224
 10
103.4431822171407
 20
13.06455239014946
 10
103.4871738660632
 20
13.06455517901531
 10
103.5327239900859
 20
13.06455779606472
 10
103.5798792437797
 20
13.06456024327258
 10
103.6286862817154
 20
13.0645625226137
 10
103.6791917584641
 20
13.06456463606309
 10
103.7314423285966
 20
13.06456658559563
 10
103.7854846466838
 20
13.0645683731862
 10
103.8413653672966
 20
13.06457000080968
 10
103.8991311450061
 20
13.06457147044102
 10
103.958828634383
 20
13.06457278405509
 10
104.0205044899983
 20
13.06457394362678
 10
104.0842053664229
 20
13.06457495113102
 10
104.1499779182278
 20
13.06457580854277
 10
104.2178687999839
 20
13.06457651783683
 10
104.287924666262
 20
13.0645770809881
 10
104.360192171633
 20
13.06457749997156
 10
104.4347179706678
 20
13.06457777676212
 10
104.5115487179377
 20
13.06457791333457
 10
104.5907310680134
 20
13.06457791166389
 10
104.6723116754658
 20
13.06457777372498
 10
104.7563371948657
 20
13.06457750149275
 10
104.8428542807841
 20
13.06457709694206
 10
104.931909587792
 20
13.06457656204787
 10
105.0235497704603
 20
13.06457589878499
 10
105.1178214833598
 20
13.06457510912844
 10
105.2147713810615
 20
13.06457419505307
 10
105.3144461181363
 20
13.06457315853373
 10
105.4168923491552
 20
13.0645720015454
 10
105.522156728689
 20
13.06457072606292
 10
105.6302859113086
 20
13.06456933406122
 10
105.7413265515851
 20
13.06456782751524
 10
105.8553253040889
 20
13.06456620839981
 10
105.9723288233913
 20
13.06456447868987
 10
106.0923837640636
 20
13.06456264036035
 10
106.2155367806763
 20
13.06456069538609
 10
106.3418345278005
 20
13.06455864574207
 10
106.4713236600069
 20
13.06455649340307
 10
106.6040508318666
 20
13.06455424034413
 10
106.7400626979504
 20
13.06455188854005
 10
106.8794059128292
 20
13.06454943996579
 10
107.022127131074
 20
13.06454689659625
 10
107.1682730072557
 20
13.06454426040631
 10
107.3178901959452
 20
13.06454153337085
 10
107.4710253517135
 20
13.06453871746481
 10
107.6277251291314
 20
13.06453581466309
 10
107.7880361827699
 20
13.06453282694059
 10
107.9520051671998
 20
13.06452975627218
 10
108.1196787369917
 20
13.06452660463282
 10
108.2911035467168
 20
13.06452337399736
 10
108.4663262509467
 20
13.06452006634072
 10
108.6453935042517
 20
13.0645166836378
 10
108.8283519612029
 20
13.06451322786353
 10
109.015248276371
 20
13.06450970099274
 10
109.2061291043271
 20
13.06450610500042
 10
109.401041099642
 20
13.0645024418614
 10
109.6000309168866
 20
13.06449871355068
 10
109.701069588286
 20
13.06449682557303
 10
109.8031452106319
 20
13.06449492204302
 10
109.9062636157458
 20
13.06449300320753
 10
110.0104306354488
 20
13.06449106931342
 10
110.1156521015626
 20
13.06448912060756
 10
110.2219338459083
 20
13.06448715733677
 10
110.3292817003074
 20
13.06448517974797
 10
110.4377014965812
 20
13.06448318808799
 10
110.547199066551
 20
13.06448118260368
 10
110.6577802420384
 20
13.06447916354193
 10
110.7694508548645
 20
13.06447713114954
 10
110.8822167368508
 20
13.06447508567351
 10
110.9960837198187
 20
13.06447302736052
 10
111.1110576355895
 20
13.06447095645763
 10
111.2271443159845
 20
13.06446887321152
 10
111.3443495928245
 20
13.0644667778692
 10
111.4626792979315
 20
13.06446467067741
 10
111.5821392631276
 20
13.06446255188314
 10
111.7027353202334
 20
13.06446042173309
 10
111.8244733010703
 20
13.0644582804743
 10
111.9473590374597
 20
13.06445612835352
 10
112.0713983612228
 20
13.06445396561764
 10
112.1965971041813
 20
13.06445179251352
 10
112.3229610981562
 20
13.06444960928803
 10
112.4504961749691
 20
13.06444741618804
 10
112.5792081664412
 20
13.06444521346037
 10
112.7091029043941
 20
13.06444300135195
 10
112.8401862206489
 20
13.06444078010958
 10
112.9724639470271
 20
13.06443854998019
 10
113.1059419153501
 20
13.06443631121055
 10
113.2406259574392
 20
13.06443406404764
 10
113.3765219051157
 20
13.06443180873822
 10
113.5136355902011
 20
13.06442954552921
 10
113.6519728445168
 20
13.06442727466742
 10
113.791539499884
 20
13.06442499639979
 10
113.9323413881241
 20
13.06442271097313
 10
114.0743843410585
 20
13.06442041863431
 10
114.2176741905086
 20
13.0644181196302
 10
114.3622167682958
 20
13.06441581420762
 10
114.5080179062413
 20
13.06441350261349
 10
114.6550834361666
 20
13.06441118509468
 10
114.803419189893
 20
13.06440886189802
 10
114.9530309992419
 20
13.06440653327036
 10
115.1039246960347
 20
13.06440419945858
 10
115.2561061120927
 20
13.06440186070955
 10
115.4095810792373
 20
13.06439951727014
 10
115.5643554292898
 20
13.06439716938723
 10
115.7204349940707
 20
13.06439481730763
 10
115.8778256054023
 20
13.0643924612782
 10
116.0365330951068
 20
13.06439010154582
 10
116.1965632950048
 20
13.06438773835737
 10
116.3579220369175
 20
13.06438537195976
 10
116.5206151526664
 20
13.06438300259975
 10
116.6846484740728
 20
13.06438063052423
 10
116.8500278329581
 20
13.0643782559801
 10
117.0167590611436
 20
13.06437587921425
 10
117.1848479904507
 20
13.06437350047344
 10
117.3543004527007
 20
13.06437112000464
 10
117.5251222797151
 20
13.06436873805461
 10
117.6973193033152
 20
13.06436635487029
 10
117.8708973553224
 20
13.06436397069854
 10
118.0458622675579
 20
13.06436158578617
 10
118.2222198718433
 20
13.06435920038007
 10
118.3999759999998
 20
13.06435681472715
  0
LWPOLYLINE
  5
521
330
1F
100
AcDbEntity
  8
0
100
AcDbPolyline
 90
      704
 70
     0
 43
0.0
 10
38.39997599999987
 20
260.400471
 10
38.44748253035299
 20
258.8258855542383
 10
38.49537785718622
 20
257.2512925859256
 10
38.54405077697947
 20
255.676684572511
 10
38.5938900862128
 20
254.1020539914437
 10
38.64528458136624
 20
252.5273933201725
 10
38.69862305891979
 20
250.9526950361468
 10
38.75429431535354
 20
249.3779516168153
 10
38.81268714714746
 20
247.8031555396274
 10
38.8741903507816
 20
246.2282992820319
 10
38.93919272273598
 20
244.653375321478
 10
39.00808305949062
 20
243.0783761354148
 10
39.08125015752557
 20
241.5032942012912
 10
39.15908659860143
 20
239.9281231102126
 10
39.24227815304931
 20
238.3529427114309
 10
39.33200774716573
 20
236.7779791209918
 10
39.42950648714168
 20
235.2034726298056
 10
39.53600547916808
 20
233.6296635287828
 10
39.65273582943598
 20
232.0567921088341
 10
39.78092864413639
 20
230.4850986608698
 10
39.92181502946022
 20
228.9148234758006
 10
40.07662609159853
 20
227.3462068445368
 10
40.24659293674226
 20
225.7794890579891
 10
40.43294667108244
 20
224.2149104070679
 10
40.63691840081003
 20
222.6527111826837
 10
40.85973923211599
 20
221.0931316757471
 10
41.10258863800559
 20
219.5364086710318
 10
41.36571811536582
 20
217.982715939356
 10
41.64857592271146
 20
216.4321727078649
 10
41.95058379599974
 20
214.8848964026961
 10
42.27116347118793
 20
213.3410044499877
 10
42.60973668423331
 20
211.8006142758775
 10
42.96572517109308
 20
210.2638433065035
 10
43.33855066772453
 20
208.7308089680036
 10
43.72763491008487
 20
207.2016286865158
 10
44.13239963413132
 20
205.676419888178
 10
44.55226657582114
 20
204.1552999991281
 10
44.98665747111163
 20
202.6383864455041
 10
45.43499405595996
 20
201.1257966534439
 10
45.89669789207187
 20
199.6176411242841
 10
46.37118687671658
 20
198.1138847337295
 10
46.85787542389788
 20
196.6143539316339
 10
47.35617780963145
 20
195.1188696841671
 10
47.86550830993298
 20
193.6272529574991
 10
48.38528120081804
 20
192.1393247177996
 10
48.91491075830235
 20
190.6549059312386
 10
49.45381125840157
 20
189.1738175639859
 10
50.0013969771313
 20
187.6958805822113
 10
50.55708219050728
 20
186.2209159520848
 10
51.12028117454515
 20
184.7487446397762
 10
51.69040820526049
 20
183.2791876114552
 10
52.26687755866908
 20
181.8120658332919
 10
52.84910351660733
 20
180.3472002736194
 10
53.43663478989792
 20
178.8844618605746
 10
54.02950226927908
 20
177.4239007218465
 10
54.62784491401521
 20
175.9656071482056
 10
55.23180168337074
 20
174.5096714304226
 10
55.84151153661001
 20
173.0561838592682
 10
56.45711343299741
 20
171.605234725513
 10
57.07874633179727
 20
170.1569143199276
 10
57.70654919227411
 20
168.7113129332827
 10
58.34066097369219
 20
167.268520856349
 10
58.98122063531598
 20
165.8286283798971
 10
59.62836713640978
 20
164.3917257946977
 10
60.2822394362381
 20
162.9579033915213
 10
60.94297649406517
 20
161.5272514611388
 10
61.61071632687138
 20
160.0998598740908
 10
62.28542214824988
 20
158.6757405439625
 10
62.9666787610556
 20
157.254736624742
 10
63.65402151735395
 20
155.8366692168801
 10
64.34702717558677
 20
154.4213772196128
 10
65.04571213687921
 20
153.0088885152768
 10
65.75035781804285
 20
151.5993449048263
 10
65.75035781804285
 20
151.5993449048263
 10
65.75035781804285
 20
151.5993449048263
 42
-0.0924198831298251
 10
69.59997599999986
 20
132.010285769496
 10
69.59997599999986
 20
76.9048326405248
 10
69.59997599999986
 20
76.56832907729698
 10
69.59997599999986
 20
76.23415576858764
 10
69.59997599999986
 20
75.90230162926626
 10
69.59997599999986
 20
75.57275557420259
 10
69.59997599999986
 20
75.24550651826619
 10
69.59997599999986
 20
74.92054337632663
 10
69.59997599999986
 20
74.59785506325362
 10
69.59997599999986
 20
74.27743049391668
 10
69.59997599999986
 20
73.95925858318554
 10
69.59997599999986
 20
73.64332824592975
 10
69.59997599999986
 20
73.32962839701892
 10
69.59997599999986
 20
73.0181479513227
 10
69.59997599999986
 20
72.70887582371068
 10
69.59997599999986
 20
72.40180092905248
 10
69.59997599999986
 20
72.09691218221772
 10
69.59997599999986
 20
71.79419849807604
 10
69.59997599999986
 20
71.49364879149705
 10
69.59997599999986
 20
71.19525197735033
 10
69.59997599999986
 20
70.89899697050551
 10
69.59997599999986
 20
70.60487268583225
 10
69.59997599999986
 20
70.31286803820012
 10
69.59997599999986
 20
70.02297194247879
 10
69.59997599999986
 20
69.73517331353781
 10
69.59997599999986
 20
69.44946106624684
 10
69.59997599999986
 20
69.16582411547551
 10
69.59997599999986
 20
68.8842513760934
 10
69.59997599999986
 20
68.60473176297015
 10
69.59997599999986
 20
68.32725419097534
 10
69.59997599999986
 20
68.05180757497865
 10
69.59997599999986
 20
67.77838082984963
 10
69.59997599999986
 20
67.50696287045797
 10
69.59997599999986
 20
67.23754261167329
 10
69.59997599999986
 20
66.97010896836508
 10
69.59997599999986
 20
66.70465085540309
 10
69.59997599999986
 20
66.44115718765688
 10
69.59997599999986
 20
66.1796168799961
 10
69.59997599999986
 20
65.92001884729035
 10
69.59997599999986
 20
65.66235200440923
 10
69.59997599999986
 20
65.40660526622236
 10
69.59997599999986
 20
65.15276754759938
 10
69.59997599999986
 20
64.90082776340989
 10
69.59997599999986
 20
64.65077482852354
 10
69.59997599999986
 20
64.40259765780989
 10
69.59997599999986
 20
64.15628516613861
 10
69.59997599999986
 20
63.91182626837927
 10
69.59997599999986
 20
63.66920987940154
 10
69.59997599999986
 20
63.42842491407501
 10
69.59997599999986
 20
63.1894602872693
 10
69.59997599999986
 20
62.952304913854
 10
69.59997599999986
 20
62.71694770869878
 10
69.59997599999986
 20
62.48337758667322
 10
69.59997599999986
 20
62.25158346264695
 10
69.59997599999986
 20
62.02155425148959
 10
69.59997599999986
 20
61.79327886807072
 10
69.59997599999986
 20
61.56674622726001
 10
69.59997599999986
 20
61.34194524392707
 10
69.59997599999986
 20
61.1188648329415
 10
69.59997599999986
 20
60.89749390917294
 10
69.59997599999986
 20
60.67782138749095
 10
69.59997599999986
 20
60.45983618276522
 10
69.59997599999986
 20
60.24352720986531
 10
69.59997599999986
 20
60.02888338366087
 10
69.59997599999986
 20
59.81589361902152
 10
69.59997599999986
 20
59.60454683081684
 10
69.59997599999986
 20
59.39483193391652
 10
69.59997599999986
 20
59.18673784319008
 10
69.59997599999986
 20
58.98025347350722
 10
69.59997599999986
 20
58.77536773973753
 10
69.59997599999986
 20
58.57206955675059
 10
69.59997599999986
 20
58.37034783941607
 10
69.59997599999986
 20
58.17019150260358
 10
69.59997599999986
 20
57.9715894611827
 10
69.59997599999986
 20
57.7745306300231
 10
69.59997599999986
 20
57.57900392399434
 10
69.59997599999986
 20
57.38499825796608
 10
69.59997599999986
 20
57.19250254680793
 10
69.59997599999986
 20
57.00150570538951
 10
69.59997599999986
 20
56.81199664858041
 10
69.59997599999986
 20
56.62396429125028
 10
69.59997599999986
 20
56.43739754826873
 10
69.59997599999986
 20
56.25228533450536
 10
69.59997599999986
 20
56.06861656482982
 10
69.59997599999986
 20
55.88638015411169
 10
69.59997599999986
 20
55.70556501722057
 10
69.59997599999986
 20
55.52616006902614
 10
69.59997599999986
 20
55.34815422439803
 10
69.59997599999986
 20
55.17153639820577
 10
69.59997599999986
 20
54.99629550531904
 10
69.59997599999986
 20
54.82242046060743
 10
69.59997599999986
 20
54.64990017894058
 10
69.59997599999986
 20
54.47872357518807
 10
69.59997599999986
 20
54.30887956421958
 10
69.59997599999986
 20
54.14035706090465
 10
69.59997599999986
 20
53.97314498011297
 10
69.59997599999986
 20
53.80723223671409
 10
69.59997599999986
 20
53.64260774557772
 10
69.59997599999986
 20
53.47926042157337
 10
69.59997599999986
 20
53.31717917957072
 10
69.59997599999986
 20
53.15635293443938
 10
69.59997599999986
 20
52.99677060104897
 10
69.59997599999986
 20
52.83842109426906
 10
69.59997599999986
 20
52.68129332896933
 10
69.59997599999986
 20
52.52537622001938
 10
69.59997599999986
 20
52.37065868228881
 10
69.59997599999986
 20
52.21712963064728
 10
69.59997599999986
 20
52.06477797996436
 10
69.59997599999986
 20
51.91359264510968
 10
69.59997599999986
 20
51.76356254095285
 10
69.59997599999986
 20
51.61467658236353
 10
69.59997599999986
 20
51.46692368421128
 10
69.59997599999986
 20
51.32029276136572
 10
69.59997599999986
 20
51.17477272869653
 10
69.59997599999986
 20
51.03035250107328
 10
69.59997599999986
 20
50.88702099336558
 10
69.59997599999986
 20
50.74476712044305
 10
69.59997599999986
 20
50.60357979717537
 10
69.59997599999986
 20
50.46344793843207
 10
69.59997599999986
 20
50.32436045908281
 10
69.59997599999986
 20
50.18630627399722
 10
69.59997599999986
 20
50.04927429804489
 10
69.59997599999986
 20
49.91325344609541
 10
69.59997599999986
 20
49.77823263301849
 10
69.59997599999986
 20
49.64420077368365
 10
69.59997599999986
 20
49.51114678296057
 10
69.59997599999986
 20
49.37905957571881
 10
69.59997599999986
 20
49.24792806682808
 10
69.59997599999986
 20
49.11774117115792
 10
69.59997599999986
 20
48.98848780357798
 10
69.59997599999986
 20
48.86015687895785
 10
69.59997599999986
 20
48.73273731216716
 10
69.59997599999986
 20
48.60621801807553
 10
69.59997599999986
 20
48.48058791155256
 10
69.59997599999986
 20
48.35583590746793
 10
69.59997599999986
 20
48.23195092069117
 10
69.59997599999986
 20
47.98673765853989
 10
69.59997599999986
 20
47.74485944405569
 10
69.59997599999986
 20
47.50622759619548
 10
69.59997599999986
 20
47.27075343391621
 10
69.59997599999986
 20
47.03834827617481
 10
69.59997599999986
 20
46.80892344192821
 10
69.59997599999986
 20
46.58239025013338
 10
69.59997599999986
 20
46.35866001974725
 10
69.59997599999986
 20
46.13764406972672
 10
69.59997599999986
 20
45.91925371902878
 10
69.59997599999986
 20
45.70340028661035
 10
69.59997599999986
 20
45.4899950914284
 10
69.59997599999986
 20
45.27894945243978
 10
69.59997599999986
 20
45.07017468860152
 10
69.59997599999986
 20
44.86358211887053
 10
69.59997599999986
 20
44.65908306220372
 10
69.59997599999986
 20
44.45658883755807
 10
69.59997599999986
 20
44.25601076389049
 10
69.59997599999986
 20
44.05726016015799
 10
69.59997599999986
 20
43.8602483453174
 10
69.59997599999986
 20
43.66488663832568
 10
69.59997599999986
 20
43.47108635813987
 10
69.59997599999986
 20
43.27875882371682
 10
69.59997599999986
 20
43.08781535401347
 10
69.59997599999986
 20
42.89816726798675
 10
69.59997599999986
 20
42.70972588459367
 10
69.59997599999986
 20
42.52240252279114
 10
69.59997599999986
 20
42.33610850153604
 10
69.59997599999986
 20
41.96625375649603
 10
69.59997599999986
 20
41.59945220112915
 10
69.59997599999986
 20
41.23499438709098
 10
69.59997599999986
 20
40.87217086603703
 10
69.59997599999986
 20
40.5102721896227
 10
69.59997599999986
 20
40.41985888901621
 10
69.59997599999986
 20
40.40855762091474
 10
69.59997599999986
 20
40.40290699402667
 10
69.59997599999986
 20
40.40149433759268
 10
69.59997599999986
 20
40.40078800938977
 10
69.59997599999986
 20
40.40061142733963
 10
69.59997599999986
 20
40.40052313631463
 10
69.59997599999986
 20
40.40047899080207
 10
69.59998431829061
 20
40.39802526593729
 10
69.60006595956404
 20
40.37415140297599
 10
69.60074439570646
 20
40.18422898810513
 10
69.60146789991778
 20
39.99619779179882
 10
69.60223658472092
 20
39.8100460722481
 10
69.60305056263877
 20
39.62576208764421
 10
69.60390994619432
 20
39.44333409617854
 10
69.60481484791049
 20
39.26275035604192
 10
69.60576538031023
 20
39.08399912542518
 10
69.60676165591649
 20
38.90706866251975
 10
69.60780378725221
 20
38.73194722551676
 10
69.6088918868403
 20
38.55862307260731
 10
69.61002606720374
 20
38.38708446198263
 10
69.61120644086543
 20
38.21731965183369
 10
69.61243312034834
 20
38.04931690035204
 10
69.6137062181754
 20
37.88306446572847
 10
69.61502584686957
 20
37.71855060615383
 10
69.61639211895378
 20
37.55576357981954
 10
69.61780514695096
 20
37.39469164491668
 10
69.61926504338406
 20
37.23532305963647
 10
69.62077192077599
 20
37.07764608217025
 10
69.62232589164976
 20
36.92164897070887
 10
69.62392706852826
 20
36.76731998344326
 10
69.62557556393445
 20
36.61464737856471
 10
69.62727149039125
 20
36.46361941426448
 10
69.62901496042163
 20
36.31422434873361
 10
69.63080608654848
 20
36.16645044016343
 10
69.63264498129482
 20
36.02028594674493
 10
69.63453175718353
 20
35.87571912666897
 10
69.63646652673755
 20
35.73273823812697
 10
69.63844940247986
 20
35.59133153930992
 10
69.64048049693338
 20
35.451487288409
 10
69.64255992262105
 20
35.31319374361562
 10
69.6446877920658
 20
35.17643916312068
 10
69.64686421779058
 20
35.04121180511504
 10
69.64908931231834
 20
34.90749992779007
 10
69.65136318817204
 20
34.77529178933691
 10
69.65368595787457
 20
34.64457564794668
 10
69.65605773394887
 20
34.51533976181071
 10
69.65847862891793
 20
34.3875723891199
 10
69.66094875530469
 20
34.26126178806527
 10
69.66346822563207
 20
34.13639621683802
 10
69.66603715242299
 20
34.01296393362941
 10
69.66865564820041
 20
33.89095319663051
 10
69.67132382548728
 20
33.7703522640324
 10
69.67404179680653
 20
33.65114939402634
 10
69.67680967468111
 20
33.53333284480346
 10
69.67962757163395
 20
33.41689087455484
 10
69.68249560018801
 20
33.3018117414714
 10
69.68541387286619
 20
33.18808370374444
 10
69.6883825021915
 20
33.07569501956511
 10
69.69140160068679
 20
32.96463394712453
 10
69.69447128087508
 20
32.85488874461379
 10
69.69759165527927
 20
32.74644767022409
 10
69.7007628364223
 20
32.63929898214667
 10
69.70398493682714
 20
32.53343093857245
 10
69.7072580690167
 20
32.42883179769251
 10
69.71058234551397
 20
32.3254898176981
 10
69.71395787884181
 20
32.22339325678035
 10
69.71738478152325
 20
32.12253037313036
 10
69.72086316608114
 20
32.02288942493925
 10
69.72439314503851
 20
31.92445867039822
 10
69.72797483091826
 20
31.82722636769848
 10
69.7316083362433
 20
31.73118077503102
 10
69.73529377353661
 20
31.63631015058689
 10
69.73903125532112
 20
31.54260275255729
 10
69.74282089411977
 20
31.45004683913334
 10
69.74666280245553
 20
31.35863066850624
 10
69.75055709285131
 20
31.26834249886707
 10
69.75450387783005
 20
31.17917058840698
 10
69.75850326991468
 20
31.09110319531727
 10
69.76255538162816
 20
31.00412857778878
 10
69.76666032549345
 20
30.91823499401267
 10
69.77081821403347
 20
30.83341070218017
 10
69.77502915977114
 20
30.74964396048239
 10
69.77929327522945
 20
30.66692302711044
 10
69.78361067293127
 20
30.58523616025548
 10
69.78798146539964
 20
30.50457161810863
 10
69.79240576515739
 20
30.42491765886109
 10
69.79688368472753
 20
30.34626254070395
 10
69.80141533663299
 20
30.26859452182816
 10
69.80600083339673
 20
30.19190186042505
 10
69.81064028754166
 20
30.11617281468569
 10
69.81533381159073
 20
30.04139564280114
 10
69.82008151806685
 20
29.96755860296264
 10
69.82488351949304
 20
29.8946499533613
 10
69.82973992839214
 20
29.82265795218836
 10
69.83465085728719
 20
29.75157085763477
 10
69.83961641870107
 20
29.68137692789163
 10
69.84463672515672
 20
29.61206442115014
 10
69.8497118891771
 20
29.54362159560145
 10
69.86002724000383
 20
29.40929802084691
 10
69.87056337136476
 20
29.2783122691572
 10
69.88132118344336
 20
29.15057040606121
 10
69.89230157642325
 20
29.02597849708792
 10
69.90350545048791
 20
28.90444260776644
 10
69.91493370582087
 20
28.78586880362588
 10
69.92658724260568
 20
28.67016315019521
 10
69.93846696102585
 20
28.55723171300338
 10
69.95057376126489
 20
28.44698055757948
 10
69.96290854350634
 20
28.33931574945268
 10
69.97547220793376
 20
28.23414335415185
 10
69.98826565473064
 20
28.13136943720605
 10
70.00128978408056
 20
28.03090006414431
 10
70.01454549616695
 20
27.93264130049579
 10
70.02803369117342
 20
27.83649921178938
 10
70.04175526928347
 20
27.74237986355411
 10
70.05571113068064
 20
27.65018932131909
 10
70.06990217554843
 20
27.55983365061343
 10
70.08432930407038
 20
27.47121891696605
 10
70.09899341643005
 20
27.3842511859059
 10
70.11389541281094
 20
27.29883652296218
 10
70.12903619339656
 20
27.21488099366388
 10
70.14441665837043
 20
27.13229066354001
 10
70.16003770791616
 20
27.05097159811959
 10
70.17590024221718
 20
26.97082986293168
 10
70.19200516145708
 20
26.89177152350533
 10
70.20835336581939
 20
26.81370264536963
 10
70.22494575548757
 20
26.73652929405341
 10
70.2588666914758
 20
26.58449343399616
 10
70.29377517089002
 20
26.43491246756572
 10
70.32967839519847
 20
26.28703491899444
 10
70.36658356586932
 20
26.1401093125146
 10
70.40450799026401
 20
25.99349260674376
 10
70.44351968704926
 20
25.84708588333126
 10
70.48370254745234
 20
25.70096053359737
 10
70.52514046816503
 20
25.55518800749581
 10
70.5679173458791
 20
25.40983975498028
 10
70.61211707728633
 20
25.26498722600451
 10
70.65782355907851
 20
25.12070187052223
 10
70.70512068794744
 20
24.97705513848723
 10
70.75409236058487
 20
24.83411847985315
 10
70.80482247368259
 20
24.69196334457371
 10
70.85739492393239
 20
24.55066118260271
 10
70.91189360802605
 20
24.41028344389383
 10
70.96840242265533
 20
24.27090157840081
 10
71.02700526451203
 20
24.13258703607738
 10
71.08778603028793
 20
23.99541126687723
 10
71.15082861667485
 20
23.85944572075414
 10
71.2162169203645
 20
23.72476184766179
 10
71.28403483804873
 20
23.59143109755398
 10
71.35436626641925
 20
23.45952492038435
 10
71.4272951021679
 20
23.32911476610668
 10
71.50290524198644
 20
23.20027208467468
 10
71.58128058256662
 20
23.07306832604206
 10
71.66246976951358
 20
22.94755558414363
 10
71.7463539801212
 20
22.82369399774046
 10
71.83276471209001
 20
22.70141642702606
 10
71.9215334552368
 20
22.58065572786512
 10
72.01249169937826
 20
22.46134475612212
 10
72.10547093433119
 20
22.34341636766175
 10
72.2003026499123
 20
22.22680341834864
 10
72.29681833593838
 20
22.11143876404737
 10
72.39484948222619
 20
21.99725526062252
 10
72.4942275785924
 20
21.88418576393877
 10
72.59478411485386
 20
21.77216312986065
 10
72.69635058082728
 20
21.66112021425278
 10
72.79876718784056
 20
21.55099329657241
 10
72.90196907720316
 20
21.44175592064266
 10
73.0059497022728
 20
21.33340452043643
 10
73.11070336460563
 20
21.22593586288338
 10
73.21622436575781
 20
21.11934671491315
 10
73.32250700728559
 20
21.01363384345552
 10
73.4295455907451
 20
20.90879401544009
 10
73.53733441769256
 20
20.80482399779652
 10
73.64586778968415
 20
20.70172055745457
 10
73.75514000827608
 20
20.59948046134389
 10
73.86514537502453
 20
20.49810047639409
 10
73.97587819148561
 20
20.39757736953493
 10
74.08733275921561
 20
20.29790790769607
 10
74.19950337977066
 20
20.19908885780717
 10
74.31238435470698
 20
20.10111698679793
 10
74.42596998558077
 20
20.00398906159802
 10
74.54025457394816
 20
19.90770184913714
 10
74.65523242136537
 20
19.81225211634489
 10
74.77089782938858
 20
19.71763663015105
 10
74.88724509957403
 20
19.6238521574852
 10
75.00426853347784
 20
19.53089546527712
 10
75.12196243265623
 20
19.43876332045642
 10
75.24032109866536
 20
19.34745248995284
 10
75.35933883306146
 20
19.25695974069595
 10
75.47900993740069
 20
19.16728183961555
 10
75.59932871323923
 20
19.07841555364126
 10
75.72028946213324
 20
18.99035764970278
 10
75.84188648563902
 20
18.90310489472972
 10
75.96411408531264
 20
18.81665405565184
 10
76.08696656271033
 20
18.73100189939885
 10
76.21043821938831
 20
18.64614519290029
 10
76.33452335690273
 20
18.56208070308594
 10
76.45921627680981
 20
18.47880519688544
 10
76.58451128066572
 20
18.39631544122852
 10
76.71040267002663
 20
18.31460820304483
 10
76.83688474644873
 20
18.23368024926401
 10
76.96395181148827
 20
18.15352834681579
 10
77.09159816670133
 20
18.07414926262982
 10
77.21981811364419
 20
17.9955397636358
 10
77.34860595387299
 20
17.9176966167634
 10
77.47795598894393
 20
17.84061658894228
 10
77.60786252041319
 20
17.76429644710214
 10
77.73831984983701
 20
17.68873295817263
 10
77.86932227877149
 20
17.61392288908354
 10
78.00086410877288
 20
17.53986300676439
 10
78.13293964139734
 20
17.46655007814496
 10
78.26554317820107
 20
17.39398087015485
 10
78.39866902074028
 20
17.32215214972382
 10
78.53231147057113
 20
17.25106068378153
 10
78.66646482924981
 20
17.18070323925764
 10
78.80112339833241
 20
17.11107658308191
 10
78.93628147937531
 20
17.04217748218383
 10
79.0719333739346
 20
16.97400270349322
 10
79.20807338356642
 20
16.90654901393981
 10
79.34469580982709
 20
16.83981318045312
 10
79.48179495427268
 20
16.77379196996293
 10
79.75740060394352
 20
16.64388048569066
 10
80.03484474502846
 20
16.51678869656047
 10
80.31408178997695
 20
16.39249073800977
 10
80.59506615123856
 20
16.27096074547603
 10
80.8777522412628
 20
16.15217285439655
 10
81.16209447249913
 20
16.03610120020892
 10
81.44804725739703
 20
15.92271991835048
 10
81.73556500840607
 20
15.81200314425871
 10
82.0246021379757
 20
15.70392501337096
 10
82.31511305855539
 20
15.59845966112476
 10
82.6070521825947
 20
15.49558122295747
 10
82.90037392254319
 20
15.39526383430654
 10
83.19503269085027
 20
15.29748163060941
 10
83.4909828999655
 20
15.20220874730347
 10
83.78817896233838
 20
15.1094193198262
 10
84.08657529041835
 20
15.01908748361501
 10
84.38612629665495
 20
14.93118737410731
 10
84.68678639349771
 20
14.84569312674057
 10
84.98850999339607
 20
14.7625788769522
 10
85.29125150879961
 20
14.68181876017962
 10
85.59496535215776
 20
14.6033869118603
 10
85.89960593592001
 20
14.52725746743164
 10
86.20512767253593
 20
14.45340456233106
 10
86.51148497445507
 20
14.38180233199597
 10
86.81863225412682
 20
14.31242491186384
 10
87.12652392400073
 20
14.24524643737209
 10
87.4351143965263
 20
14.18024104395817
 10
87.74435808415303
 20
14.11738286705952
 10
88.05420939933044
 20
14.05664604211347
 10
88.36462275450804
 20
13.99800470455756
 10
88.67555256213528
 20
13.94143298982919
 10
88.98695323466171
 20
13.88690503336579
 10
89.29877918453678
 20
13.83439497060476
 10
89.61098482420998
 20
13.78387693698352
 10
89.92352456613089
 20
13.73532506793958
 10
90.23635282274904
 20
13.68871349891032
 10
90.54942400651386
 20
13.64401636533318
 10
90.8626925298749
 20
13.60120780264554
 10
91.17611280528157
 20
13.56026194628487
 10
91.48963924518353
 20
13.52115293168862
 10
91.80322626203013
 20
13.48385489429421
 10
92.11682826827093
 20
13.44834196953906
 10
92.43039967635541
 20
13.41458829286063
 10
92.74389489873312
 20
13.38256799969627
 10
93.05726834785357
 20
13.35225522548347
 10
93.37047443616615
 20
13.32362410565969
 10
93.6834675761205
 20
13.29664877566228
 10
93.99620218016607
 20
13.2713033709287
 10
94.30863266075235
 20
13.24756202689644
 10
94.6207134303288
 20
13.22539887900285
 10
94.93239890134502
 20
13.20478806268545
 10
95.24364348625047
 20
13.18570371338154
 10
95.55440159749466
 20
13.16811996652865
 10
95.86462764752708
 20
13.15201095756419
 10
96.17427604879729
 20
13.13735082192556
 10
96.48330121375469
 20
13.12411369505025
 10
96.79165755484881
 20
13.11227371237561
 10
97.09929948452924
 20
13.10180500933916
 10
97.40618141524535
 20
13.09268172137825
 10
97.71225775944678
 20
13.08487798393031
 10
98.01748292958293
 20
13.07836793243285
 10
98.3218113381033
 20
13.07312570232324
 10
98.62519739745749
 20
13.06912542903893
 10
98.92759552009493
 20
13.06634124801735
 10
99.22896011846512
 20
13.0647472946959
 10
99.52926188390032
 20
13.0643016665847
 10
99.67914345791854
 20
13.0643606095291
 10
99.75488054201781
 20
13.064396526314
 10
99.79401817320798
 20
13.06441310227507
 10
99.83460559498812
 20
13.0644287776808
 10
99.87709560573048
 20
13.06444356833043
 10
99.92194100380723
 20
13.06445749002319
 10
99.96959458759059
 20
13.06447055855824
 10
99.99461594861365
 20
13.06447677782893
 10
100.0205091554528
 20
13.06448278973488
 10
100.0473308079047
 20
13.06448859625101
 10
100.075137505766
 20
13.06449419935228
 10
100.1039858488331
 20
13.06449960101349
 10
100.1339324369026
 20
13.06450480320961
 10
100.165033869771
 20
13.06450980791555
 10
100.1973467472348
 20
13.06451461710622
 10
100.2309276690905
 20
13.06451923275642
 10
100.2658332351347
 20
13.06452365684117
 10
100.3021200451639
 20
13.06452789133533
 10
100.3398446989745
 20
13.0645319382138
 10
100.3790637963633
 20
13.06453579945145
 10
100.4198339371266
 20
13.06453947702323
 10
100.462211721061
 20
13.064542972904
 10
100.5062537479631
 20
13.06454628906874
 10
100.5520166176293
 20
13.06454942749229
 10
100.5995569298561
 20
13.06455239014951
 10
100.6489312844401
 20
13.06455517901537
 10
100.7001962811779
 20
13.06455779606477
 10
100.753408519866
 20
13.06456024327264
 10
100.808624600301
 20
13.06456252261375
 10
100.8659011222792
 20
13.06456463606315
 10
100.9252946855973
 20
13.06456658559568
 10
100.9868618900518
 20
13.06456837318626
 10
101.0506593354392
 20
13.06457000080974
 10
101.116743621556
 20
13.06457147044108
 10
101.1851713481988
 20
13.06457278405514
 10
101.2559991151641
 20
13.06457394362684
 10
101.3292835222485
 20
13.06457495113113
 10
101.4050811692483
 20
13.06457580854283
 10
101.4834486559603
 20
13.06457651783688
 10
101.5644425821808
 20
13.06457708098816
 10
101.6481195477063
 20
13.06457749997162
 10
101.7345361523333
 20
13.06457777676218
 10
101.8237489958589
 20
13.06457791333463
 10
101.9158146780791
 20
13.06457791166394
 10
102.0107897987906
 20
13.06457777372503
 10
102.1087309577899
 20
13.0645775014928
 10
102.2096947548734
 20
13.06457709694212
 10
102.3137377898378
 20
13.06457656204793
 10
102.4209166624796
 20
13.06457589878505
 10
102.5312879725952
 20
13.0645751091285
 10
102.6449083199812
 20
13.06457419505312
 10
102.7618343044342
 20
13.06457315853379
 10
102.8821225257507
 20
13.06457200154546
 10
102.9435451626691
 20
13.06457137849253
 10
103.0058295837271
 20
13.06457072606298
 10
103.0689828638993
 20
13.06457004450362
 10
103.1330120781601
 20
13.06456933406127
 10
103.1979243014842
 20
13.06456859498291
 10
103.2637266088461
 20
13.0645678275153
 10
103.3304260752204
 20
13.06456703190531
 10
103.3980297755813
 20
13.06456620839987
 10
103.4665447849037
 20
13.06456535724578
 10
103.5359781781626
 20
13.06456447868993
 10
103.6063370303321
 20
13.06456357297918
 10
103.6776284163869
 20
13.06456264036041
 10
103.7498594113015
 20
13.06456168108042
 10
103.8230370900504
 20
13.06456069538615
 10
103.8971685276082
 20
13.06455968352441
 10
103.9722607989496
 20
13.06455864574212
 10
104.0483209790489
 20
13.06455758228606
 10
104.1253561428809
 20
13.06455649340313
 10
104.2033733654202
 20
13.06455537934022
 10
104.2823797216411
 20
13.06455424034419
 10
104.3623822865184
 20
13.06455307666186
 10
104.4433881350265
 20
13.06455188854011
 10
104.5254043421401
 20
13.06455067622585
 10
104.6084379828337
 20
13.06454943996584
 10
104.6924961320819
 20
13.06454818000708
 10
104.7775858648593
 20
13.06454689659631
 10
104.8637142561403
 20
13.06454558998041
 10
104.9508883808997
 20
13.06454426040636
 10
105.0391153141119
 20
13.06454290812087
 10
105.1284021307515
 20
13.06454153337091
 10
105.218755905793
 20
13.06454013640325
 10
105.3101837142112
 20
13.06453871746487
 10
105.4026926309804
 20
13.06453727680252
 10
105.4962897310753
 20
13.06453581466314
 10
105.5909820894705
 20
13.06453433129354
 10
105.6867767811404
 20
13.06453282694065
 10
105.7836808810598
 20
13.06453130185122
 10
105.8817014642031
 20
13.06452975627223
 10
105.9808456055448
 20
13.06452819045051
 10
106.0811203800591
 20
13.06452660463287
 10
106.182532862721
 20
13.06452499906624
 10
106.2850901285056
 20
13.06452337399742
 10
106.3887992523871
 20
13.06452172967329
 10
106.4936673093399
 20
13.06452006634077
 10
106.5997013743386
 20
13.06451838424664
 10
106.7069085223577
 20
13.06451668363786
 10
106.8152958283719
 20
13.0645149647612
 10
106.9248703673557
 20
13.06451322786358
 10
107.0356392142837
 20
13.06451147319183
 10
107.1476094441304
 20
13.0645097009928
 10
107.2607881318704
 20
13.06450791151343
 10
107.3751823524782
 20
13.06450610500047
 10
107.4907991809285
 20
13.06450428170086
 10
107.6076456921958
 20
13.06450244186146
 10
107.7257289612546
 20
13.06450058572915
 10
107.8450560630796
 20
13.06449871355073
 10
107.9656340726453
 20
13.06449682557309
 10
108.0874700649262
 20
13.06449492204308
 10
108.210571114897
 20
13.06449300320759
 10
108.3349442975321
 20
13.06449106931347
 10
108.4605966878062
 20
13.06448912060762
 10
108.5875353606938
 20
13.06448715733683
 10
108.7157673911695
 20
13.06448517974803
 10
108.8452998542079
 20
13.06448318808804
 10
108.9761398247835
 20
13.06448118260374
 10
109.1082943778709
 20
13.06447916354193
 10
109.2417705884447
 20
13.0644771311496
 10
109.3765755314793
 20
13.06447508567356
 10
109.5127162819494
 20
13.06447302736058
 10
109.6501999148296
 20
13.06447095645768
 10
109.7890335050944
 20
13.06446887321158
 10
109.9292241277176
 20
13.06446677786925
 10
110.0707788576744
 20
13.06446467067746
 10
110.2137047699405
 20
13.06446255188319
 10
110.3580089394894
 20
13.0644604217332
 10
110.5036984412958
 20
13.06445828047435
 10
110.6507803503342
 20
13.06445612835358
 10
110.7992617415791
 20
13.0644539656177
 10
110.9491496900052
 20
13.06445179251358
 10
111.100451270587
 20
13.06444960928809
 10
111.2531735582992
 20
13.0644474161881
 10
111.4073236281161
 20
13.06444521346043
 10
111.5629085550125
 20
13.064443001352
 10
111.7199354139628
 20
13.06444078010963
 10
111.8784112799417
 20
13.06443854998025
 10
112.0383432279236
 20
13.06443631121061
 10
112.1997383328833
 20
13.0644340640477
 10
112.3626036697952
 20
13.06443180873827
 10
112.5269463136338
 20
13.06442954552926
 10
112.6927733393739
 20
13.06442727466748
 10
112.8600918219899
 20
13.06442499639985
 10
113.0289088364565
 20
13.06442271097319
 10
113.199231457748
 20
13.06442041863437
 10
113.3710667608392
 20
13.06441811963026
 10
113.5444218207046
 20
13.06441581420768
 10
113.7193037123188
 20
13.06441350261354
 10
113.8957195106563
 20
13.06441118509474
 10
114.0736762906917
 20
13.06440886189807
 10
114.2531811273996
 20
13.06440653327041
 10
114.4342410957545
 20
13.06440419945863
 10
114.616863270731
 20
13.06440186070961
 10
114.8010547273037
 20
13.0643995172702
 10
114.9868225404471
 20
13.06439716938729
 10
115.1741737851347
 20
13.06439481730763
 10
115.363115536342
 20
13.06439246127826
 10
115.553654869045
 20
13.06439010154588
 10
115.745798858217
 20
13.06438773835742
 10
115.9395545788325
 20
13.06438537195981
 10
116.1349291058661
 20
13.06438300259981
 10
116.3319295142924
 20
13.06438063052428
 10
116.530562879086
 20
13.06437825598016
 10
116.7308362752214
 20
13.06437587921431
 10
116.9327567776732
 20
13.06437350047349
 10
117.136331461416
 20
13.06437112000469
 10
117.3415674014243
 20
13.06436873805467
 10
117.5484716726726
 20
13.06436635487034
 10
117.7570513501356
 20
13.06436397069859
 10
117.9673135087879
 20
13.06436158578623
 10
118.1792652236039
 20
13.06435920038012
 10
118.3929135695583
 20
13.0643568147272
  0
VIEWPORT
  5
71
102
{ACAD_XDICTIONARY
360
6D9
102
}
330
55
100
AcDbEntity
 67
     1
  8
0
100
AcDbViewport
 10
133.3499908447265
 20
101.5999970436096
 30
0.0
 40
381.3957395593833
 41
218.2856291881582
 68
     1
 69
     1
 12
133.3499908447265
 22
101.5999970436096
 13
0.0
 23
0.0
 14
10.0
 24
10.0
 15
10.0
 25
10.0
 16
0.0
 26
0.0
 36
1.0
 17
0.0
 27
0.0
 37
0.0
 42
50.0
 43
0.0
 44
0.0
 45
218.2856291881582
 50
0.0
 51
0.0
 72
   100
 90
    32800
  1

281
     0
 71
     1
 74
     0
110
0.0
120
0.0
130
0.0
111
1.0
121
0.0
131
0.0
112
0.0
122
1.0
132
0.0
 79
     0
146
0.0
  0
VIEWPORT
  5
73
102
{ACAD_XDICTIONARY
360
6DB
102
}
330
55
100
AcDbEntity
 67
     1
  8
0
100
AcDbViewport
 10
133.3499939441677
 20
101.5999939441678
 30
0.0
 40
213.3599903106689
 41
162.5599903106689
 68
     2
 69
     2
 12
210.0
 22
148.5
 13
0.0
 23
0.0
 14
10.0
 24
10.0
 15
10.0
 25
10.0
 16
0.0
 26
0.0
 36
1.0
 17
0.0
 27
0.0
 37
0.0
 42
50.0
 43
0.0
 44
0.0
 45
324.0677920111345
 50
0.0
 51
0.0
 72
   100
 90
    32864
  1

281
     0
 71
     1
 74
     0
110
0.0
120
0.0
130
0.0
111
1.0
121
0.0
131
0.0
112
0.0
122
1.0
132
0.0
 79
     0
146
0.0
  0
ENDSEC
  0
SECTION
  2
OBJECTS
  0
DICTIONARY
  5
C
330
0
100
AcDbDictionary
281
     1
  3
ACAD_COLOR
350
1CC
  3
ACAD_GROUP
350
D
  3
ACAD_LAYOUT
350
1A
  3
ACAD_MATERIAL
350
1CB
  3
ACAD_MLEADERSTYLE
350
508
  3
ACAD_MLINESTYLE
350
17
  3
ACAD_PLOTSETTINGS
350
19
  3
ACAD_PLOTSTYLENAME
350
E
  3
ACAD_SCALELIST
350
4F6
  3
ACAD_TABLESTYLE
350
1CD
  3
ACAD_VISUALSTYLE
350
4E2
  3
ACDB_RECOMPOSE_DATA
350
6CD
  3
AcDbVariableDictionary
350
5E
  3
DWGPROPS
350
6CE
  0
DICTIONARY
  5
529
330
10
100
AcDbDictionary
280
     1
281
     1
  3
ADSK_XREC_LAYER_RECONCILED
360
52A
  0
DICTIONARY
  5
52B
330
86
100
AcDbDictionary
280
     1
281
     1
  3
ADSK_XREC_LAYER_RECONCILED
360
52C
  0
DICTIONARY
  5
52D
330
87
100
AcDbDictionary
280
     1
281
     1
  3
ADSK_XREC_LAYER_RECONCILED
360
52E
  0
DICTIONARY
  5
52F
330
CE
100
AcDbDictionary
280
     1
281
     1
  3
ADSK_XREC_LAYER_RECONCILED
360
530
  0
DICTIONARY
  5
531
330
CF
100
AcDbDictionary
280
     1
281
     1
  3
ADSK_XREC_LAYER_RECONCILED
360
532
  0
DICTIONARY
  5
533
330
D0
100
AcDbDictionary
280
     1
281
     1
  3
ADSK_XREC_LAYER_RECONCILED
360
534
  0
DICTIONARY
  5
206
330
1F
100
AcDbDictionary
280
     1
281
     1
  3
ACAD_SORTENTS
360
207
  0
DICTIONARY
  5
260
330
25E
100
AcDbDictionary
280
     1
281
     1
  3
ACAD_SORTENTS
360
261
  0
DICTIONARY
  5
3C5
330
3C3
100
AcDbDictionary
280
     1
281
     1
  3
ACAD_SORTENTS
360
3C6
  0
DICTIONARY
  5
6D5
330
6B
100
AcDbDictionary
280
     1
281
     1
  3
ACAD_XREC_ROUNDTRIP
360
6D6
  0
DICTIONARY
  5
6D7
330
6D
100
AcDbDictionary
280
     1
281
     1
  3
ACAD_XREC_ROUNDTRIP
360
6D8
  0
DICTIONARY
  5
6D9
330
71
100
AcDbDictionary
280
     1
281
     1
  3
ACAD_XREC_ROUNDTRIP
360
6DA
  0
DICTIONARY
  5
6DB
330
73
100
AcDbDictionary
280
     1
281
     1
  3
ACAD_XREC_ROUNDTRIP
360
6DC
  0
DICTIONARY
  5
1CC
102
{ACAD_REACTORS
330
C
102
}
330
C
100
AcDbDictionary
281
     1
  0
DICTIONARY
  5
D
102
{ACAD_REACTORS
330
C
102
}
330
C
100
AcDbDictionary
281
     1
  0
DICTIONARY
  5
1A
102
{ACAD_REACTORS
330
C
102
}
330
C
100
AcDbDictionary
281
     1
  3
Model
350
22
  3
ﾚｲｱｳﾄ1
350
51
  3
ﾚｲｱｳﾄ2
350
56
  0
DICTIONARY
  5
1CB
102
{ACAD_REACTORS
330
C
102
}
330
C
100
AcDbDictionary
281
     1
  3
ByBlock
350
4D2
  3
ByLayer
350
4CA
  3
Global
350
4DA
  0
DICTIONARY
  5
508
102
{ACAD_REACTORS
330
C
102
}
330
C
100
AcDbDictionary
281
     1
  3
Standard
350
509
  0
DICTIONARY
  5
17
102
{ACAD_REACTORS
330
C
102
}
330
C
100
AcDbDictionary
281
     1
  3
Standard
350
18
  0
DICTIONARY
  5
19
102
{ACAD_REACTORS
330
C
102
}
330
C
100
AcDbDictionary
281
     1
  0
ACDBDICTIONARYWDFLT
  5
E
102
{ACAD_REACTORS
330
C
102
}
330
C
100
AcDbDictionary
281
     1
  3
Normal
350
F
100
AcDbDictionaryWithDefault
340
F
  0
DICTIONARY
  5
4F6
102
{ACAD_REACTORS
330
C
102
}
330
C
100
AcDbDictionary
281
     1
  3
A0
350
4F7
  3
A1
350
4F8
  3
A2
350
4F9
  3
A3
350
4FA
  3
A4
350
4FB
  3
A5
350
4FC
  3
A6
350
4FD
  3
A7
350
4FE
  3
A8
350
4FF
  3
A9
350
500
  3
B0
350
501
  3
B1
350
502
  3
B2
350
503
  3
B3
350
504
  3
B4
350
505
  3
B5
350
506
  3
B6
350
507
  0
DICTIONARY
  5
1CD
102
{ACAD_REACTORS
330
C
102
}
330
C
100
AcDbDictionary
281
     1
  3
Standard
350
1CE
  0
DICTIONARY
  5
4E2
102
{ACAD_REACTORS
330
C
102
}
330
C
100
AcDbDictionary
281
     1
  3
2dWireframe
350
4E8
  3
3D Hidden
350
4EA
  3
3dWireframe
350
4E9
  3
Basic
350
4E7
  3
Brighten
350
4EE
  3
ColorChange
350
4F2
  3
Conceptual
350
4EB
  3
Dim
350
4ED
  3
EdgeColorOff
350
4F5
  3
Facepattern
350
4F1
  3
Flat
350
4E3
  3
FlatWithEdges
350
4E4
  3
Gouraud
350
4E5
  3
GouraudWithEdges
350
4E6
  3
JitterOff
350
4F3
  3
Linepattern
350
4F0
  3
OverhangOff
350
4F4
  3
Realistic
350
4EC
  3
Thicken
350
4EF
  0
XRECORD
  5
6CD
102
{ACAD_REACTORS
330
C
102
}
330
C
100
AcDbXrecord
280
     1
 90
        1
330
1CE
  0
DICTIONARY
  5
5E
102
{ACAD_REACTORS
330
C
102
}
330
C
100
AcDbDictionary
281
     1
  3
CANNOSCALE
350
57A
  3
CMLEADERSTYLE
350
579
  3
CTABLESTYLE
350
1E0
  3
DIMASSOC
350
5F
  3
HIDETEXT
350
63
  3
INDEXCTL
350
57C
  3
PROJECTNAME
350
1E1
  3
SORTENTS
350
57B
  3
XCLIPFRAME
350
6CB
  0
XRECORD
  5
6CE
102
{ACAD_REACTORS
330
C
102
}
330
C
100
AcDbXrecord
280
     1
  1
DWGPROPS COOKIE
  2

  3

  4

  6

  7

  8
cadm
  9

300
=
301
=
302
=
303
=
304
=
305
=
306
=
307
=
308
=
309
=
 40
0.1610568634259259
 41
2453249.553566794
 42
2456722.503814375
  1

 90
        0
  0
XRECORD
  5
52A
102
{ACAD_REACTORS
330
529
102
}
330
529
100
AcDbXrecord
280
     1
290
     1
  0
XRECORD
  5
52C
102
{ACAD_REACTORS
330
52B
102
}
330
52B
100
AcDbXrecord
280
     1
290
     1
  0
XRECORD
  5
52E
102
{ACAD_REACTORS
330
52D
102
}
330
52D
100
AcDbXrecord
280
     1
290
     1
  0
XRECORD
  5
530
102
{ACAD_REACTORS
330
52F
102
}
330
52F
100
AcDbXrecord
280
     1
290
     1
  0
XRECORD
  5
532
102
{ACAD_REACTORS
330
531
102
}
330
531
100
AcDbXrecord
280
     1
290
     1
  0
XRECORD
  5
534
102
{ACAD_REACTORS
330
533
102
}
330
533
100
AcDbXrecord
280
     1
290
     1
  0
SORTENTSTABLE
  5
207
102
{ACAD_REACTORS
330
206
102
}
330
206
100
AcDbSortentsTable
330
1F
331
2B3
  5
2B3
331
2B1
  5
2B1
331
A0
  5
A0
331
2AF
  5
2AF
331
2AD
  5
2AD
331
2B2
  5
2B2
331
2B0
  5
2B0
331
9F
  5
9F
331
2AE
  5
2AE
331
9D
  5
9D
331
2AC
  5
2AC
  0
SORTENTSTABLE
  5
261
102
{ACAD_REACTORS
330
260
102
}
330
260
100
AcDbSortentsTable
330
25E
  0
SORTENTSTABLE
  5
3C6
102
{ACAD_REACTORS
330
3C5
102
}
330
3C5
100
AcDbSortentsTable
330
3C3
  0
XRECORD
  5
6D6
102
{ACAD_REACTORS
330
6D5
102
}
330
6D5
100
AcDbXrecord
280
     1
102
SHADEPLOT
 70
     0
  0
XRECORD
  5
6D8
102
{ACAD_REACTORS
330
6D7
102
}
330
6D7
100
AcDbXrecord
280
     1
102
SHADEPLOT
 70
     0
  0
XRECORD
  5
6DA
102
{ACAD_REACTORS
330
6D9
102
}
330
6D9
100
AcDbXrecord
280
     1
102
SHADEPLOT
 70
     0
  0
XRECORD
  5
6DC
102
{ACAD_REACTORS
330
6DB
102
}
330
6DB
100
AcDbXrecord
280
     1
102
SHADEPLOT
 70
     0
  0
LAYOUT
  5
22
102
{ACAD_XDICTIONARY
360
6CF
102
}
102
{ACAD_REACTORS
330
1A
102
}
330
1A
100
AcDbPlotSettings
  1

  2
none_device
  4
ANSI_A_(8.50_x_11.00_Inches)
  6

 40
6.349999904632567
 41
19.04999923706053
 42
6.350006103515625
 43
19.04998779296875
 44
215.8999938964841
 45
279.3999938964843
 46
0.0
 47
0.0
 48
0.0
 49
0.0
140
0.0
141
0.0
142
1.0
143
78.436453180766
 70
 11952
 72
     0
 73
     1
 74
     0
  7

 75
     0
147
0.0127491741332998
148
0.0
149
0.0
100
AcDbLayout
  1
Model
 70
     1
 71
     0
 10
0.0
 20
0.0
 11
12.0
 21
9.0
 12
0.0
 22
0.0
 32
0.0
 14
0.0
 24
0.0
 34
0.0
 15
0.0
 25
0.0
 35
0.0
146
0.0
 13
0.0
 23
0.0
 33
0.0
 16
1.0
 26
0.0
 36
0.0
 17
0.0
 27
1.0
 37
0.0
 76
     0
330
1F
331
4B9
  0
LAYOUT
  5
51
102
{ACAD_XDICTIONARY
360
6D1
102
}
102
{ACAD_REACTORS
330
1A
102
}
330
1A
100
AcDbPlotSettings
  1

  2
none_device
  4
Letter_(8.50_x_11.00_Inches)
  6

 40
6.349999904632567
 41
6.349999904632567
 42
6.350006103515625
 43
6.350006103515625
 44
215.8999938964841
 45
279.3999938964843
 46
0.0
 47
0.0
 48
0.0
 49
0.0
140
0.0
141
0.0
142
1.0
143
1.0
 70
   688
 72
     1
 73
     1
 74
     5
  7

 75
    16
147
1.0
148
0.0
149
0.0
100
AcDbLayout
  1
ﾚｲｱｳﾄ1
 70
     1
 71
     1
 10
-6.350006103515625
 20
-6.349999904632567
 11
273.0499877929687
 21
209.5499939918517
 12
0.0
 22
0.0
 32
0.0
 14
26.66076962115562
 24
20.31135699206657
 34
-0.0015258207003583
 15
240.039213369355
 25
182.8886381005154
 35
0.0000000349246037
146
0.0
 13
0.0
 23
0.0
 33
0.0
 16
1.0
 26
0.0
 36
0.0
 17
0.0
 27
1.0
 37
0.0
 76
     0
330
50
331
6B
  0
LAYOUT
  5
56
102
{ACAD_XDICTIONARY
360
6D3
102
}
102
{ACAD_REACTORS
330
1A
102
}
330
1A
100
AcDbPlotSettings
  1

  2
none_device
  4
Letter_(8.50_x_11.00_Inches)
  6

 40
6.349999904632567
 41
6.349999904632567
 42
6.350006103515625
 43
6.350006103515625
 44
215.8999938964841
 45
279.3999938964843
 46
0.0
 47
0.0
 48
0.0
 49
0.0
140
0.0
141
0.0
142
1.0
143
1.0
 70
   688
 72
     1
 73
     1
 74
     5
  7

 75
    16
147
1.0
148
0.0
149
0.0
100
AcDbLayout
  1
ﾚｲｱｳﾄ2
 70
     1
 71
     2
 10
-6.350006103515625
 20
-6.349999904632567
 11
273.0499877929687
 21
209.5499939918517
 12
0.0
 22
0.0
 32
0.0
 14
26.66076962115562
 24
20.31135699206657
 34
-0.0015258207003583
 15
240.039213369355
 25
182.8886381005154
 35
0.0000000349246037
146
0.0
 13
0.0
 23
0.0
 33
0.0
 16
1.0
 26
0.0
 36
0.0
 17
0.0
 27
1.0
 37
0.0
 76
     0
330
55
331
71
  0
MATERIAL
  5
4D2
102
{ACAD_XDICTIONARY
360
4D3
102
}
102
{ACAD_REACTORS
330
1CB
102
}
330
1CB
100
AcDbMaterial
  1
ByBlock
 72
     0
 43
0.0008202099737533
 43
0.0
 43
0.0
 43
0.0
 43
0.0
 43
0.0008202099737533
 43
0.0
 43
0.0
 43
0.0
 43
0.0
 43
1.0
 43
0.0
 43
0.0
 43
0.0
 43
0.0
 43
1.0
 77
     0
 47
0.0008202099737533
 47
0.0
 47
0.0
 47
0.0
 47
0.0
 47
0.0008202099737533
 47
0.0
 47
0.0
 47
0.0
 47
0.0
 47
1.0
 47
0.0
 47
0.0
 47
0.0
 47
0.0
 47
1.0
171
     0
 49
0.0008202099737533
 49
0.0
 49
0.0
 49
0.0
 49
0.0
 49
0.0008202099737533
 49
0.0
 49
0.0
 49
0.0
 49
0.0
 49
1.0
 49
0.0
 49
0.0
 49
0.0
 49
0.0
 49
1.0
175
     0
142
0.0008202099737533
142
0.0
142
0.0
142
0.0
142
0.0
142
0.0008202099737533
142
0.0
142
0.0
142
0.0
142
0.0
142
1.0
142
0.0
142
0.0
142
0.0
142
0.0
142
1.0
179
     0
144
0.0008202099737533
144
0.0
144
0.0
144
0.0
144
0.0
144
0.0008202099737533
144
0.0
144
0.0
144
0.0
144
0.0
144
1.0
144
0.0
144
0.0
144
0.0
144
0.0
144
1.0
147
0.0008202099737533
147
0.0
147
0.0
147
0.0
147
0.0
147
0.0008202099737533
147
0.0
147
0.0
147
0.0
147
0.0
147
1.0
147
0.0
147
0.0
147
0.0
147
0.0
147
1.0
  0
MATERIAL
  5
4CA
102
{ACAD_XDICTIONARY
360
4CB
102
}
102
{ACAD_REACTORS
330
1CB
102
}
330
1CB
100
AcDbMaterial
  1
ByLayer
 72
     0
 43
0.0008202099737533
 43
0.0
 43
0.0
 43
0.0
 43
0.0
 43
0.0008202099737533
 43
0.0
 43
0.0
 43
0.0
 43
0.0
 43
1.0
 43
0.0
 43
0.0
 43
0.0
 43
0.0
 43
1.0
 77
     0
 47
0.0008202099737533
 47
0.0
 47
0.0
 47
0.0
 47
0.0
 47
0.0008202099737533
 47
0.0
 47
0.0
 47
0.0
 47
0.0
 47
1.0
 47
0.0
 47
0.0
 47
0.0
 47
0.0
 47
1.0
171
     0
 49
0.0008202099737533
 49
0.0
 49
0.0
 49
0.0
 49
0.0
 49
0.0008202099737533
 49
0.0
 49
0.0
 49
0.0
 49
0.0
 49
1.0
 49
0.0
 49
0.0
 49
0.0
 49
0.0
 49
1.0
175
     0
142
0.0008202099737533
142
0.0
142
0.0
142
0.0
142
0.0
142
0.0008202099737533
142
0.0
142
0.0
142
0.0
142
0.0
142
1.0
142
0.0
142
0.0
142
0.0
142
0.0
142
1.0
179
     0
144
0.0008202099737533
144
0.0
144
0.0
144
0.0
144
0.0
144
0.0008202099737533
144
0.0
144
0.0
144
0.0
144
0.0
144
1.0
144
0.0
144
0.0
144
0.0
144
0.0
144
1.0
147
0.0008202099737533
147
0.0
147
0.0
147
0.0
147
0.0
147
0.0008202099737533
147
0.0
147
0.0
147
0.0
147
0.0
147
1.0
147
0.0
147
0.0
147
0.0
147
0.0
147
1.0
  0
MATERIAL
  5
4DA
102
{ACAD_XDICTIONARY
360
4DB
102
}
102
{ACAD_REACTORS
330
1CB
102
}
330
1CB
100
AcDbMaterial
  1
Global
 72
     0
 43
0.0008202099737533
 43
0.0
 43
0.0
 43
0.0
 43
0.0
 43
0.0008202099737533
 43
0.0
 43
0.0
 43
0.0
 43
0.0
 43
1.0
 43
0.0
 43
0.0
 43
0.0
 43
0.0
 43
1.0
 77
     0
 47
0.0008202099737533
 47
0.0
 47
0.0
 47
0.0
 47
0.0
 47
0.0008202099737533
 47
0.0
 47
0.0
 47
0.0
 47
0.0
 47
1.0
 47
0.0
 47
0.0
 47
0.0
 47
0.0
 47
1.0
171
     0
 49
0.0008202099737533
 49
0.0
 49
0.0
 49
0.0
 49
0.0
 49
0.0008202099737533
 49
0.0
 49
0.0
 49
0.0
 49
0.0
 49
1.0
 49
0.0
 49
0.0
 49
0.0
 49
0.0
 49
1.0
175
     0
142
0.0008202099737533
142
0.0
142
0.0
142
0.0
142
0.0
142
0.0008202099737533
142
0.0
142
0.0
142
0.0
142
0.0
142
1.0
142
0.0
142
0.0
142
0.0
142
0.0
142
1.0
179
     0
144
0.0008202099737533
144
0.0
144
0.0
144
0.0
144
0.0
144
0.0008202099737533
144
0.0
144
0.0
144
0.0
144
0.0
144
1.0
144
0.0
144
0.0
144
0.0
144
0.0
144
1.0
147
0.0008202099737533
147
0.0
147
0.0
147
0.0
147
0.0
147
0.0008202099737533
147
0.0
147
0.0
147
0.0
147
0.0
147
1.0
147
0.0
147
0.0
147
0.0
147
0.0
147
1.0
  0
MLEADERSTYLE
  5
509
102
{ACAD_REACTORS
330
508
102
}
330
508
100
AcDbMLeaderStyle
170
     2
171
     1
172
     0
 90
        2
 40
0.0
 41
0.0
173
     1
 91
-1056964608
340
14
 92
       -2
290
     1
 42
2.0
291
     1
 43
0.36
  3
Standard
 44
4.0
300

342
11
174
     1
178
     6
175
     1
176
     0
 93
-1056964608
 45
4.0
292
     0
297
     0
 46
4.0
 94
-1056964608
 47
1.0
 49
1.0
140
1.0
293
     1
141
0.0
294
     1
177
     0
142
1.0
295
     0
296
     0
143
0.125
1001
ACAD_MLEADERVER
1070
     2
  0
MLINESTYLE
  5
18
102
{ACAD_REACTORS
330
17
102
}
330
17
100
AcDbMlineStyle
  2
STANDARD
 70
     0
  3

 62
   256
 51
90.0
 52
90.0
 71
     2
 49
0.5
 62
   256
  6
BYLAYER
 49
-0.5
 62
   256
  6
BYLAYER
  0
ACDBPLACEHOLDER
  5
F
102
{ACAD_REACTORS
330
E
102
}
330
E
  0
SCALE
  5
4F7
102
{ACAD_REACTORS
330
4F6
102
}
330
4F6
100
AcDbScale
 70
     0
300
1:1
140
1.0
141
1.0
290
     1
  0
SCALE
  5
4F8
102
{ACAD_REACTORS
330
4F6
102
}
330
4F6
100
AcDbScale
 70
     0
300
1:2
140
1.0
141
2.0
290
     0
  0
SCALE
  5
4F9
102
{ACAD_REACTORS
330
4F6
102
}
330
4F6
100
AcDbScale
 70
     0
300
1:4
140
1.0
141
4.0
290
     0
  0
SCALE
  5
4FA
102
{ACAD_REACTORS
330
4F6
102
}
330
4F6
100
AcDbScale
 70
     0
300
1:5
140
1.0
141
5.0
290
     0
  0
SCALE
  5
4FB
102
{ACAD_REACTORS
330
4F6
102
}
330
4F6
100
AcDbScale
 70
     0
300
1:8
140
1.0
141
8.0
290
     0
  0
SCALE
  5
4FC
102
{ACAD_REACTORS
330
4F6
102
}
330
4F6
100
AcDbScale
 70
     0
300
1:10
140
1.0
141
10.0
290
     0
  0
SCALE
  5
4FD
102
{ACAD_REACTORS
330
4F6
102
}
330
4F6
100
AcDbScale
 70
     0
300
1:16
140
1.0
141
16.0
290
     0
  0
SCALE
  5
4FE
102
{ACAD_REACTORS
330
4F6
102
}
330
4F6
100
AcDbScale
 70
     0
300
1:20
140
1.0
141
20.0
290
     0
  0
SCALE
  5
4FF
102
{ACAD_REACTORS
330
4F6
102
}
330
4F6
100
AcDbScale
 70
     0
300
1:30
140
1.0
141
30.0
290
     0
  0
SCALE
  5
500
102
{ACAD_REACTORS
330
4F6
102
}
330
4F6
100
AcDbScale
 70
     0
300
1:40
140
1.0
141
40.0
290
     0
  0
SCALE
  5
501
102
{ACAD_REACTORS
330
4F6
102
}
330
4F6
100
AcDbScale
 70
     0
300
1:50
140
1.0
141
50.0
290
     0
  0
SCALE
  5
502
102
{ACAD_REACTORS
330
4F6
102
}
330
4F6
100
AcDbScale
 70
     0
300
1:100
140
1.0
141
100.0
290
     0
  0
SCALE
  5
503
102
{ACAD_REACTORS
330
4F6
102
}
330
4F6
100
AcDbScale
 70
     0
300
2:1
140
2.0
141
1.0
290
     0
  0
SCALE
  5
504
102
{ACAD_REACTORS
330
4F6
102
}
330
4F6
100
AcDbScale
 70
     0
300
4:1
140
4.0
141
1.0
290
     0
  0
SCALE
  5
505
102
{ACAD_REACTORS
330
4F6
102
}
330
4F6
100
AcDbScale
 70
     0
300
8:1
140
8.0
141
1.0
290
     0
  0
SCALE
  5
506
102
{ACAD_REACTORS
330
4F6
102
}
330
4F6
100
AcDbScale
 70
     0
300
10:1
140
10.0
141
1.0
290
     0
  0
SCALE
  5
507
102
{ACAD_REACTORS
330
4F6
102
}
330
4F6
100
AcDbScale
 70
     0
300
100:1
140
100.0
141
1.0
290
     0
  0
TABLESTYLE
  5
1CE
102
{ACAD_XDICTIONARY
360
5C1
102
}
102
{ACAD_REACTORS
330
1CD
102
}
330
1CD
100
AcDbTableStyle
  3
Standard
 70
     0
 71
     0
 40
1.5
 41
1.5
280
     0
281
     0
  7
Standard
140
4.5
170
     2
 62
     0
 63
     7
283
     0
274
    -2
284
     1
 64
     0
275
    -2
285
     1
 65
     0
276
    -2
286
     1
 66
     0
277
    -2
287
     1
 67
     0
278
    -2
288
     1
 68
     0
279
    -2
289
     1
 69
     0
  7
Standard
140
6.0
170
     5
 62
     0
 63
     7
283
     0
274
    -2
284
     1
 64
     0
275
    -2
285
     1
 65
     0
276
    -2
286
     1
 66
     0
277
    -2
287
     1
 67
     0
278
    -2
288
     1
 68
     0
279
    -2
289
     1
 69
     0
  7
Standard
140
4.5
170
     5
 62
     0
 63
     7
283
     0
274
    -2
284
     1
 64
     0
275
    -2
285
     1
 65
     0
276
    -2
286
     1
 66
     0
277
    -2
287
     1
 67
     0
278
    -2
288
     1
 68
     0
279
    -2
289
     1
 69
     0
  0
VISUALSTYLE
  5
4E8
102
{ACAD_XDICTIONARY
360
6E8
102
}
102
{ACAD_REACTORS
330
4E2
102
}
330
4E2
100
AcDbVisualStyle
  2

 70
     4
 71
     0
 72
     2
 73
     0
 90
        0
 40
-0.6
 41
-30.0
 62
     5
 63
     7
 74
     1
 91
        4
 64
     7
 65
   257
 75
     1
175
     1
 42
1.0
 92
        0
 66
   257
 43
1.0
 76
     1
 77
     6
 78
     2
 67
     7
 79
     5
170
     0
171
     0
290
     0
174
     0
 93
        1
 44
0.0
173
     0
291
     0
 45
0.0
1001
ACAD
1000
AcDbSavedByObjectVersion
1070
     0
  0
VISUALSTYLE
  5
4EA
102
{ACAD_XDICTIONARY
360
6EC
102
}
102
{ACAD_REACTORS
330
4E2
102
}
330
4E2
100
AcDbVisualStyle
  2

 70
     6
 71
     1
 72
     2
 73
     2
 90
        0
 40
-0.6
 41
-30.0
 62
     5
 63
     7
 74
     2
 91
        2
 64
     7
 65
   257
 75
     2
175
     1
 42
179.0
 92
        0
 66
   257
 43
1.0
 76
     1
 77
     6
 78
     2
 67
     7
 79
     3
170
     0
171
     0
290
     0
174
     0
 93
        1
 44
0.0
173
     0
291
     0
 45
0.0
1001
ACAD
1000
AcDbSavedByObjectVersion
1070
     0
  0
VISUALSTYLE
  5
4E9
102
{ACAD_XDICTIONARY
360
6EA
102
}
102
{ACAD_REACTORS
330
4E2
102
}
330
4E2
100
AcDbVisualStyle
  2

 70
     5
 71
     0
 72
     2
 73
     0
 90
        0
 40
-0.6
 41
-30.0
 62
     5
 63
     7
 74
     1
 91
        4
 64
     7
 65
   257
 75
     1
175
     1
 42
1.0
 92
        0
 66
   257
 43
1.0
 76
     1
 77
     6
 78
     2
 67
     7
 79
     5
170
     0
171
     0
290
     0
174
     0
 93
        1
 44
0.0
173
     0
291
     0
 45
0.0
1001
ACAD
1000
AcDbSavedByObjectVersion
1070
     0
  0
VISUALSTYLE
  5
4E7
102
{ACAD_XDICTIONARY
360
6E6
102
}
102
{ACAD_REACTORS
330
4E2
102
}
330
4E2
100
AcDbVisualStyle
  2

 70
     7
 71
     1
 72
     0
 73
     1
 90
        0
 40
-0.6
 41
-30.0
 62
     5
 63
     7
 74
     0
 91
        4
 64
     7
 65
   257
 75
     1
175
     1
 42
1.0
 92
        8
 66
     7
 43
1.0
 76
     1
 77
     6
 78
     2
 67
     7
 79
     5
170
     0
171
     0
290
     0
174
     0
 93
        1
 44
0.0
173
     0
291
     1
 45
0.0
1001
ACAD
1000
AcDbSavedByObjectVersion
1070
     0
  0
VISUALSTYLE
  5
4EE
102
{ACAD_XDICTIONARY
360
6F4
102
}
102
{ACAD_REACTORS
330
4E2
102
}
330
4E2
100
AcDbVisualStyle
  2

 70
    12
 71
     2
 72
     2
 73
     0
 90
        0
 40
-0.6
 41
-30.0
 62
     5
 63
     7
 74
     1
 91
        4
 64
     7
 65
   257
 75
     1
175
     1
 42
1.0
 92
        8
 66
     7
 43
1.0
 76
     1
 77
     6
 78
     2
 67
     7
 79
     5
170
     0
171
     0
290
     0
174
     0
 93
        1
 44
50.0
173
     0
291
     1
 45
0.0
1001
ACAD
1000
AcDbSavedByObjectVersion
1070
     0
  0
VISUALSTYLE
  5
4F2
102
{ACAD_XDICTIONARY
360
6FC
102
}
102
{ACAD_REACTORS
330
4E2
102
}
330
4E2
100
AcDbVisualStyle
  2

 70
    16
 71
     2
 72
     2
 73
     3
 90
        0
 40
-0.6
 41
-30.0
 62
     5
 63
     8
 74
     1
 91
        4
 64
     7
 65
   257
 75
     1
175
     1
 42
1.0
 92
        8
 66
     8
 43
1.0
 76
     1
 77
     6
 78
     2
 67
     7
 79
     5
170
     0
171
     0
290
     0
174
     0
 93
        1
 44
0.0
173
     0
291
     1
 45
0.0
1001
ACAD
1000
AcDbSavedByObjectVersion
1070
     0
  0
VISUALSTYLE
  5
4EB
102
{ACAD_XDICTIONARY
360
6EE
102
}
102
{ACAD_REACTORS
330
4E2
102
}
330
4E2
100
AcDbVisualStyle
  2

 70
     9
 71
     3
 72
     2
 73
     0
 90
        0
 40
-0.6
 41
-30.0
 62
     5
 63
     7
 74
     2
 91
        2
 64
     7
 65
   257
 75
     1
175
     1
 42
179.0
 92
        8
 66
     7
 43
1.0
 76
     1
 77
     6
 78
     2
 67
     7
 79
     3
170
     0
171
     0
290
     0
174
     0
 93
        1
 44
0.0
173
     0
291
     0
 45
0.0
1001
ACAD
1000
AcDbSavedByObjectVersion
1070
     0
  0
VISUALSTYLE
  5
4ED
102
{ACAD_XDICTIONARY
360
6F2
102
}
102
{ACAD_REACTORS
330
4E2
102
}
330
4E2
100
AcDbVisualStyle
  2

 70
    11
 71
     2
 72
     2
 73
     0
 90
        0
 40
-0.6
 41
-30.0
 62
     5
 63
     7
 74
     1
 91
        4
 64
     7
 65
   257
 75
     1
175
     1
 42
1.0
 92
        8
 66
     7
 43
1.0
 76
     1
 77
     6
 78
     2
 67
     7
 79
     5
170
     0
171
     0
290
     0
174
     0
 93
        1
 44
-50.0
173
     0
291
     1
 45
0.0
1001
ACAD
1000
AcDbSavedByObjectVersion
1070
     0
  0
VISUALSTYLE
  5
4F5
102
{ACAD_XDICTIONARY
360
702
102
}
102
{ACAD_REACTORS
330
4E2
102
}
330
4E2
100
AcDbVisualStyle
  2

 70
    22
 71
     2
 72
     2
 73
     0
 90
        0
 40
-0.6
 41
-30.0
 62
     5
 63
     7
 74
     1
 91
        4
 64
     7
 65
   257
 75
     1
175
     1
 42
1.0
 92
        8
 66
     7
 43
1.0
 76
     1
 77
     6
 78
     2
 67
     7
 79
     5
170
     0
171
     0
290
     0
174
     0
 93
        1
 44
0.0
173
     0
291
     1
 45
0.0
1001
ACAD
1000
AcDbSavedByObjectVersion
1070
     0
  0
VISUALSTYLE
  5
4F1
102
{ACAD_XDICTIONARY
360
6FA
102
}
102
{ACAD_REACTORS
330
4E2
102
}
330
4E2
100
AcDbVisualStyle
  2

 70
    15
 71
     2
 72
     2
 73
     0
 90
        0
 40
-0.6
 41
-30.0
 62
     5
 63
     7
 74
     1
 91
        4
 64
     7
 65
   257
 75
     1
175
     1
 42
1.0
 92
        8
 66
     7
 43
1.0
 76
     1
 77
     6
 78
     2
 67
     7
 79
     5
170
     0
171
     0
290
     0
174
     0
 93
        1
 44
0.0
173
     0
291
     1
 45
0.0
1001
ACAD
1000
AcDbSavedByObjectVersion
1070
     0
  0
VISUALSTYLE
  5
4E3
102
{ACAD_XDICTIONARY
360
6DE
102
}
102
{ACAD_REACTORS
330
4E2
102
}
330
4E2
100
AcDbVisualStyle
  2

 70
     0
 71
     2
 72
     1
 73
     1
 90
        2
 40
-0.6
 41
30.0
 62
     5
 63
     7
 74
     0
 91
        4
 64
     7
 65
   257
 75
     1
175
     1
 42
1.0
 92
        8
 66
     7
 43
1.0
 76
     1
 77
     6
 78
     2
 67
     7
 79
     5
170
     0
171
     0
290
     0
174
     0
 93
       13
 44
0.0
173
     0
291
     1
 45
0.0
1001
ACAD
1000
AcDbSavedByObjectVersion
1070
     0
  0
VISUALSTYLE
  5
4E4
102
{ACAD_XDICTIONARY
360
6E0
102
}
102
{ACAD_REACTORS
330
4E2
102
}
330
4E2
100
AcDbVisualStyle
  2

 70
     1
 71
     2
 72
     1
 73
     1
 90
        2
 40
-0.6
 41
30.0
 62
     5
 63
     7
 74
     1
 91
        4
 64
     7
 65
   257
 75
     1
175
     1
 42
1.0
 92
        0
 66
   257
 43
1.0
 76
     1
 77
     6
 78
     2
 67
     7
 79
     5
170
     0
171
     0
290
     0
174
     0
 93
       13
 44
0.0
173
     0
291
     1
 45
0.0
1001
ACAD
1000
AcDbSavedByObjectVersion
1070
     0
  0
VISUALSTYLE
  5
4E5
102
{ACAD_XDICTIONARY
360
6E2
102
}
102
{ACAD_REACTORS
330
4E2
102
}
330
4E2
100
AcDbVisualStyle
  2

 70
     2
 71
     2
 72
     2
 73
     1
 90
        2
 40
-0.6
 41
30.0
 62
     5
 63
     7
 74
     0
 91
        4
 64
     7
 65
   257
 75
     1
175
     1
 42
1.0
 92
        0
 66
     7
 43
1.0
 76
     1
 77
     6
 78
     2
 67
     7
 79
     5
170
     0
171
     0
290
     0
174
     0
 93
       13
 44
0.0
173
     0
291
     1
 45
0.0
1001
ACAD
1000
AcDbSavedByObjectVersion
1070
     0
  0
VISUALSTYLE
  5
4E6
102
{ACAD_XDICTIONARY
360
6E4
102
}
102
{ACAD_REACTORS
330
4E2
102
}
330
4E2
100
AcDbVisualStyle
  2

 70
     3
 71
     2
 72
     2
 73
     1
 90
        2
 40
-0.6
 41
30.0
 62
     5
 63
     7
 74
     1
 91
        4
 64
     7
 65
   257
 75
     1
175
     1
 42
1.0
 92
        0
 66
   257
 43
1.0
 76
     1
 77
     6
 78
     2
 67
     7
 79
     5
170
     0
171
     0
290
     0
174
     0
 93
       13
 44
0.0
173
     0
291
     1
 45
0.0
1001
ACAD
1000
AcDbSavedByObjectVersion
1070
     0
  0
VISUALSTYLE
  5
4F3
102
{ACAD_XDICTIONARY
360
6FE
102
}
102
{ACAD_REACTORS
330
4E2
102
}
330
4E2
100
AcDbVisualStyle
  2

 70
    20
 71
     2
 72
     2
 73
     0
 90
        0
 40
-0.6
 41
-30.0
 62
     5
 63
     7
 74
     1
 91
        4
 64
     7
 65
   257
 75
     1
175
     1
 42
1.0
 92
       10
 66
     7
 43
1.0
 76
     1
 77
     6
 78
     2
 67
     7
 79
     5
170
     0
171
     0
290
     0
174
     0
 93
        1
 44
0.0
173
     0
291
     1
 45
0.0
1001
ACAD
1000
AcDbSavedByObjectVersion
1070
     0
  0
VISUALSTYLE
  5
4F0
102
{ACAD_XDICTIONARY
360
6F8
102
}
102
{ACAD_REACTORS
330
4E2
102
}
330
4E2
100
AcDbVisualStyle
  2

 70
    14
 71
     2
 72
     2
 73
     0
 90
        0
 40
-0.6
 41
-30.0
 62
     5
 63
     7
 74
     1
 91
        4
 64
     7
 65
   257
 75
     7
175
     7
 42
1.0
 92
        8
 66
     7
 43
1.0
 76
     1
 77
     6
 78
     2
 67
     7
 79
     5
170
     0
171
     0
290
     0
174
     0
 93
        1
 44
0.0
173
     0
291
     1
 45
0.0
1001
ACAD
1000
AcDbSavedByObjectVersion
1070
     0
  0
VISUALSTYLE
  5
4F4
102
{ACAD_XDICTIONARY
360
700
102
}
102
{ACAD_REACTORS
330
4E2
102
}
330
4E2
100
AcDbVisualStyle
  2

 70
    21
 71
     2
 72
     2
 73
     0
 90
        0
 40
-0.6
 41
-30.0
 62
     5
 63
     7
 74
     1
 91
        4
 64
     7
 65
   257
 75
     1
175
     1
 42
1.0
 92
        9
 66
     7
 43
1.0
 76
     1
 77
     6
 78
     2
 67
     7
 79
     5
170
     0
171
     0
290
     0
174
     0
 93
        1
 44
0.0
173
     0
291
     1
 45
0.0
1001
ACAD
1000
AcDbSavedByObjectVersion
1070
     0
  0
VISUALSTYLE
  5
4EC
102
{ACAD_XDICTIONARY
360
6F0
102
}
102
{ACAD_REACTORS
330
4E2
102
}
330
4E2
100
AcDbVisualStyle
  2

 70
     8
 71
     2
 72
     2
 73
     0
 90
        0
 40
-0.6
 41
-30.0
 62
     5
 63
     7
 74
     1
 91
        0
 64
     7
 65
   257
 75
     1
175
     1
 42
1.0
 92
        8
 66
     8
 43
1.0
 76
     1
 77
     6
 78
     2
 67
     7
 79
     5
170
     0
171
     0
290
     0
174
     0
 93
       13
 44
0.0
173
     0
291
     0
 45
0.0
1001
ACAD
1000
AcDbSavedByObjectVersion
1070
     0
  0
VISUALSTYLE
  5
4EF
102
{ACAD_XDICTIONARY
360
6F6
102
}
102
{ACAD_REACTORS
330
4E2
102
}
330
4E2
100
AcDbVisualStyle
  2

 70
    13
 71
     2
 72
     2
 73
     0
 90
        0
 40
-0.6
 41
-30.0
 62
     5
 63
     7
 74
     1
 91
        4
 64
     7
 65
   257
 75
     1
175
     1
 42
1.0
 92
       12
 66
     7
 43
1.0
 76
     1
 77
     6
 78
     2
 67
     7
 79
     5
170
     0
171
     0
290
     0
174
     0
 93
        1
 44
0.0
173
     0
291
     1
 45
0.0
1001
ACAD
1000
AcDbSavedByObjectVersion
1070
     0
  0
DICTIONARYVAR
  5
57A
102
{ACAD_REACTORS
330
5E
102
}
330
5E
100
DictionaryVariables
280
     0
  1
1:1
  0
DICTIONARYVAR
  5
579
102
{ACAD_REACTORS
330
5E
102
}
330
5E
100
DictionaryVariables
280
     0
  1
STANDARD
  0
DICTIONARYVAR
  5
1E0
102
{ACAD_REACTORS
330
5E
102
}
330
5E
100
DictionaryVariables
280
     0
  1
STANDARD
  0
DICTIONARYVAR
  5
5F
102
{ACAD_REACTORS
330
5E
102
}
330
5E
100
DictionaryVariables
280
     0
  1
2
  0
DICTIONARYVAR
  5
63
102
{ACAD_REACTORS
330
5E
102
}
330
5E
100
DictionaryVariables
280
     0
  1
1
  0
DICTIONARYVAR
  5
57C
102
{ACAD_REACTORS
330
5E
102
}
330
5E
100
DictionaryVariables
280
     0
  1
0
  0
DICTIONARYVAR
  5
1E1
102
{ACAD_REACTORS
330
5E
102
}
330
5E
100
DictionaryVariables
280
     0
  1

  0
DICTIONARYVAR
  5
57B
102
{ACAD_REACTORS
330
5E
102
}
330
5E
100
DictionaryVariables
280
     0
  1
127
  0
DICTIONARYVAR
  5
6CB
102
{ACAD_REACTORS
330
5E
102
}
330
5E
100
DictionaryVariables
280
     0
  1
2
  0
DICTIONARY
  5
6CF
330
22
100
AcDbDictionary
280
     1
281
     1
  3
ACAD_XREC_ROUNDTRIP
360
6D0
  0
DICTIONARY
  5
6D1
330
51
100
AcDbDictionary
280
     1
281
     1
  3
ACAD_XREC_ROUNDTRIP
360
6D2
  0
DICTIONARY
  5
6D3
330
56
100
AcDbDictionary
280
     1
281
     1
  3
ACAD_XREC_ROUNDTRIP
360
6D4
  0
DICTIONARY
  5
4D3
330
4D2
100
AcDbDictionary
280
     1
281
     1
  3
ACAD_XREC_ROUNDTRIP
360
5D5
  3
BUMPTILE
360
4D5
  3
DIFFUSETILE
360
4D4
  3
OPACITYTILE
360
4D8
  3
REFLECTIONTILE
360
4D7
  3
REFRACTIONTILE
360
4D9
  3
SPECULARTILE
360
4D6
  0
DICTIONARY
  5
4CB
330
4CA
100
AcDbDictionary
280
     1
281
     1
  3
ACAD_XREC_ROUNDTRIP
360
5D4
  3
BUMPTILE
360
4CD
  3
DIFFUSETILE
360
4CC
  3
OPACITYTILE
360
4D0
  3
REFLECTIONTILE
360
4CF
  3
REFRACTIONTILE
360
4D1
  3
SPECULARTILE
360
4CE
  0
DICTIONARY
  5
4DB
330
4DA
100
AcDbDictionary
280
     1
281
     1
  3
ACAD_XREC_ROUNDTRIP
360
5D6
  3
BUMPTILE
360
4DD
  3
DIFFUSETILE
360
4DC
  3
OPACITYTILE
360
4E0
  3
REFLECTIONTILE
360
4DF
  3
REFRACTIONTILE
360
4E1
  3
SPECULARTILE
360
4DE
  0
DICTIONARY
  5
5C1
330
1CE
100
AcDbDictionary
280
     1
281
     1
  3
ACAD_ROUNDTRIP_2008_TABLESTYLE_CELLSTYLEMAP
360
6CC
  3
ACAD_XREC_ROUNDTRIP
360
6DD
  0
DICTIONARY
  5
6E8
330
4E8
100
AcDbDictionary
280
     1
281
     1
  3
ACAD_XREC_ROUNDTRIP
360
6E9
  0
DICTIONARY
  5
6EC
330
4EA
100
AcDbDictionary
280
     1
281
     1
  3
ACAD_XREC_ROUNDTRIP
360
6ED
  0
DICTIONARY
  5
6EA
330
4E9
100
AcDbDictionary
280
     1
281
     1
  3
ACAD_XREC_ROUNDTRIP
360
6EB
  0
DICTIONARY
  5
6E6
330
4E7
100
AcDbDictionary
280
     1
281
     1
  3
ACAD_XREC_ROUNDTRIP
360
6E7
  0
DICTIONARY
  5
6F4
330
4EE
100
AcDbDictionary
280
     1
281
     1
  3
ACAD_XREC_ROUNDTRIP
360
6F5
  0
DICTIONARY
  5
6FC
330
4F2
100
AcDbDictionary
280
     1
281
     1
  3
ACAD_XREC_ROUNDTRIP
360
6FD
  0
DICTIONARY
  5
6EE
330
4EB
100
AcDbDictionary
280
     1
281
     1
  3
ACAD_XREC_ROUNDTRIP
360
6EF
  0
DICTIONARY
  5
6F2
330
4ED
100
AcDbDictionary
280
     1
281
     1
  3
ACAD_XREC_ROUNDTRIP
360
6F3
  0
DICTIONARY
  5
702
330
4F5
100
AcDbDictionary
280
     1
281
     1
  3
ACAD_XREC_ROUNDTRIP
360
703
  0
DICTIONARY
  5
6FA
330
4F1
100
AcDbDictionary
280
     1
281
     1
  3
ACAD_XREC_ROUNDTRIP
360
6FB
  0
DICTIONARY
  5
6DE
330
4E3
100
AcDbDictionary
280
     1
281
     1
  3
ACAD_XREC_ROUNDTRIP
360
6DF
  0
DICTIONARY
  5
6E0
330
4E4
100
AcDbDictionary
280
     1
281
     1
  3
ACAD_XREC_ROUNDTRIP
360
6E1
  0
DICTIONARY
  5
6E2
330
4E5
100
AcDbDictionary
280
     1
281
     1
  3
ACAD_XREC_ROUNDTRIP
360
6E3
  0
DICTIONARY
  5
6E4
330
4E6
100
AcDbDictionary
280
     1
281
     1
  3
ACAD_XREC_ROUNDTRIP
360
6E5
  0
DICTIONARY
  5
6FE
330
4F3
100
AcDbDictionary
280
     1
281
     1
  3
ACAD_XREC_ROUNDTRIP
360
6FF
  0
DICTIONARY
  5
6F8
330
4F0
100
AcDbDictionary
280
     1
281
     1
  3
ACAD_XREC_ROUNDTRIP
360
6F9
  0
DICTIONARY
  5
700
330
4F4
100
AcDbDictionary
280
     1
281
     1
  3
ACAD_XREC_ROUNDTRIP
360
701
  0
DICTIONARY
  5
6F0
330
4EC
100
AcDbDictionary
280
     1
281
     1
  3
ACAD_XREC_ROUNDTRIP
360
6F1
  0
DICTIONARY
  5
6F6
330
4EF
100
AcDbDictionary
280
     1
281
     1
  3
ACAD_XREC_ROUNDTRIP
360
6F7
  0
XRECORD
  5
6D0
102
{ACAD_REACTORS
330
6CF
102
}
330
6CF
100
AcDbXrecord
280
     1
102
SHADEPLOT
 70
     0
102
SHADEPLOTRESLEVEL
 70
     2
102
SHADEPLOTCUSTOMDPI
 70
   300
  0
XRECORD
  5
6D2
102
{ACAD_REACTORS
330
6D1
102
}
330
6D1
100
AcDbXrecord
280
     1
102
SHADEPLOT
 70
     0
102
SHADEPLOTRESLEVEL
 70
     2
102
SHADEPLOTCUSTOMDPI
 70
   300
  0
XRECORD
  5
6D4
102
{ACAD_REACTORS
330
6D3
102
}
330
6D3
100
AcDbXrecord
280
     1
102
SHADEPLOT
 70
     0
102
SHADEPLOTRESLEVEL
 70
     2
102
SHADEPLOTCUSTOMDPI
 70
   300
  0
XRECORD
  5
5D5
102
{ACAD_REACTORS
330
4D3
102
}
330
4D3
100
AcDbXrecord
280
     1
102
MATERIAL
148
0.0
149
0.0
149
0.0
 93
        0
 94
      127
282
     0
 72
     0
 77
     0
171
     0
175
     0
179
     0
273
     0
  0
XRECORD
  5
4D5
102
{ACAD_REACTORS
330
4D3
102
}
330
4D3
100
AcDbXrecord
280
     1
270
     1
271
     1
  0
XRECORD
  5
4D4
102
{ACAD_REACTORS
330
4D3
102
}
330
4D3
100
AcDbXrecord
280
     1
270
     1
271
     1
  0
XRECORD
  5
4D8
102
{ACAD_REACTORS
330
4D3
102
}
330
4D3
100
AcDbXrecord
280
     1
270
     1
271
     1
  0
XRECORD
  5
4D7
102
{ACAD_REACTORS
330
4D3
102
}
330
4D3
100
AcDbXrecord
280
     1
270
     1
271
     1
  0
XRECORD
  5
4D9
102
{ACAD_REACTORS
330
4D3
102
}
330
4D3
100
AcDbXrecord
280
     1
270
     1
271
     1
  0
XRECORD
  5
4D6
102
{ACAD_REACTORS
330
4D3
102
}
330
4D3
100
AcDbXrecord
280
     1
270
     1
271
     1
  0
XRECORD
  5
5D4
102
{ACAD_REACTORS
330
4CB
102
}
330
4CB
100
AcDbXrecord
280
     1
102
MATERIAL
148
0.0
149
0.0
149
0.0
 93
        0
 94
      127
282
     0
 72
     0
 77
     0
171
     0
175
     0
179
     0
273
     0
  0
XRECORD
  5
4CD
102
{ACAD_REACTORS
330
4CB
102
}
330
4CB
100
AcDbXrecord
280
     1
270
     1
271
     1
  0
XRECORD
  5
4CC
102
{ACAD_REACTORS
330
4CB
102
}
330
4CB
100
AcDbXrecord
280
     1
270
     1
271
     1
  0
XRECORD
  5
4D0
102
{ACAD_REACTORS
330
4CB
102
}
330
4CB
100
AcDbXrecord
280
     1
270
     1
271
     1
  0
XRECORD
  5
4CF
102
{ACAD_REACTORS
330
4CB
102
}
330
4CB
100
AcDbXrecord
280
     1
270
     1
271
     1
  0
XRECORD
  5
4D1
102
{ACAD_REACTORS
330
4CB
102
}
330
4CB
100
AcDbXrecord
280
     1
270
     1
271
     1
  0
XRECORD
  5
4CE
102
{ACAD_REACTORS
330
4CB
102
}
330
4CB
100
AcDbXrecord
280
     1
270
     1
271
     1
  0
XRECORD
  5
5D6
102
{ACAD_REACTORS
330
4DB
102
}
330
4DB
100
AcDbXrecord
280
     1
102
MATERIAL
148
0.0
149
0.0
149
0.0
 93
        0
 94
      127
282
     0
 72
     0
 77
     0
171
     0
175
     0
179
     0
273
     0
  0
XRECORD
  5
4DD
102
{ACAD_REACTORS
330
4DB
102
}
330
4DB
100
AcDbXrecord
280
     1
270
     1
271
     1
  0
XRECORD
  5
4DC
102
{ACAD_REACTORS
330
4DB
102
}
330
4DB
100
AcDbXrecord
280
     1
270
     1
271
     1
  0
XRECORD
  5
4E0
102
{ACAD_REACTORS
330
4DB
102
}
330
4DB
100
AcDbXrecord
280
     1
270
     1
271
     1
  0
XRECORD
  5
4DF
102
{ACAD_REACTORS
330
4DB
102
}
330
4DB
100
AcDbXrecord
280
     1
270
     1
271
     1
  0
XRECORD
  5
4E1
102
{ACAD_REACTORS
330
4DB
102
}
330
4DB
100
AcDbXrecord
280
     1
270
     1
271
     1
  0
XRECORD
  5
4DE
102
{ACAD_REACTORS
330
4DB
102
}
330
4DB
100
AcDbXrecord
280
     1
270
     1
271
     1
  0
CELLSTYLEMAP
  5
6CC
102
{ACAD_REACTORS
330
5C1
102
}
330
5C1
100
AcDbCellStyleMap
 90
        3
300
CELLSTYLE
  1
TABLEFORMAT_BEGIN
 90
        5
170
     1
 91
        0
 92
    32768
 62
   257
 93
        1
300
CONTENTFORMAT
  1
CONTENTFORMAT_BEGIN
 90
        0
 91
        0
 92
        4
 93
        0
300

 40
0.0
140
1.0
 94
        5
 62
     0
340
11
144
6.0
309
CONTENTFORMAT_END
171
     1
301
MARGIN
  1
CELLMARGIN_BEGIN
 40
1.5
 40
1.5
 40
1.5
 40
1.5
 40
0.18
 40
0.18
309
CELLMARGIN_END
 94
        6
 95
        1
302
GRIDFORMAT
  1
GRIDFORMAT_BEGIN
 90
        0
 91
        1
 62
     0
 92
       -2
340
0
 93
        0
 40
0.045
309
GRIDFORMAT_END
 95
        2
302
GRIDFORMAT
  1
GRIDFORMAT_BEGIN
 90
        0
 91
        1
 62
     0
 92
       -2
340
0
 93
        0
 40
0.045
309
GRIDFORMAT_END
 95
        4
302
GRIDFORMAT
  1
GRIDFORMAT_BEGIN
 90
        0
 91
        1
 62
     0
 92
       -2
340
0
 93
        0
 40
0.045
309
GRIDFORMAT_END
 95
        8
302
GRIDFORMAT
  1
GRIDFORMAT_BEGIN
 90
        0
 91
        1
 62
     0
 92
       -2
340
0
 93
        0
 40
0.045
309
GRIDFORMAT_END
 95
       16
302
GRIDFORMAT
  1
GRIDFORMAT_BEGIN
 90
        0
 91
        1
 62
     0
 92
       -2
340
0
 93
        0
 40
0.045
309
GRIDFORMAT_END
 95
       32
302
GRIDFORMAT
  1
GRIDFORMAT_BEGIN
 90
        0
 91
        1
 62
     0
 92
       -2
340
0
 93
        0
 40
0.045
309
GRIDFORMAT_END
309
TABLEFORMAT_END
  1
CELLSTYLE_BEGIN
 90
        1
 91
        1
300
_TITLE
309
CELLSTYLE_END
300
CELLSTYLE
  1
TABLEFORMAT_BEGIN
 90
        5
170
     1
 91
        0
 92
        0
 62
   257
 93
        1
300
CONTENTFORMAT
  1
CONTENTFORMAT_BEGIN
 90
        0
 91
        0
 92
        4
 93
        0
300

 40
0.0
140
1.0
 94
        5
 62
     0
340
11
144
4.5
309
CONTENTFORMAT_END
171
     1
301
MARGIN
  1
CELLMARGIN_BEGIN
 40
1.5
 40
1.5
 40
1.5
 40
1.5
 40
0.18
 40
0.18
309
CELLMARGIN_END
 94
        6
 95
        1
302
GRIDFORMAT
  1
GRIDFORMAT_BEGIN
 90
        0
 91
        1
 62
     0
 92
       -2
340
0
 93
        0
 40
0.045
309
GRIDFORMAT_END
 95
        2
302
GRIDFORMAT
  1
GRIDFORMAT_BEGIN
 90
        0
 91
        1
 62
     0
 92
       -2
340
0
 93
        0
 40
0.045
309
GRIDFORMAT_END
 95
        4
302
GRIDFORMAT
  1
GRIDFORMAT_BEGIN
 90
        0
 91
        1
 62
     0
 92
       -2
340
0
 93
        0
 40
0.045
309
GRIDFORMAT_END
 95
        8
302
GRIDFORMAT
  1
GRIDFORMAT_BEGIN
 90
        0
 91
        1
 62
     0
 92
       -2
340
0
 93
        0
 40
0.045
309
GRIDFORMAT_END
 95
       16
302
GRIDFORMAT
  1
GRIDFORMAT_BEGIN
 90
        0
 91
        1
 62
     0
 92
       -2
340
0
 93
        0
 40
0.045
309
GRIDFORMAT_END
 95
       32
302
GRIDFORMAT
  1
GRIDFORMAT_BEGIN
 90
        0
 91
        1
 62
     0
 92
       -2
340
0
 93
        0
 40
0.045
309
GRIDFORMAT_END
309
TABLEFORMAT_END
  1
CELLSTYLE_BEGIN
 90
        2
 91
        1
300
_HEADER
309
CELLSTYLE_END
300
CELLSTYLE
  1
TABLEFORMAT_BEGIN
 90
        5
170
     1
 91
        0
 92
        0
 62
   257
 93
        1
300
CONTENTFORMAT
  1
CONTENTFORMAT_BEGIN
 90
        0
 91
        0
 92
        4
 93
        0
300

 40
0.0
140
1.0
 94
        2
 62
     0
340
11
144
4.5
309
CONTENTFORMAT_END
171
     1
301
MARGIN
  1
CELLMARGIN_BEGIN
 40
1.5
 40
1.5
 40
1.5
 40
1.5
 40
0.18
 40
0.18
309
CELLMARGIN_END
 94
        6
 95
        1
302
GRIDFORMAT
  1
GRIDFORMAT_BEGIN
 90
        0
 91
        1
 62
     0
 92
       -2
340
0
 93
        0
 40
0.045
309
GRIDFORMAT_END
 95
        2
302
GRIDFORMAT
  1
GRIDFORMAT_BEGIN
 90
        0
 91
        1
 62
     0
 92
       -2
340
0
 93
        0
 40
0.045
309
GRIDFORMAT_END
 95
        4
302
GRIDFORMAT
  1
GRIDFORMAT_BEGIN
 90
        0
 91
        1
 62
     0
 92
       -2
340
0
 93
        0
 40
0.045
309
GRIDFORMAT_END
 95
        8
302
GRIDFORMAT
  1
GRIDFORMAT_BEGIN
 90
        0
 91
        1
 62
     0
 92
       -2
340
0
 93
        0
 40
0.045
309
GRIDFORMAT_END
 95
       16
302
GRIDFORMAT
  1
GRIDFORMAT_BEGIN
 90
        0
 91
        1
 62
     0
 92
       -2
340
0
 93
        0
 40
0.045
309
GRIDFORMAT_END
 95
       32
302
GRIDFORMAT
  1
GRIDFORMAT_BEGIN
 90
        0
 91
        1
 62
     0
 92
       -2
340
0
 93
        0
 40
0.045
309
GRIDFORMAT_END
309
TABLEFORMAT_END
  1
CELLSTYLE_BEGIN
 90
        3
 91
        2
300
_DATA
309
CELLSTYLE_END
  0
XRECORD
  5
6DD
102
{ACAD_REACTORS
330
5C1
102
}
330
5C1
100
AcDbXrecord
280
     1
102
ACAD_ROUNDTRIP_PRE2007_TABLESTYLE
 90
        4
 91
        0
  1

 92
        4
 93
        0
  2

 94
        4
 95
        0
  3

  0
XRECORD
  5
6E9
102
{ACAD_REACTORS
330
6E8
102
}
330
6E8
100
AcDbXrecord
280
     1
102
RTVSPropertyOp0
 70
     1
102
RTVSPropertyOp1
 70
     1
102
RTVSPropertyOp2
 70
     1
102
RTVSPropertyOp3
 70
     1
102
RTVSPropertyOp4
 70
     1
102
RTVSPropertyOp5
 70
     1
102
RTVSPropertyOp6
 70
     1
102
RTVSPropertyOp7
 70
     1
102
RTVSPropertyOp8
 70
     1
102
RTVSPropertyOp9
 70
     1
102
RTVSPropertyOp10
 70
     1
102
RTVSPropertyOp11
 70
     1
102
RTVSPropertyOp12
 70
     1
102
RTVSPropertyOp13
 70
     1
102
RTVSPropertyOp14
 70
     1
102
RTVSPropertyOp15
 70
     1
102
RTVSPropertyOp16
 70
     1
102
RTVSPropertyOp17
 70
     1
102
RTVSPropertyOp18
 70
     1
102
RTVSPropertyOp19
 70
     1
102
RTVSPropertyOp20
 70
     1
102
RTVSPropertyOp21
 70
     1
102
RTVSPropertyOp22
 70
     1
102
RTVSPropertyOp23
 70
     1
102
RTVSPropertyOp24
 70
     1
102
RTVSPropertyOp25
 70
     1
102
RTVSPropertyOp26
 70
     1
102
RTVSPropertyOp27
 70
     1
  0
XRECORD
  5
6ED
102
{ACAD_REACTORS
330
6EC
102
}
330
6EC
100
AcDbXrecord
280
     1
102
RTVSPropertyOp0
 70
     1
102
RTVSPropertyOp1
 70
     1
102
RTVSPropertyOp2
 70
     1
102
RTVSPropertyOp3
 70
     1
102
RTVSPropertyOp4
 70
     1
102
RTVSPropertyOp5
 70
     1
102
RTVSPropertyOp6
 70
     1
102
RTVSPropertyOp7
 70
     1
102
RTVSPropertyOp8
 70
     1
102
RTVSPropertyOp9
 70
     1
102
RTVSPropertyOp10
 70
     1
102
RTVSPropertyOp11
 70
     1
102
RTVSPropertyOp12
 70
     1
102
RTVSPropertyOp13
 70
     1
102
RTVSPropertyOp14
 70
     1
102
RTVSPropertyOp15
 70
     1
102
RTVSPropertyOp16
 70
     1
102
RTVSPropertyOp17
 70
     1
102
RTVSPropertyOp18
 70
     1
102
RTVSPropertyOp19
 70
     1
102
RTVSPropertyOp20
 70
     1
102
RTVSPropertyOp21
 70
     1
102
RTVSPropertyOp22
 70
     1
102
RTVSPropertyOp23
 70
     1
102
RTVSPropertyOp24
 70
     1
102
RTVSPropertyOp25
 70
     1
102
RTVSPropertyOp26
 70
     1
102
RTVSPropertyOp27
 70
     1
  0
XRECORD
  5
6EB
102
{ACAD_REACTORS
330
6EA
102
}
330
6EA
100
AcDbXrecord
280
     1
102
RTVSPropertyOp0
 70
     1
102
RTVSPropertyOp1
 70
     1
102
RTVSPropertyOp2
 70
     1
102
RTVSPropertyOp3
 70
     1
102
RTVSPropertyOp4
 70
     1
102
RTVSPropertyOp5
 70
     1
102
RTVSPropertyOp6
 70
     1
102
RTVSPropertyOp7
 70
     1
102
RTVSPropertyOp8
 70
     1
102
RTVSPropertyOp9
 70
     1
102
RTVSPropertyOp10
 70
     1
102
RTVSPropertyOp11
 70
     1
102
RTVSPropertyOp12
 70
     1
102
RTVSPropertyOp13
 70
     1
102
RTVSPropertyOp14
 70
     1
102
RTVSPropertyOp15
 70
     1
102
RTVSPropertyOp16
 70
     1
102
RTVSPropertyOp17
 70
     1
102
RTVSPropertyOp18
 70
     1
102
RTVSPropertyOp19
 70
     1
102
RTVSPropertyOp20
 70
     1
102
RTVSPropertyOp21
 70
     1
102
RTVSPropertyOp22
 70
     1
102
RTVSPropertyOp23
 70
     1
102
RTVSPropertyOp24
 70
     1
102
RTVSPropertyOp25
 70
     1
102
RTVSPropertyOp26
 70
     1
102
RTVSPropertyOp27
 70
     1
  0
XRECORD
  5
6E7
102
{ACAD_REACTORS
330
6E6
102
}
330
6E6
100
AcDbXrecord
280
     1
102
RTVSPropertyOp0
 70
     1
102
RTVSPropertyOp1
 70
     1
102
RTVSPropertyOp2
 70
     1
102
RTVSPropertyOp3
 70
     1
102
RTVSPropertyOp4
 70
     1
102
RTVSPropertyOp5
 70
     1
102
RTVSPropertyOp6
 70
     1
102
RTVSPropertyOp7
 70
     1
102
RTVSPropertyOp8
 70
     1
102
RTVSPropertyOp9
 70
     1
102
RTVSPropertyOp10
 70
     1
102
RTVSPropertyOp11
 70
     1
102
RTVSPropertyOp12
 70
     1
102
RTVSPropertyOp13
 70
     1
102
RTVSPropertyOp14
 70
     1
102
RTVSPropertyOp15
 70
     1
102
RTVSPropertyOp16
 70
     1
102
RTVSPropertyOp17
 70
     1
102
RTVSPropertyOp18
 70
     1
102
RTVSPropertyOp19
 70
     1
102
RTVSPropertyOp20
 70
     1
102
RTVSPropertyOp21
 70
     1
102
RTVSPropertyOp22
 70
     1
102
RTVSPropertyOp23
 70
     1
102
RTVSPropertyOp24
 70
     1
102
RTVSPropertyOp25
 70
     1
102
RTVSPropertyOp26
 70
     1
102
RTVSPropertyOp27
 70
     1
  0
XRECORD
  5
6F5
102
{ACAD_REACTORS
330
6F4
102
}
330
6F4
100
AcDbXrecord
280
     1
102
RTVSPropertyOp0
 70
     1
102
RTVSPropertyOp1
 70
     1
102
RTVSPropertyOp2
 70
     1
102
RTVSPropertyOp3
 70
     1
102
RTVSPropertyOp4
 70
     1
102
RTVSPropertyOp5
 70
     1
102
RTVSPropertyOp6
 70
     1
102
RTVSPropertyOp7
 70
     1
102
RTVSPropertyOp8
 70
     1
102
RTVSPropertyOp9
 70
     1
102
RTVSPropertyOp10
 70
     1
102
RTVSPropertyOp11
 70
     1
102
RTVSPropertyOp12
 70
     1
102
RTVSPropertyOp13
 70
     1
102
RTVSPropertyOp14
 70
     1
102
RTVSPropertyOp15
 70
     1
102
RTVSPropertyOp16
 70
     1
102
RTVSPropertyOp17
 70
     1
102
RTVSPropertyOp18
 70
     1
102
RTVSPropertyOp19
 70
     1
102
RTVSPropertyOp20
 70
     1
102
RTVSPropertyOp21
 70
     1
102
RTVSPropertyOp22
 70
     1
102
RTVSPropertyOp23
 70
     1
102
RTVSPropertyOp24
 70
     1
102
RTVSPropertyOp25
 70
     1
102
RTVSPropertyOp26
 70
     1
102
RTVSPropertyOp27
 70
     1
  0
XRECORD
  5
6FD
102
{ACAD_REACTORS
330
6FC
102
}
330
6FC
100
AcDbXrecord
280
     1
102
RTVSPropertyOp0
 70
     1
102
RTVSPropertyOp1
 70
     1
102
RTVSPropertyOp2
 70
     1
102
RTVSPropertyOp3
 70
     1
102
RTVSPropertyOp4
 70
     1
102
RTVSPropertyOp5
 70
     1
102
RTVSPropertyOp6
 70
     1
102
RTVSPropertyOp7
 70
     1
102
RTVSPropertyOp8
 70
     1
102
RTVSPropertyOp9
 70
     1
102
RTVSPropertyOp10
 70
     1
102
RTVSPropertyOp11
 70
     1
102
RTVSPropertyOp12
 70
     1
102
RTVSPropertyOp13
 70
     1
102
RTVSPropertyOp14
 70
     1
102
RTVSPropertyOp15
 70
     1
102
RTVSPropertyOp16
 70
     1
102
RTVSPropertyOp17
 70
     1
102
RTVSPropertyOp18
 70
     1
102
RTVSPropertyOp19
 70
     1
102
RTVSPropertyOp20
 70
     1
102
RTVSPropertyOp21
 70
     1
102
RTVSPropertyOp22
 70
     1
102
RTVSPropertyOp23
 70
     1
102
RTVSPropertyOp24
 70
     1
102
RTVSPropertyOp25
 70
     1
102
RTVSPropertyOp26
 70
     1
102
RTVSPropertyOp27
 70
     1
  0
XRECORD
  5
6EF
102
{ACAD_REACTORS
330
6EE
102
}
330
6EE
100
AcDbXrecord
280
     1
102
RTVSPropertyOp0
 70
     1
102
RTVSPropertyOp1
 70
     1
102
RTVSPropertyOp2
 70
     1
102
RTVSPropertyOp3
 70
     1
102
RTVSPropertyOp4
 70
     1
102
RTVSPropertyOp5
 70
     1
102
RTVSPropertyOp6
 70
     1
102
RTVSPropertyOp7
 70
     1
102
RTVSPropertyOp8
 70
     1
102
RTVSPropertyOp9
 70
     1
102
RTVSPropertyOp10
 70
     1
102
RTVSPropertyOp11
 70
     1
102
RTVSPropertyOp12
 70
     1
102
RTVSPropertyOp13
 70
     1
102
RTVSPropertyOp14
 70
     1
102
RTVSPropertyOp15
 70
     1
102
RTVSPropertyOp16
 70
     1
102
RTVSPropertyOp17
 70
     1
102
RTVSPropertyOp18
 70
     1
102
RTVSPropertyOp19
 70
     1
102
RTVSPropertyOp20
 70
     1
102
RTVSPropertyOp21
 70
     1
102
RTVSPropertyOp22
 70
     1
102
RTVSPropertyOp23
 70
     1
102
RTVSPropertyOp24
 70
     1
102
RTVSPropertyOp25
 70
     1
102
RTVSPropertyOp26
 70
     1
102
RTVSPropertyOp27
 70
     1
  0
XRECORD
  5
6F3
102
{ACAD_REACTORS
330
6F2
102
}
330
6F2
100
AcDbXrecord
280
     1
102
RTVSPropertyOp0
 70
     1
102
RTVSPropertyOp1
 70
     1
102
RTVSPropertyOp2
 70
     1
102
RTVSPropertyOp3
 70
     1
102
RTVSPropertyOp4
 70
     1
102
RTVSPropertyOp5
 70
     1
102
RTVSPropertyOp6
 70
     1
102
RTVSPropertyOp7
 70
     1
102
RTVSPropertyOp8
 70
     1
102
RTVSPropertyOp9
 70
     1
102
RTVSPropertyOp10
 70
     1
102
RTVSPropertyOp11
 70
     1
102
RTVSPropertyOp12
 70
     1
102
RTVSPropertyOp13
 70
     1
102
RTVSPropertyOp14
 70
     1
102
RTVSPropertyOp15
 70
     1
102
RTVSPropertyOp16
 70
     1
102
RTVSPropertyOp17
 70
     1
102
RTVSPropertyOp18
 70
     1
102
RTVSPropertyOp19
 70
     1
102
RTVSPropertyOp20
 70
     1
102
RTVSPropertyOp21
 70
     1
102
RTVSPropertyOp22
 70
     1
102
RTVSPropertyOp23
 70
     1
102
RTVSPropertyOp24
 70
     1
102
RTVSPropertyOp25
 70
     1
102
RTVSPropertyOp26
 70
     1
102
RTVSPropertyOp27
 70
     1
  0
XRECORD
  5
703
102
{ACAD_REACTORS
330
702
102
}
330
702
100
AcDbXrecord
280
     1
102
RTVSPropertyOp0
 70
     0
102
RTVSPropertyOp1
 70
     0
102
RTVSPropertyOp2
 70
     0
102
RTVSPropertyOp3
 70
     0
102
RTVSPropertyOp4
 70
     0
102
RTVSPropertyOp5
 70
     0
102
RTVSPropertyOp6
 70
     0
102
RTVSPropertyOp7
 70
     0
102
RTVSPropertyOp8
 70
     0
102
RTVSPropertyOp9
 70
     0
102
RTVSPropertyOp10
 70
     0
102
RTVSPropertyOp11
 70
     0
102
RTVSPropertyOp12
 70
     0
102
RTVSPropertyOp13
 70
     0
102
RTVSPropertyOp14
 70
     2
102
RTVSPropertyOp15
 70
     0
102
RTVSPropertyOp16
 70
     0
102
RTVSPropertyOp17
 70
     0
102
RTVSPropertyOp18
 70
     0
102
RTVSPropertyOp19
 70
     0
102
RTVSPropertyOp20
 70
     0
102
RTVSPropertyOp21
 70
     0
102
RTVSPropertyOp22
 70
     0
102
RTVSPropertyOp23
 70
     0
102
RTVSPropertyOp24
 70
     0
102
RTVSPropertyOp25
 70
     0
102
RTVSPropertyOp26
 70
     0
102
RTVSPropertyOp27
 70
     0
  0
XRECORD
  5
6FB
102
{ACAD_REACTORS
330
6FA
102
}
330
6FA
100
AcDbXrecord
280
     1
102
RTVSPropertyOp0
 70
     1
102
RTVSPropertyOp1
 70
     1
102
RTVSPropertyOp2
 70
     1
102
RTVSPropertyOp3
 70
     1
102
RTVSPropertyOp4
 70
     1
102
RTVSPropertyOp5
 70
     1
102
RTVSPropertyOp6
 70
     1
102
RTVSPropertyOp7
 70
     1
102
RTVSPropertyOp8
 70
     1
102
RTVSPropertyOp9
 70
     1
102
RTVSPropertyOp10
 70
     1
102
RTVSPropertyOp11
 70
     1
102
RTVSPropertyOp12
 70
     1
102
RTVSPropertyOp13
 70
     1
102
RTVSPropertyOp14
 70
     1
102
RTVSPropertyOp15
 70
     1
102
RTVSPropertyOp16
 70
     1
102
RTVSPropertyOp17
 70
     1
102
RTVSPropertyOp18
 70
     1
102
RTVSPropertyOp19
 70
     1
102
RTVSPropertyOp20
 70
     1
102
RTVSPropertyOp21
 70
     1
102
RTVSPropertyOp22
 70
     1
102
RTVSPropertyOp23
 70
     1
102
RTVSPropertyOp24
 70
     1
102
RTVSPropertyOp25
 70
     1
102
RTVSPropertyOp26
 70
     1
102
RTVSPropertyOp27
 70
     1
  0
XRECORD
  5
6DF
102
{ACAD_REACTORS
330
6DE
102
}
330
6DE
100
AcDbXrecord
280
     1
102
RTVSPropertyOp0
 70
     1
102
RTVSPropertyOp1
 70
     1
102
RTVSPropertyOp2
 70
     1
102
RTVSPropertyOp3
 70
     1
102
RTVSPropertyOp4
 70
     1
102
RTVSPropertyOp5
 70
     1
102
RTVSPropertyOp6
 70
     1
102
RTVSPropertyOp7
 70
     1
102
RTVSPropertyOp8
 70
     1
102
RTVSPropertyOp9
 70
     1
102
RTVSPropertyOp10
 70
     1
102
RTVSPropertyOp11
 70
     1
102
RTVSPropertyOp12
 70
     1
102
RTVSPropertyOp13
 70
     1
102
RTVSPropertyOp14
 70
     1
102
RTVSPropertyOp15
 70
     1
102
RTVSPropertyOp16
 70
     1
102
RTVSPropertyOp17
 70
     1
102
RTVSPropertyOp18
 70
     1
102
RTVSPropertyOp19
 70
     1
102
RTVSPropertyOp20
 70
     1
102
RTVSPropertyOp21
 70
     1
102
RTVSPropertyOp22
 70
     1
102
RTVSPropertyOp23
 70
     1
102
RTVSPropertyOp24
 70
     1
102
RTVSPropertyOp25
 70
     1
102
RTVSPropertyOp26
 70
     1
102
RTVSPropertyOp27
 70
     1
  0
XRECORD
  5
6E1
102
{ACAD_REACTORS
330
6E0
102
}
330
6E0
100
AcDbXrecord
280
     1
102
RTVSPropertyOp0
 70
     1
102
RTVSPropertyOp1
 70
     1
102
RTVSPropertyOp2
 70
     1
102
RTVSPropertyOp3
 70
     1
102
RTVSPropertyOp4
 70
     1
102
RTVSPropertyOp5
 70
     1
102
RTVSPropertyOp6
 70
     1
102
RTVSPropertyOp7
 70
     1
102
RTVSPropertyOp8
 70
     1
102
RTVSPropertyOp9
 70
     1
102
RTVSPropertyOp10
 70
     1
102
RTVSPropertyOp11
 70
     1
102
RTVSPropertyOp12
 70
     1
102
RTVSPropertyOp13
 70
     1
102
RTVSPropertyOp14
 70
     1
102
RTVSPropertyOp15
 70
     1
102
RTVSPropertyOp16
 70
     1
102
RTVSPropertyOp17
 70
     1
102
RTVSPropertyOp18
 70
     1
102
RTVSPropertyOp19
 70
     1
102
RTVSPropertyOp20
 70
     1
102
RTVSPropertyOp21
 70
     1
102
RTVSPropertyOp22
 70
     1
102
RTVSPropertyOp23
 70
     1
102
RTVSPropertyOp24
 70
     1
102
RTVSPropertyOp25
 70
     1
102
RTVSPropertyOp26
 70
     1
102
RTVSPropertyOp27
 70
     1
  0
XRECORD
  5
6E3
102
{ACAD_REACTORS
330
6E2
102
}
330
6E2
100
AcDbXrecord
280
     1
102
RTVSPropertyOp0
 70
     1
102
RTVSPropertyOp1
 70
     1
102
RTVSPropertyOp2
 70
     1
102
RTVSPropertyOp3
 70
     1
102
RTVSPropertyOp4
 70
     1
102
RTVSPropertyOp5
 70
     1
102
RTVSPropertyOp6
 70
     1
102
RTVSPropertyOp7
 70
     1
102
RTVSPropertyOp8
 70
     1
102
RTVSPropertyOp9
 70
     1
102
RTVSPropertyOp10
 70
     1
102
RTVSPropertyOp11
 70
     1
102
RTVSPropertyOp12
 70
     1
102
RTVSPropertyOp13
 70
     1
102
RTVSPropertyOp14
 70
     1
102
RTVSPropertyOp15
 70
     1
102
RTVSPropertyOp16
 70
     1
102
RTVSPropertyOp17
 70
     1
102
RTVSPropertyOp18
 70
     1
102
RTVSPropertyOp19
 70
     1
102
RTVSPropertyOp20
 70
     1
102
RTVSPropertyOp21
 70
     1
102
RTVSPropertyOp22
 70
     1
102
RTVSPropertyOp23
 70
     1
102
RTVSPropertyOp24
 70
     1
102
RTVSPropertyOp25
 70
     1
102
RTVSPropertyOp26
 70
     1
102
RTVSPropertyOp27
 70
     1
  0
XRECORD
  5
6E5
102
{ACAD_REACTORS
330
6E4
102
}
330
6E4
100
AcDbXrecord
280
     1
102
RTVSPropertyOp0
 70
     1
102
RTVSPropertyOp1
 70
     1
102
RTVSPropertyOp2
 70
     1
102
RTVSPropertyOp3
 70
     1
102
RTVSPropertyOp4
 70
     1
102
RTVSPropertyOp5
 70
     1
102
RTVSPropertyOp6
 70
     1
102
RTVSPropertyOp7
 70
     1
102
RTVSPropertyOp8
 70
     1
102
RTVSPropertyOp9
 70
     1
102
RTVSPropertyOp10
 70
     1
102
RTVSPropertyOp11
 70
     1
102
RTVSPropertyOp12
 70
     1
102
RTVSPropertyOp13
 70
     1
102
RTVSPropertyOp14
 70
     1
102
RTVSPropertyOp15
 70
     1
102
RTVSPropertyOp16
 70
     1
102
RTVSPropertyOp17
 70
     1
102
RTVSPropertyOp18
 70
     1
102
RTVSPropertyOp19
 70
     1
102
RTVSPropertyOp20
 70
     1
102
RTVSPropertyOp21
 70
     1
102
RTVSPropertyOp22
 70
     1
102
RTVSPropertyOp23
 70
     1
102
RTVSPropertyOp24
 70
     1
102
RTVSPropertyOp25
 70
     1
102
RTVSPropertyOp26
 70
     1
102
RTVSPropertyOp27
 70
     1
  0
XRECORD
  5
6FF
102
{ACAD_REACTORS
330
6FE
102
}
330
6FE
100
AcDbXrecord
280
     1
102
RTVSPropertyOp0
 70
     0
102
RTVSPropertyOp1
 70
     0
102
RTVSPropertyOp2
 70
     0
102
RTVSPropertyOp3
 70
     0
102
RTVSPropertyOp4
 70
     0
102
RTVSPropertyOp5
 70
     0
102
RTVSPropertyOp6
 70
     0
102
RTVSPropertyOp7
 70
     0
102
RTVSPropertyOp8
 70
     0
102
RTVSPropertyOp9
 70
     0
102
RTVSPropertyOp10
 70
     0
102
RTVSPropertyOp11
 70
     0
102
RTVSPropertyOp12
 70
     0
102
RTVSPropertyOp13
 70
     0
102
RTVSPropertyOp14
 70
     2
102
RTVSPropertyOp15
 70
     0
102
RTVSPropertyOp16
 70
     0
102
RTVSPropertyOp17
 70
     0
102
RTVSPropertyOp18
 70
     0
102
RTVSPropertyOp19
 70
     0
102
RTVSPropertyOp20
 70
     0
102
RTVSPropertyOp21
 70
     0
102
RTVSPropertyOp22
 70
     0
102
RTVSPropertyOp23
 70
     0
102
RTVSPropertyOp24
 70
     0
102
RTVSPropertyOp25
 70
     0
102
RTVSPropertyOp26
 70
     0
102
RTVSPropertyOp27
 70
     0
  0
XRECORD
  5
6F9
102
{ACAD_REACTORS
330
6F8
102
}
330
6F8
100
AcDbXrecord
280
     1
102
RTVSPropertyOp0
 70
     1
102
RTVSPropertyOp1
 70
     1
102
RTVSPropertyOp2
 70
     1
102
RTVSPropertyOp3
 70
     1
102
RTVSPropertyOp4
 70
     1
102
RTVSPropertyOp5
 70
     1
102
RTVSPropertyOp6
 70
     1
102
RTVSPropertyOp7
 70
     1
102
RTVSPropertyOp8
 70
     1
102
RTVSPropertyOp9
 70
     1
102
RTVSPropertyOp10
 70
     1
102
RTVSPropertyOp11
 70
     1
102
RTVSPropertyOp12
 70
     1
102
RTVSPropertyOp13
 70
     1
102
RTVSPropertyOp14
 70
     1
102
RTVSPropertyOp15
 70
     1
102
RTVSPropertyOp16
 70
     1
102
RTVSPropertyOp17
 70
     1
102
RTVSPropertyOp18
 70
     1
102
RTVSPropertyOp19
 70
     1
102
RTVSPropertyOp20
 70
     1
102
RTVSPropertyOp21
 70
     1
102
RTVSPropertyOp22
 70
     1
102
RTVSPropertyOp23
 70
     1
102
RTVSPropertyOp24
 70
     1
102
RTVSPropertyOp25
 70
     1
102
RTVSPropertyOp26
 70
     1
102
RTVSPropertyOp27
 70
     1
  0
XRECORD
  5
701
102
{ACAD_REACTORS
330
700
102
}
330
700
100
AcDbXrecord
280
     1
102
RTVSPropertyOp0
 70
     0
102
RTVSPropertyOp1
 70
     0
102
RTVSPropertyOp2
 70
     0
102
RTVSPropertyOp3
 70
     0
102
RTVSPropertyOp4
 70
     0
102
RTVSPropertyOp5
 70
     0
102
RTVSPropertyOp6
 70
     0
102
RTVSPropertyOp7
 70
     0
102
RTVSPropertyOp8
 70
     0
102
RTVSPropertyOp9
 70
     0
102
RTVSPropertyOp10
 70
     0
102
RTVSPropertyOp11
 70
     0
102
RTVSPropertyOp12
 70
     0
102
RTVSPropertyOp13
 70
     0
102
RTVSPropertyOp14
 70
     2
102
RTVSPropertyOp15
 70
     0
102
RTVSPropertyOp16
 70
     0
102
RTVSPropertyOp17
 70
     0
102
RTVSPropertyOp18
 70
     0
102
RTVSPropertyOp19
 70
     0
102
RTVSPropertyOp20
 70
     0
102
RTVSPropertyOp21
 70
     0
102
RTVSPropertyOp22
 70
     0
102
RTVSPropertyOp23
 70
     0
102
RTVSPropertyOp24
 70
     0
102
RTVSPropertyOp25
 70
     0
102
RTVSPropertyOp26
 70
     0
102
RTVSPropertyOp27
 70
     0
  0
XRECORD
  5
6F1
102
{ACAD_REACTORS
330
6F0
102
}
330
6F0
100
AcDbXrecord
280
     1
102
RTVSPropertyOp0
 70
     1
102
RTVSPropertyOp1
 70
     1
102
RTVSPropertyOp2
 70
     1
102
RTVSPropertyOp3
 70
     1
102
RTVSPropertyOp4
 70
     1
102
RTVSPropertyOp5
 70
     1
102
RTVSPropertyOp6
 70
     1
102
RTVSPropertyOp7
 70
     1
102
RTVSPropertyOp8
 70
     1
102
RTVSPropertyOp9
 70
     1
102
RTVSPropertyOp10
 70
     1
102
RTVSPropertyOp11
 70
     1
102
RTVSPropertyOp12
 70
     1
102
RTVSPropertyOp13
 70
     1
102
RTVSPropertyOp14
 70
     1
102
RTVSPropertyOp15
 70
     1
102
RTVSPropertyOp16
 70
     1
102
RTVSPropertyOp17
 70
     1
102
RTVSPropertyOp18
 70
     1
102
RTVSPropertyOp19
 70
     1
102
RTVSPropertyOp20
 70
     1
102
RTVSPropertyOp21
 70
     1
102
RTVSPropertyOp22
 70
     1
102
RTVSPropertyOp23
 70
     1
102
RTVSPropertyOp24
 70
     1
102
RTVSPropertyOp25
 70
     1
102
RTVSPropertyOp26
 70
     1
102
RTVSPropertyOp27
 70
     1
  0
XRECORD
  5
6F7
102
{ACAD_REACTORS
330
6F6
102
}
330
6F6
100
AcDbXrecord
280
     1
102
RTVSPropertyOp0
 70
     1
102
RTVSPropertyOp1
 70
     1
102
RTVSPropertyOp2
 70
     1
102
RTVSPropertyOp3
 70
     1
102
RTVSPropertyOp4
 70
     1
102
RTVSPropertyOp5
 70
     1
102
RTVSPropertyOp6
 70
     1
102
RTVSPropertyOp7
 70
     1
102
RTVSPropertyOp8
 70
     1
102
RTVSPropertyOp9
 70
     1
102
RTVSPropertyOp10
 70
     1
102
RTVSPropertyOp11
 70
     1
102
RTVSPropertyOp12
 70
     1
102
RTVSPropertyOp13
 70
     1
102
RTVSPropertyOp14
 70
     1
102
RTVSPropertyOp15
 70
     1
102
RTVSPropertyOp16
 70
     1
102
RTVSPropertyOp17
 70
     1
102
RTVSPropertyOp18
 70
     1
102
RTVSPropertyOp19
 70
     1
102
RTVSPropertyOp20
 70
     1
102
RTVSPropertyOp21
 70
     1
102
RTVSPropertyOp22
 70
     1
102
RTVSPropertyOp23
 70
     1
102
RTVSPropertyOp24
 70
     1
102
RTVSPropertyOp25
 70
     1
102
RTVSPropertyOp26
 70
     1
102
RTVSPropertyOp27
 70
     1
  0
ENDSEC
  0
EOF
