  0
SECTION
  2
HEADER
  9
$ACADVER
  1
AC1015
  9
$ACADMAINTVER
 70
    10
  9
$DWGCODEPAGE
  3
ANSI_932
  9
$INSBASE
 10
0.0
 20
0.0
 30
0.0
  9
$EXTMIN
 10
-10.77941797997266
 20
-14.79132438214764
 30
-0.0000000000000058
  9
$EXTMAX
 10
194.3627936839625
 20
260.4292931703041
 30
0.0000000000000104
  9
$LIMMIN
 10
0.0
 20
0.0
  9
$LIMMAX
 10
420.0
 20
297.0
  9
$ORTHOMODE
 70
     0
  9
$REGENMODE
 70
     1
  9
$FILLMODE
 70
     1
  9
$QTEXTMODE
 70
     0
  9
$MIRRTEXT
 70
     1
  9
$LTSCALE
 40
1.0
  9
$ATTMODE
 70
     1
  9
$TEXTSIZE
 40
2.5
  9
$TRACEWID
 40
1.0
  9
$TEXTSTYLE
  7
Standard
  9
$CLAYER
  8
0
  9
$CELTYPE
  6
ByLayer
  9
$CECOLOR
 62
   256
  9
$CELTSCALE
 40
1.0
  9
$DISPSILH
 70
     0
  9
$DIMSCALE
 40
1.0
  9
$DIMASZ
 40
2.5
  9
$DIMEXO
 40
0.625
  9
$DIMDLI
 40
3.75
  9
$DIMRND
 40
0.0
  9
$DIMDLE
 40
0.0
  9
$DIMEXE
 40
1.25
  9
$DIMTP
 40
0.0
  9
$DIMTM
 40
0.0
  9
$DIMTXT
 40
2.5
  9
$DIMCEN
 40
2.5
  9
$DIMTSZ
 40
0.0
  9
$DIMTOL
 70
     0
  9
$DIMLIM
 70
     0
  9
$DIMTIH
 70
     0
  9
$DIMTOH
 70
     0
  9
$DIMSE1
 70
     0
  9
$DIMSE2
 70
     0
  9
$DIMTAD
 70
     1
  9
$DIMZIN
 70
     8
  9
$DIMBLK
  1

  9
$DIMASO
 70
     1
  9
$DIMSHO
 70
     1
  9
$DIMPOST
  1

  9
$DIMAPOST
  1

  9
$DIMALT
 70
     0
  9
$DIMALTD
 70
     3
  9
$DIMALTF
 40
0.03937007874016
  9
$DIMLFAC
 40
1.0
  9
$DIMTOFL
 70
     1
  9
$DIMTVP
 40
0.0
  9
$DIMTIX
 70
     0
  9
$DIMSOXD
 70
     0
  9
$DIMSAH
 70
     0
  9
$DIMBLK1
  1

  9
$DIMBLK2
  1

  9
$DIMSTYLE
  2
ISO-25
  9
$DIMCLRD
 70
     0
  9
$DIMCLRE
 70
     0
  9
$DIMCLRT
 70
     0
  9
$DIMTFAC
 40
1.0
  9
$DIMGAP
 40
0.625
  9
$DIMJUST
 70
     0
  9
$DIMSD1
 70
     0
  9
$DIMSD2
 70
     0
  9
$DIMTOLJ
 70
     0
  9
$DIMTZIN
 70
     8
  9
$DIMALTZ
 70
     0
  9
$DIMALTTZ
 70
     0
  9
$DIMUPT
 70
     0
  9
$DIMDEC
 70
     2
  9
$DIMTDEC
 70
     2
  9
$DIMALTU
 70
     2
  9
$DIMALTTD
 70
     3
  9
$DIMTXSTY
  7
Standard
  9
$DIMAUNIT
 70
     0
  9
$DIMADEC
 70
     0
  9
$DIMALTRND
 40
0.0
  9
$DIMAZIN
 70
     0
  9
$DIMDSEP
 70
    44
  9
$DIMATFIT
 70
     3
  9
$DIMFRAC
 70
     0
  9
$DIMLDRBLK
  1

  9
$DIMLUNIT
 70
     2
  9
$DIMLWD
 70
    -2
  9
$DIMLWE
 70
    -2
  9
$DIMTMOVE
 70
     0
  9
$LUNITS
 70
     2
  9
$LUPREC
 70
     4
  9
$SKETCHINC
 40
1.0
  9
$FILLETRAD
 40
10.0
  9
$AUNITS
 70
     0
  9
$AUPREC
 70
     0
  9
$MENU
  1
.
  9
$ELEVATION
 40
0.0
  9
$PELEVATION
 40
0.0
  9
$THICKNESS
 40
0.0
  9
$LIMCHECK
 70
     0
  9
$CHAMFERA
 40
10.0
  9
$CHAMFERB
 40
10.0
  9
$CHAMFERC
 40
20.0
  9
$CHAMFERD
 40
0.0
  9
$SKPOLY
 70
     0
  9
$TDCREATE
 40
2453249.552889895
  9
$TDUCREATE
 40
2453249.177889895
  9
$TDUPDATE
 40
2454882.622093090
  9
$TDUUPDATE
 40
2454882.247093090
  9
$TDINDWG
 40
0.0225547917
  9
$TDUSRTIMER
 40
0.0225542477
  9
$USRTIMER
 70
     1
  9
$ANGBASE
 50
0.0
  9
$ANGDIR
 70
     0
  9
$PDMODE
 70
     0
  9
$PDSIZE
 40
0.0
  9
$PLINEWID
 40
0.0
  9
$SPLFRAME
 70
     0
  9
$SPLINETYPE
 70
     6
  9
$SPLINESEGS
 70
     8
  9
$HANDSEED
  5
1B5
  9
$SURFTAB1
 70
     6
  9
$SURFTAB2
 70
     6
  9
$SURFTYPE
 70
     6
  9
$SURFU
 70
     6
  9
$SURFV
 70
     6
  9
$UCSBASE
  2

  9
$UCSNAME
  2

  9
$UCSORG
 10
0.0
 20
0.0
 30
0.0
  9
$UCSXDIR
 10
1.0
 20
0.0
 30
0.0
  9
$UCSYDIR
 10
0.0
 20
1.0
 30
0.0
  9
$UCSORTHOREF
  2

  9
$UCSORTHOVIEW
 70
     0
  9
$UCSORGTOP
 10
0.0
 20
0.0
 30
0.0
  9
$UCSORGBOTTOM
 10
0.0
 20
0.0
 30
0.0
  9
$UCSORGLEFT
 10
0.0
 20
0.0
 30
0.0
  9
$UCSORGRIGHT
 10
0.0
 20
0.0
 30
0.0
  9
$UCSORGFRONT
 10
0.0
 20
0.0
 30
0.0
  9
$UCSORGBACK
 10
0.0
 20
0.0
 30
0.0
  9
$PUCSBASE
  2

  9
$PUCSNAME
  2

  9
$PUCSORG
 10
0.0
 20
0.0
 30
0.0
  9
$PUCSXDIR
 10
1.0
 20
0.0
 30
0.0
  9
$PUCSYDIR
 10
0.0
 20
1.0
 30
0.0
  9
$PUCSORTHOREF
  2

  9
$PUCSORTHOVIEW
 70
     0
  9
$PUCSORGTOP
 10
0.0
 20
0.0
 30
0.0
  9
$PUCSORGBOTTOM
 10
0.0
 20
0.0
 30
0.0
  9
$PUCSORGLEFT
 10
0.0
 20
0.0
 30
0.0
  9
$PUCSORGRIGHT
 10
0.0
 20
0.0
 30
0.0
  9
$PUCSORGFRONT
 10
0.0
 20
0.0
 30
0.0
  9
$PUCSORGBACK
 10
0.0
 20
0.0
 30
0.0
  9
$USERI1
 70
     0
  9
$USERI2
 70
     0
  9
$USERI3
 70
     0
  9
$USERI4
 70
     0
  9
$USERI5
 70
     0
  9
$USERR1
 40
0.0
  9
$USERR2
 40
0.0
  9
$USERR3
 40
0.0
  9
$USERR4
 40
0.0
  9
$USERR5
 40
0.0
  9
$WORLDVIEW
 70
     1
  9
$SHADEDGE
 70
     3
  9
$SHADEDIF
 70
    70
  9
$TILEMODE
 70
     1
  9
$MAXACTVP
 70
    64
  9
$PINSBASE
 10
0.0
 20
0.0
 30
0.0
  9
$PLIMCHECK
 70
     0
  9
$PEXTMIN
 10
26.66076962115562
 20
20.31135699206657
 30
-0.0015258207003583
  9
$PEXTMAX
 10
240.039213369355
 20
182.8886381005154
 30
0.0000000349246037
  9
$PLIMMIN
 10
-6.350006103515625
 20
-6.349999904632567
  9
$PLIMMAX
 10
273.0499877929687
 20
209.5499939918517
  9
$UNITMODE
 70
     0
  9
$VISRETAIN
 70
     1
  9
$PLINEGEN
 70
     0
  9
$PSLTSCALE
 70
     1
  9
$TREEDEPTH
 70
  3020
  9
$CMLSTYLE
  2
Standard
  9
$CMLJUST
 70
     0
  9
$CMLSCALE
 40
20.0
  9
$PROXYGRAPHICS
 70
     1
  9
$MEASUREMENT
 70
     1
  9
$CELWEIGHT
370
    -1
  9
$ENDCAPS
280
     0
  9
$JOINSTYLE
280
     0
  9
$LWDISPLAY
290
     0
  9
$INSUNITS
 70
     4
  9
$HYPERLINKBASE
  1

  9
$STYLESHEET
  1

  9
$XEDIT
290
     1
  9
$CEPSNTYPE
380
     0
  9
$PSTYLEMODE
290
     1
  9
$FINGERPRINTGUID
  2
{FDEAD578-A652-11D2-9A35-0060089B3A3F}
  9
$VERSIONGUID
  2
{5E2EF885-C857-4879-9D65-546C1AB922D2}
  9
$EXTNAMES
290
     1
  9
$PSVPSCALE
 40
0.0
  9
$OLESTARTUP
290
     0
  0
ENDSEC
  0
SECTION
  2
CLASSES
  0
CLASS
  1
ACDBDICTIONARYWDFLT
  2
AcDbDictionaryWithDefault
  3
AutoCAD 2000
 90
        0
280
     0
281
     0
  0
CLASS
  1
ACDBPLACEHOLDER
  2
AcDbPlaceHolder
  3
AutoCAD 2000
 90
        0
280
     0
281
     0
  0
CLASS
  1
LAYOUT
  2
AcDbLayout
  3
AutoCAD 2000
 90
        0
280
     0
281
     0
  0
CLASS
  1
DICTIONARYVAR
  2
AcDbDictionaryVar
  3
AutoCAD 2000
 90
        0
280
     0
281
     0
  0
ENDSEC
  0
SECTION
  2
TABLES
  0
TABLE
  2
VPORT
  5
8
330
0
100
AcDbSymbolTable
 70
     2
  0
VPORT
  5
193
330
8
100
AcDbSymbolTableRecord
100
AcDbViewportTableRecord
  2
*Active
 70
     0
 10
0.0
 20
0.0
 11
1.0
 21
1.0
 12
91.79168785199491
 22
122.8189843940782
 13
0.0
 23
0.0
 14
10.0
 24
10.0
 15
10.0
 25
10.0
 16
0.0
 26
0.0
 36
1.0
 17
0.0
 27
0.0
 37
0.0
 40
277.3934119015501
 41
1.2832674571805
 42
50.0
 43
0.0
 44
0.0
 50
0.0
 51
0.0
 71
     0
 72
   100
 73
     1
 74
     3
 75
     0
 76
     0
 77
     0
 78
     0
281
     0
 65
     1
110
0.0
120
0.0
130
0.0
111
1.0
121
0.0
131
0.0
112
0.0
122
1.0
132
0.0
 79
     0
146
0.0
  0
ENDTAB
  0
TABLE
  2
LTYPE
  5
5
330
0
100
AcDbSymbolTable
 70
     1
  0
LTYPE
  5
14
330
5
100
AcDbSymbolTableRecord
100
AcDbLinetypeTableRecord
  2
ByBlock
 70
     0
  3

 72
    65
 73
     0
 40
0.0
  0
LTYPE
  5
15
330
5
100
AcDbSymbolTableRecord
100
AcDbLinetypeTableRecord
  2
ByLayer
 70
     0
  3

 72
    65
 73
     0
 40
0.0
  0
LTYPE
  5
16
330
5
100
AcDbSymbolTableRecord
100
AcDbLinetypeTableRecord
  2
Continuous
 70
     0
  3
Solid line
 72
    65
 73
     0
 40
0.0
  0
ENDTAB
  0
TABLE
  2
LAYER
  5
2
330
0
100
AcDbSymbolTable
 70
     6
  0
LAYER
  5
10
330
2
100
AcDbSymbolTableRecord
100
AcDbLayerTableRecord
  2
0
 70
     0
 62
     7
  6
Continuous
370
    -3
390
F
  0
LAYER
  5
86
330
2
100
AcDbSymbolTableRecord
100
AcDbLayerTableRecord
  2
レイヤー_5
 70
     0
 62
     2
  6
Continuous
370
    -3
390
F
  0
LAYER
  5
87
330
2
100
AcDbSymbolTableRecord
100
AcDbLayerTableRecord
  2
VPORT-BORDERS
 70
     0
 62
     5
  6
Continuous
370
    -3
390
F
  0
LAYER
  5
BC
330
2
100
AcDbSymbolTableRecord
100
AcDbLayerTableRecord
  2
23
 70
     0
 62
     3
  6
Continuous
370
    -3
390
F
  0
LAYER
  5
BD
330
2
100
AcDbSymbolTableRecord
100
AcDbLayerTableRecord
  2
24
 70
     0
 62
     1
  6
Continuous
370
    -3
390
F
  0
LAYER
  5
BE
330
2
100
AcDbSymbolTableRecord
100
AcDbLayerTableRecord
  2
200
 70
     0
 62
     1
  6
Continuous
370
    -3
390
F
  0
ENDTAB
  0
TABLE
  2
STYLE
  5
3
330
0
100
AcDbSymbolTable
 70
     2
  0
STYLE
  5
11
330
3
100
AcDbSymbolTableRecord
100
AcDbTextStyleTableRecord
  2
Standard
 70
     0
 40
0.0
 41
1.0
 50
0.0
 71
     0
 42
2.5
  3
txt
  4

  0
STYLE
  5
88
330
3
100
AcDbSymbolTableRecord
100
AcDbTextStyleTableRecord
  2
STD
 70
     0
 40
0.0
 41
1.0
 50
0.0
 71
     0
 42
0.0
  3
txt
  4

  0
ENDTAB
  0
TABLE
  2
VIEW
  5
6
330
0
100
AcDbSymbolTable
 70
     0
  0
ENDTAB
  0
TABLE
  2
UCS
  5
7
330
0
100
AcDbSymbolTable
 70
     0
  0
ENDTAB
  0
TABLE
  2
APPID
  5
9
330
0
100
AcDbSymbolTable
 70
     1
  0
APPID
  5
12
330
9
100
AcDbSymbolTableRecord
100
AcDbRegAppTableRecord
  2
ACAD
 70
     0
  0
ENDTAB
  0
TABLE
  2
DIMSTYLE
  5
A
330
0
100
AcDbSymbolTable
 70
     2
100
AcDbDimStyleTable
 71
     0
  0
DIMSTYLE
105
27
330
A
100
AcDbSymbolTableRecord
100
AcDbDimStyleTableRecord
  2
ISO-25
 70
     0
 41
2.5
 42
0.625
 43
3.75
 44
1.25
 73
     0
 74
     0
 77
     1
 78
     8
140
2.5
141
2.5
143
0.03937007874016
147
0.625
171
     3
172
     1
271
     2
272
     2
274
     3
278
    44
283
     0
284
     8
340
11
  0
DIMSTYLE
105
89
330
A
100
AcDbSymbolTableRecord
100
AcDbDimStyleTableRecord
  2
Standard
 70
     0
340
11
  0
ENDTAB
  0
TABLE
  2
BLOCK_RECORD
  5
1
330
0
100
AcDbSymbolTable
 70
     3
  0
BLOCK_RECORD
  5
1F
330
1
100
AcDbSymbolTableRecord
100
AcDbBlockTableRecord
  2
*Model_Space
340
22
  0
BLOCK_RECORD
  5
55
330
1
100
AcDbSymbolTableRecord
100
AcDbBlockTableRecord
  2
*Paper_Space
340
56
  0
BLOCK_RECORD
  5
50
330
1
100
AcDbSymbolTableRecord
100
AcDbBlockTableRecord
  2
*Paper_Space0
340
51
  0
BLOCK_RECORD
  5
BF
330
1
100
AcDbSymbolTableRecord
100
AcDbBlockTableRecord
  2
A$C20C44C32
340
0
102
{BLKREFS
331
146
102
}
  0
ENDTAB
  0
ENDSEC
  0
SECTION
  2
BLOCKS
  0
BLOCK
  5
20
330
1F
100
AcDbEntity
  8
0
100
AcDbBlockBegin
  2
*Model_Space
 70
     0
 10
0.0
 20
0.0
 30
0.0
  3
*Model_Space
  1

  0
ENDBLK
  5
21
330
1F
100
AcDbEntity
  8
0
100
AcDbBlockEnd
  0
BLOCK
  5
57
330
55
100
AcDbEntity
 67
     1
  8
0
100
AcDbBlockBegin
  2
*Paper_Space
 70
     0
 10
0.0
 20
0.0
 30
0.0
  3
*Paper_Space
  1

  0
ENDBLK
  5
58
330
55
100
AcDbEntity
 67
     1
  8
0
100
AcDbBlockEnd
  0
BLOCK
  5
52
330
50
100
AcDbEntity
  8
0
100
AcDbBlockBegin
  2
*Paper_Space0
 70
     0
 10
0.0
 20
0.0
 30
0.0
  3
*Paper_Space0
  1

  0
VIEWPORT
  5
6B
330
50
100
AcDbEntity
  8
0
100
AcDbViewport
 10
133.3499908447265
 20
101.5999970436096
 30
0.0
 40
381.3957395593833
 41
218.2856291881582
 69
     0
 12
133.3499908447265
 22
101.5999970436096
 13
0.0
 23
0.0
 14
10.0
 24
10.0
 15
10.0
 25
10.0
 16
0.0
 26
0.0
 36
1.0
 17
0.0
 27
0.0
 37
0.0
 42
50.0
 43
0.0
 44
0.0
 45
218.2856291881582
 50
0.0
 51
0.0
 72
   100
 90
    32800
  1

281
     0
 71
     1
 74
     0
110
0.0
120
0.0
130
0.0
111
1.0
121
0.0
131
0.0
112
0.0
122
1.0
132
0.0
 79
     0
146
0.0
  0
VIEWPORT
  5
6D
330
50
100
AcDbEntity
  8
0
100
AcDbViewport
 10
133.3499939441677
 20
101.5999939441678
 30
0.0
 40
213.3599903106689
 41
162.5599903106689
 69
     0
 12
210.0
 22
148.5
 13
0.0
 23
0.0
 14
10.0
 24
10.0
 15
10.0
 25
10.0
 16
0.0
 26
0.0
 36
1.0
 17
0.0
 27
0.0
 37
0.0
 42
50.0
 43
0.0
 44
0.0
 45
324.0677920111345
 50
0.0
 51
0.0
 72
   100
 90
    32864
  1

281
     0
 71
     1
 74
     0
110
0.0
120
0.0
130
0.0
111
1.0
121
0.0
131
0.0
112
0.0
122
1.0
132
0.0
 79
     0
146
0.0
  0
ENDBLK
  5
53
330
50
100
AcDbEntity
  8
0
100
AcDbBlockEnd
  0
BLOCK
  5
144
330
BF
100
AcDbEntity
  8
0
100
AcDbBlockBegin
  2
A$C20C44C32
 70
     0
 10
0.0
 20
0.0
 30
0.0
  3
A$C20C44C32
  1

  0
TEXT
  5
C0
330
BF
100
AcDbEntity
  8
23
  6
Continuous
 62
     3
100
AcDbText
 10
43.3999349999998
 20
276.6340526666665
 30
0.0
 40
3.910714999999981
  1
Time/Current characteristic curves
 41
0.7
 11
43.3999349999998
 21
275.3304809999999
 31
0.0
100
AcDbText
 73
     1
  0
LINE
  5
C1
330
BF
100
AcDbEntity
  8
24
  6
Continuous
 62
     1
100
AcDbLine
 10
181.2428559999998
 20
0.0
 30
0.0
 11
0.0
 21
0.0
 31
0.0
  0
LINE
  5
C2
330
BF
100
AcDbEntity
  8
24
  6
Continuous
 62
     1
100
AcDbLine
 10
181.2428559999998
 20
13.06518099999999
 30
0.0
 11
0.0
 21
13.06518099999999
 31
0.0
  0
LINE
  5
C3
330
BF
100
AcDbEntity
  8
24
  6
Continuous
 62
     1
100
AcDbLine
 10
181.2428559999998
 20
20.707091
 30
0.0
 11
0.0
 21
20.707091
 31
0.0
  0
LINE
  5
C4
330
BF
100
AcDbEntity
  8
24
  6
Continuous
 62
     1
100
AcDbLine
 10
181.2428559999998
 20
26.12967199999999
 30
0.0
 11
0.0
 21
26.12967199999999
 31
0.0
  0
LINE
  5
C5
330
BF
100
AcDbEntity
  8
24
  6
Continuous
 62
     1
100
AcDbLine
 10
181.2428559999998
 20
30.33544399999999
 30
0.0
 11
0.0
 21
30.33544399999999
 31
0.0
  0
LINE
  5
C6
330
BF
100
AcDbEntity
  8
24
  6
Continuous
 62
     1
100
AcDbLine
 10
181.2428559999998
 20
33.77227199999999
 30
0.0
 11
0.0
 21
33.77227199999999
 31
0.0
  0
LINE
  5
C7
330
BF
100
AcDbEntity
  8
24
  6
Continuous
 62
     1
100
AcDbLine
 10
181.2428559999998
 20
39.194163
 30
0.0
 11
0.0
 21
39.194163
 31
0.0
  0
LINE
  5
C8
330
BF
100
AcDbEntity
  8
24
  6
Continuous
 62
     1
100
AcDbLine
 10
181.2428559999998
 20
43.40062399999996
 30
0.0
 11
0.0
 21
43.40062399999996
 31
0.0
  0
LINE
  5
C9
330
BF
100
AcDbEntity
  8
24
  6
Continuous
 62
     1
100
AcDbLine
 10
181.2428559999998
 20
56.46511600000001
 30
0.0
 11
0.0
 21
56.46511600000001
 31
0.0
  0
LINE
  5
CA
330
BF
100
AcDbEntity
  8
24
  6
Continuous
 62
     1
100
AcDbLine
 10
181.2428559999998
 20
64.107026
 30
0.0
 11
0.0
 21
64.107026
 31
0.0
  0
LINE
  5
CB
330
BF
100
AcDbEntity
  8
24
  6
Continuous
 62
     1
100
AcDbLine
 10
181.2428559999998
 20
69.529607
 30
0.0
 11
0.0
 21
69.529607
 31
0.0
  0
LINE
  5
CC
330
BF
100
AcDbEntity
  8
24
  6
Continuous
 62
     1
100
AcDbLine
 10
181.2428559999998
 20
73.73537899999991
 30
0.0
 11
0.0
 21
73.73537899999991
 31
0.0
  0
LINE
  5
CD
330
BF
100
AcDbEntity
  8
24
  6
Continuous
 62
     1
100
AcDbLine
 10
181.2428559999998
 20
77.17220599999997
 30
0.0
 11
0.0
 21
77.17220599999997
 31
0.0
  0
LINE
  5
CE
330
BF
100
AcDbEntity
  8
24
  6
Continuous
 62
     1
100
AcDbLine
 10
181.2428559999998
 20
82.594098
 30
0.0
 11
0.0
 21
82.594098
 31
0.0
  0
LINE
  5
CF
330
BF
100
AcDbEntity
  8
24
  6
Continuous
 62
     1
100
AcDbLine
 10
181.2428559999998
 20
86.80055899999997
 30
0.0
 11
0.0
 21
86.80055899999997
 31
0.0
  0
LINE
  5
D0
330
BF
100
AcDbEntity
  8
24
  6
Continuous
 62
     1
100
AcDbLine
 10
181.2428559999998
 20
99.8657389999999
 30
0.0
 11
0.0
 21
99.8657389999999
 31
0.0
  0
LINE
  5
D1
330
BF
100
AcDbEntity
  8
24
  6
Continuous
 62
     1
100
AcDbLine
 10
181.2428559999998
 20
107.5076499999999
 30
0.0
 11
0.0
 21
107.5076499999999
 31
0.0
  0
LINE
  5
D2
330
BF
100
AcDbEntity
  8
24
  6
Continuous
 62
     1
100
AcDbLine
 10
181.2428559999998
 20
112.9302309999999
 30
0.0
 11
0.0
 21
112.9302309999999
 31
0.0
  0
LINE
  5
D3
330
BF
100
AcDbEntity
  8
24
  6
Continuous
 62
     1
100
AcDbLine
 10
181.2428559999998
 20
117.1360029999999
 30
0.0
 11
0.0
 21
117.1360029999999
 31
0.0
  0
LINE
  5
D4
330
BF
100
AcDbEntity
  8
24
  6
Continuous
 62
     1
100
AcDbLine
 10
181.2428559999998
 20
120.5728299999998
 30
0.0
 11
0.0
 21
120.5728299999998
 31
0.0
  0
LINE
  5
D5
330
BF
100
AcDbEntity
  8
24
  6
Continuous
 62
     1
100
AcDbLine
 10
181.2428559999998
 20
125.9948939999999
 30
0.0
 11
0.0
 21
125.9948939999999
 31
0.0
  0
LINE
  5
D6
330
BF
100
AcDbEntity
  8
24
  6
Continuous
 62
     1
100
AcDbLine
 10
181.2428559999998
 20
130.2006659999997
 30
0.0
 11
0.0
 21
130.2006659999997
 31
0.0
  0
LINE
  5
D7
330
BF
100
AcDbEntity
  8
24
  6
Continuous
 62
     1
100
AcDbLine
 10
181.2428559999998
 20
143.265502
 30
0.0
 11
0.0
 21
143.265502
 31
0.0
  0
LINE
  5
D8
330
BF
100
AcDbEntity
  8
24
  6
Continuous
 62
     1
100
AcDbLine
 10
181.2428559999998
 20
150.907757
 30
0.0
 11
0.0
 21
150.907757
 31
0.0
  0
LINE
  5
D9
330
BF
100
AcDbEntity
  8
24
  6
Continuous
 62
     1
100
AcDbLine
 10
181.2428559999998
 20
156.329993
 30
0.0
 11
0.0
 21
156.329993
 31
0.0
  0
LINE
  5
DA
330
BF
100
AcDbEntity
  8
24
  6
Continuous
 62
     1
100
AcDbLine
 10
181.2428559999998
 20
160.53611
 30
0.0
 11
0.0
 21
160.53611
 31
0.0
  0
LINE
  5
DB
330
BF
100
AcDbEntity
  8
24
  6
Continuous
 62
     1
100
AcDbLine
 10
181.2428559999998
 20
163.9725929999999
 30
0.0
 11
0.0
 21
163.9725929999999
 31
0.0
  0
LINE
  5
DC
330
BF
100
AcDbEntity
  8
24
  6
Continuous
 62
     1
100
AcDbLine
 10
181.2428559999998
 20
169.3948289999999
 30
0.0
 11
0.0
 21
169.3948289999999
 31
0.0
  0
LINE
  5
DD
330
BF
100
AcDbEntity
  8
24
  6
Continuous
 62
     1
100
AcDbLine
 10
181.2428559999998
 20
173.6006009999999
 30
0.0
 11
0.0
 21
173.6006009999999
 31
0.0
  0
LINE
  5
DE
330
BF
100
AcDbEntity
  8
24
  6
Continuous
 62
     1
100
AcDbLine
 10
181.2428559999998
 20
186.6654369999999
 30
0.0
 11
0.0
 21
186.6654369999999
 31
0.0
  0
LINE
  5
DF
330
BF
100
AcDbEntity
  8
24
  6
Continuous
 62
     1
100
AcDbLine
 10
181.2428559999998
 20
194.3076919999999
 30
0.0
 11
0.0
 21
194.3076919999999
 31
0.0
  0
LINE
  5
E0
330
BF
100
AcDbEntity
  8
24
  6
Continuous
 62
     1
100
AcDbLine
 10
181.2428559999998
 20
199.730273
 30
0.0
 11
0.0
 21
199.730273
 31
0.0
  0
LINE
  5
E1
330
BF
100
AcDbEntity
  8
24
  6
Continuous
 62
     1
100
AcDbLine
 10
181.2428559999998
 20
203.9360449999999
 30
0.0
 11
0.0
 21
203.9360449999999
 31
0.0
  0
LINE
  5
E2
330
BF
100
AcDbEntity
  8
24
  6
Continuous
 62
     1
100
AcDbLine
 10
181.2428559999998
 20
207.3725279999999
 30
0.0
 11
0.0
 21
207.3725279999999
 31
0.0
  0
LINE
  5
E3
330
BF
100
AcDbEntity
  8
24
  6
Continuous
 62
     1
100
AcDbLine
 10
181.2428559999998
 20
212.7947639999999
 30
0.0
 11
0.0
 21
212.7947639999999
 31
0.0
  0
LINE
  5
E4
330
BF
100
AcDbEntity
  8
24
  6
Continuous
 62
     1
100
AcDbLine
 10
181.2428559999998
 20
217.0008809999999
 30
0.0
 11
0.0
 21
217.0008809999999
 31
0.0
  0
LINE
  5
E5
330
BF
100
AcDbEntity
  8
24
  6
Continuous
 62
     1
100
AcDbLine
 10
181.2428559999998
 20
230.0653719999999
 30
0.0
 11
0.0
 21
230.0653719999999
 31
0.0
  0
LINE
  5
E6
330
BF
100
AcDbEntity
  8
24
  6
Continuous
 62
     1
100
AcDbLine
 10
181.2428559999998
 20
256.1946989999996
 30
0.0
 11
0.0
 21
256.1946989999996
 31
0.0
  0
LINE
  5
E7
330
BF
100
AcDbEntity
  8
24
  6
Continuous
 62
     1
100
AcDbLine
 10
181.2428559999998
 20
260.4008159999998
 30
0.0
 11
0.0
 21
260.4008159999998
 31
0.0
  0
LINE
  5
E8
330
BF
100
AcDbEntity
  8
24
  6
Continuous
 62
     1
100
AcDbLine
 10
117.1358309999999
 20
250.7724629999998
 30
0.0
 11
0.0
 21
250.7724629999998
 31
0.0
  0
LINE
  5
E9
330
BF
100
AcDbEntity
  8
24
  6
Continuous
 62
     1
100
AcDbLine
 10
117.1358309999999
 20
247.3359799999998
 30
0.0
 11
0.0
 21
247.3359799999998
 31
0.0
  0
LINE
  5
EA
330
BF
100
AcDbEntity
  8
24
  6
Continuous
 62
     1
100
AcDbLine
 10
117.1358309999999
 20
243.130207
 30
0.0
 11
0.0
 21
243.130207
 31
0.0
  0
LINE
  5
EB
330
BF
100
AcDbEntity
  8
24
  6
Continuous
 62
     1
100
AcDbLine
 10
117.1358309999999
 20
237.707972
 30
0.0
 11
0.0
 21
237.707972
 31
0.0
  0
TEXT
  5
EC
330
BF
100
AcDbEntity
  8
24
  6
Continuous
 62
     1
100
AcDbText
 10
32.42523899999999
 20
-19.82829600000002
 30
0.0
 40
3.421865999999998
  1
Current (A)
 41
0.7
 11
32.42523899999999
 21
-20.96891800000002
 31
0.0
100
AcDbText
 73
     1
  0
LINE
  5
ED
330
BF
100
AcDbEntity
  8
24
  6
Continuous
 62
     1
100
AcDbLine
 10
0.0
 20
260.4008159999998
 30
0.0
 11
0.0
 21
0.0
 31
0.0
  0
LINE
  5
EE
330
BF
100
AcDbEntity
  8
24
  6
Continuous
 62
     1
100
AcDbLine
 10
7.642600000000001
 20
260.4008159999998
 30
0.0
 11
7.642600000000001
 21
0.0
 31
0.0
  0
LINE
  5
EF
330
BF
100
AcDbEntity
  8
24
  6
Continuous
 62
     1
100
AcDbLine
 10
17.27060799999988
 20
260.4008159999998
 30
0.0
 11
17.27060799999988
 21
0.0
 31
0.0
  0
LINE
  5
F0
330
BF
100
AcDbEntity
  8
24
  6
Continuous
 62
     1
100
AcDbLine
 10
26.12932699999999
 20
260.4008159999998
 30
0.0
 11
26.12932699999999
 21
0.0
 31
0.0
  0
LINE
  5
F1
330
BF
100
AcDbEntity
  8
24
  6
Continuous
 62
     1
100
AcDbLine
 10
30.33544399999989
 20
260.4008159999998
 30
0.0
 11
30.33544399999989
 21
0.0
 31
0.0
  0
LINE
  5
F2
330
BF
100
AcDbEntity
  8
24
  6
Continuous
 62
     1
100
AcDbLine
 10
43.3999349999998
 20
260.4008159999998
 30
0.0
 11
43.3999349999998
 21
0.0
 31
0.0
  0
TEXT
  5
F3
330
BF
100
AcDbEntity
  8
24
  6
Continuous
 62
     1
100
AcDbText
 10
-13.546066
 20
88.392882
 30
0.0
 40
3.421865999999993
  1
Operating time (sec)
 50
90.0
 41
0.7
 11
-12.405444
 21
88.392882
 31
0.0
100
AcDbText
 73
     1
  0
TEXT
  5
F4
330
BF
100
AcDbEntity
  8
200
  6
Continuous
 62
     1
100
AcDbText
 10
-9.258413555151079
 20
19.45709099999987
 30
0.0
 40
2.5
  1
0.03
 41
0.6
 72
     2
 11
-5.258413555151078
 21
20.70709099999987
 31
0.0
100
AcDbText
 73
     2
  0
TEXT
  5
F5
330
BF
100
AcDbEntity
  8
200
  6
Continuous
 62
     1
100
AcDbText
 10
1.249999999999957
 20
-5.166666666666666
 30
0.0
 40
2.5
  1
2
 50
90.0
 41
0.7
 72
     2
 11
-0.0000000000000426
 21
-4.0
 31
0.0
100
AcDbText
 73
     2
  0
TEXT
  5
F6
330
BF
100
AcDbEntity
  8
200
  6
Continuous
 62
     1
100
AcDbText
 10
-9.259367750161601
 20
11.81518099999985
 30
0.0
 40
2.5
  1
0.02
 41
0.6
 72
     2
 11
-5.259367750161601
 21
13.06518099999985
 31
0.0
100
AcDbText
 73
     2
  0
TEXT
  5
F7
330
BF
100
AcDbEntity
  8
200
  6
Continuous
 62
     1
100
AcDbText
 10
-8.760999113331507
 20
-1.250000000000142
 30
0.0
 40
2.5
  1
0.01
 41
0.6
 72
     2
 11
-5.260999113331506
 21
-0.0000000000001421
 31
0.0
100
AcDbText
 73
     2
  0
TEXT
  5
F8
330
BF
100
AcDbEntity
  8
200
  6
Continuous
 62
     1
100
AcDbText
 10
27.3793269999999
 20
-5.166666666666666
 30
0.0
 40
2.5
  1
8
 50
90.0
 41
0.7
 72
     2
 11
26.1293269999999
 21
-4.0
 31
0.0
100
AcDbText
 73
     2
  0
TEXT
  5
F9
330
BF
100
AcDbEntity
  8
200
  6
Continuous
 62
     1
100
AcDbText
 10
18.52060799999988
 20
-5.166666666666666
 30
0.0
 40
2.5
  1
5
 50
90.0
 41
0.7
 72
     2
 11
17.27060799999988
 21
-4.0
 31
0.0
100
AcDbText
 73
     2
  0
TEXT
  5
FA
330
BF
100
AcDbEntity
  8
200
  6
Continuous
 62
     1
100
AcDbText
 10
8.892599999999902
 20
-5.166666666666666
 30
0.0
 40
2.5
  1
3
 50
90.0
 41
0.7
 72
     2
 11
7.642599999999902
 21
-4.0
 31
0.0
100
AcDbText
 73
     2
  0
TEXT
  5
FB
330
BF
100
AcDbEntity
  8
200
  6
Continuous
 62
     1
100
AcDbText
 10
44.64993499999989
 20
-6.625
 30
0.0
 40
2.5
  1
20
 50
90.0
 41
0.7
 72
     2
 11
43.39993499999989
 21
-4.0
 31
0.0
100
AcDbText
 73
     2
  0
TEXT
  5
FC
330
BF
100
AcDbEntity
  8
200
  6
Continuous
 62
     1
100
AcDbText
 10
31.58544399999989
 20
-6.041666666666666
 30
0.0
 40
2.5
  1
10
 50
90.0
 41
0.7
 72
     2
 11
30.33544399999989
 21
-4.0
 31
0.0
100
AcDbText
 73
     2
  0
TEXT
  5
FD
330
BF
100
AcDbEntity
  8
200
  6
Continuous
 62
     1
100
AcDbText
 10
-8.002317408877701
 20
68.27960699999978
 30
0.0
 40
2.5
  1
0.4
 41
0.6
 72
     2
 11
-5.252317408877701
 21
69.52960699999978
 31
0.0
100
AcDbText
 73
     2
  0
TEXT
  5
FE
330
BF
100
AcDbEntity
  8
200
  6
Continuous
 62
     1
100
AcDbText
 10
-9.25773647314746
 20
24.87967199999988
 30
0.0
 40
2.5
  1
0.04
 41
0.6
 72
     2
 11
-5.25773647314746
 21
26.12967199999988
 31
0.0
100
AcDbText
 73
     2
  0
TEXT
  5
FF
330
BF
100
AcDbEntity
  8
200
  6
Continuous
 62
     1
100
AcDbText
 10
-9.257211326075875
 20
29.08544399999984
 30
0.0
 40
2.5
  1
0.05
 41
0.6
 72
     2
 11
-5.257211326075875
 21
30.33544399999984
 31
0.0
100
AcDbText
 73
     2
  0
TEXT
  5
100
330
BF
100
AcDbEntity
  8
200
  6
Continuous
 62
     1
100
AcDbText
 10
-7.505579963030853
 20
42.15062399999984
 30
0.0
 40
2.5
  1
0.1
 41
0.6
 72
     2
 11
-5.255579963030853
 21
43.40062399999984
 31
0.0
100
AcDbText
 73
     2
  0
TEXT
  5
101
330
BF
100
AcDbEntity
  8
200
  6
Continuous
 62
     1
100
AcDbText
 10
-8.003948685891828
 20
55.21511599999985
 30
0.0
 40
2.5
  1
0.2
 41
0.6
 72
     2
 11
-5.253948685891828
 21
56.46511599999985
 31
0.0
100
AcDbText
 73
     2
  0
TEXT
  5
102
330
BF
100
AcDbEntity
  8
200
  6
Continuous
 62
     1
100
AcDbText
 10
-8.002994490881292
 20
62.85702599999979
 30
0.0
 40
2.5
  1
0.3
 41
0.6
 72
     2
 11
-5.252994490881292
 21
64.10702599999979
 31
0.0
100
AcDbText
 73
     2
  0
TEXT
  5
103
330
BF
100
AcDbEntity
  8
200
  6
Continuous
 62
     1
100
AcDbText
 10
-8.00179226180613
 20
72.48537899999971
 30
0.0
 40
2.5
  1
0.5
 41
0.6
 72
     2
 11
-5.251792261806129
 21
73.73537899999971
 31
0.0
100
AcDbText
 73
     2
  0
TEXT
  5
104
330
BF
100
AcDbEntity
  8
200
  6
Continuous
 62
     1
100
AcDbText
 10
-5.748529535716001
 20
85.5505589999999
 30
0.0
 40
2.5
  1
1
 41
0.6
 72
     2
 11
-5.248529535716001
 21
86.8005589999999
 31
0.0
100
AcDbText
 73
     2
  0
TEXT
  5
105
330
BF
100
AcDbEntity
  8
200
  6
Continuous
 62
     1
100
AcDbText
 10
-6.247575340580623
 20
106.2576499999997
 30
0.0
 40
2.5
  1
3
 41
0.6
 72
     2
 11
-5.247575340580623
 21
107.5076499999997
 31
0.0
100
AcDbText
 73
     2
  0
TEXT
  5
106
330
BF
100
AcDbEntity
  8
200
  6
Continuous
 62
     1
100
AcDbText
 10
-6.248529535716001
 20
98.6157389999998
 30
0.0
 40
2.5
  1
2
 41
0.6
 72
     2
 11
-5.248529535716001
 21
99.8657389999998
 31
0.0
100
AcDbText
 73
     2
  0
TEXT
  5
107
330
BF
100
AcDbEntity
  8
200
  6
Continuous
 62
     1
100
AcDbText
 10
-6.24689825857699
 20
111.6802309999999
 30
0.0
 40
2.5
  1
4
 41
0.6
 72
     2
 11
-5.24689825857699
 21
112.9302309999999
 31
0.0
100
AcDbText
 73
     2
  0
TEXT
  5
108
330
BF
100
AcDbEntity
  8
200
  6
Continuous
 62
     1
100
AcDbText
 10
-6.24637311150542
 20
115.8860029999997
 30
0.0
 40
2.5
  1
5
 41
0.6
 72
     2
 11
-5.24637311150542
 21
117.1360029999997
 31
0.0
100
AcDbText
 73
     2
  0
TEXT
  5
109
330
BF
100
AcDbEntity
  8
200
  6
Continuous
 62
     1
100
AcDbText
 10
-6.994741813014782
 20
128.9506659999997
 30
0.0
 40
2.5
  1
10
 41
0.6
 72
     2
 11
-5.244741813014782
 21
130.2006659999997
 31
0.0
100
AcDbText
 73
     2
  0
TEXT
  5
10A
330
BF
100
AcDbEntity
  8
200
  6
Continuous
 62
     1
100
AcDbText
 10
-7.493110492922723
 20
142.0155019999997
 30
0.0
 40
2.5
  1
20
 41
0.6
 72
     2
 11
-5.243110492922723
 21
143.2655019999998
 31
0.0
100
AcDbText
 73
     2
  0
TEXT
  5
10B
330
BF
100
AcDbEntity
  8
200
  6
Continuous
 62
     1
100
AcDbText
 10
-7.49215625483437
 20
149.6577569999998
 30
0.0
 40
2.5
  1
30
 41
0.6
 72
     2
 11
-5.24215625483437
 21
150.9077569999998
 31
0.0
100
AcDbText
 73
     2
  0
TEXT
  5
10C
330
BF
100
AcDbEntity
  8
200
  6
Continuous
 62
     1
100
AcDbText
 10
-7.491479215908582
 20
155.0799929999998
 30
0.0
 40
2.5
  1
40
 41
0.6
 72
     2
 11
-5.241479215908582
 21
156.3299929999998
 31
0.0
100
AcDbText
 73
     2
  0
TEXT
  5
10D
330
BF
100
AcDbEntity
  8
200
  6
Continuous
 62
     1
100
AcDbText
 10
-7.490524934742295
 20
162.7225929999998
 30
0.0
 40
2.5
  1
60
 41
0.6
 72
     2
 11
-5.240524934742295
 21
163.9725929999998
 31
0.0
100
AcDbText
 73
     2
  0
TEXT
  5
10E
330
BF
100
AcDbEntity
  8
200
  6
Continuous
 62
     1
100
AcDbText
 10
-7.490954025759123
 20
159.2861099999998
 30
0.0
 40
2.5
  1
50
 41
0.6
 72
     2
 11
-5.240954025759123
 21
160.5361099999998
 31
0.0
100
AcDbText
 73
     2
  0
TEXT
  5
10F
330
BF
100
AcDbEntity
  8
200
  6
Continuous
 62
     1
100
AcDbText
 10
-8.736737190564554
 20
193.0576919999996
 30
0.0
 40
2.5
  1
300
 41
0.6
 72
     2
 11
-5.236737190564554
 21
194.3076919999996
 31
0.0
100
AcDbText
 73
     2
  0
TEXT
  5
110
330
BF
100
AcDbEntity
  8
200
  6
Continuous
 62
     1
100
AcDbText
 10
-8.239322748744982
 20
172.3506009999998
 30
0.0
 40
2.5
  1
100
 41
0.6
 72
     2
 11
-5.239322748744981
 21
173.6006009999998
 31
0.0
100
AcDbText
 73
     2
  0
TEXT
  5
111
330
BF
100
AcDbEntity
  8
200
  6
Continuous
 62
     1
100
AcDbText
 10
-8.737691428652951
 20
185.4154369999998
 30
0.0
 40
2.5
  1
200
 41
0.6
 72
     2
 11
-5.237691428652951
 21
186.6654369999998
 31
0.0
100
AcDbText
 73
     2
  0
TEXT
  5
112
330
BF
100
AcDbEntity
  8
200
  6
Continuous
 62
     1
100
AcDbText
 10
-9.483903641397304
 20
215.7508809999997
 30
0.0
 40
2.5
  1
1000
 41
0.6
 72
     2
 11
-5.233903641397303
 21
217.0008809999997
 31
0.0
100
AcDbText
 73
     2
  0
TEXT
  5
113
330
BF
100
AcDbEntity
  8
200
  6
Continuous
 62
     1
100
AcDbText
 10
-8.735534961489364
 20
202.6860449999999
 30
0.0
 40
2.5
  1
500
 41
0.6
 72
     2
 11
-5.235534961489363
 21
203.9360449999999
 31
0.0
100
AcDbText
 73
     2
  0
TEXT
  5
114
330
BF
100
AcDbEntity
  8
200
  6
Continuous
 62
     1
100
AcDbText
 10
-8.736060108560934
 20
198.4802729999998
 30
0.0
 40
2.5
  1
400
 41
0.6
 72
     2
 11
-5.236060108560933
 21
199.7302729999998
 31
0.0
100
AcDbText
 73
     2
  0
TEXT
  5
115
330
BF
100
AcDbEntity
  8
23
  6
Continuous
 62
     3
100
AcDbText
 10
0.0000000000000001
 20
276.6340526666665
 30
0.0
 40
3.910714999999981
  1
TemBreak2
 41
0.7
 11
0.0
 21
275.3304809999999
 31
0.0
100
AcDbText
 73
     1
  0
TEXT
  5
116
330
BF
100
AcDbEntity
  8
200
  6
Continuous
 62
     1
100
AcDbText
 10
-9.980771491001688
 20
241.872855374364
 30
0.0
 40
2.5
  1
4000
 41
0.6
 72
     2
 11
-5.230771491001688
 21
243.1228553743641
 31
0.0
100
AcDbText
 73
     2
  0
TEXT
  5
117
330
BF
100
AcDbEntity
  8
200
  6
Continuous
 62
     1
100
AcDbText
 10
-9.981448551393356
 20
236.4506203743641
 30
0.0
 40
2.5
  1
3000
 41
0.6
 72
     2
 11
-5.231448551393356
 21
237.7006203743642
 31
0.0
100
AcDbText
 73
     2
  0
TEXT
  5
118
330
BF
100
AcDbEntity
  8
200
  6
Continuous
 62
     1
100
AcDbText
 10
-9.982272364383163
 20
228.8153719999998
 30
0.0
 40
2.5
  1
2000
 41
0.6
 72
     2
 11
-5.232272364383162
 21
230.0653719999997
 31
0.0
100
AcDbText
 73
     2
  0
TEXT
  5
119
330
BF
100
AcDbEntity
  8
200
  6
Continuous
 62
     1
100
AcDbText
 10
-10.72850376865692
 20
258.9971158246214
 30
0.0
 40
2.5
  1
10000
 41
0.6
 72
     2
 11
-5.228503768656921
 21
260.2471158246213
 31
0.0
100
AcDbText
 73
     2
  0
TEXT
  5
11A
330
BF
100
AcDbEntity
  8
200
  6
Continuous
 62
     1
100
AcDbText
 10
-9.980246322336924
 20
246.078628374364
 30
0.0
 40
2.5
  1
5000
 41
0.6
 72
     2
 11
-5.230246322336924
 21
247.328628374364
 31
0.0
100
AcDbText
 73
     2
  0
LINE
  5
11B
330
BF
100
AcDbEntity
  8
24
  6
Continuous
 62
     1
100
AcDbLine
 10
51.042535
 20
260.4008159999998
 30
0.0
 11
51.042535
 21
0.0
 31
0.0
  0
LINE
  5
11C
330
BF
100
AcDbEntity
  8
24
  6
Continuous
 62
     1
100
AcDbLine
 10
60.67054299999998
 20
260.4008159999998
 30
0.0
 11
60.67054299999998
 21
0.0
 31
0.0
  0
LINE
  5
11D
330
BF
100
AcDbEntity
  8
24
  6
Continuous
 62
     1
100
AcDbLine
 10
69.52960600000001
 20
260.4008159999998
 30
0.0
 11
69.52960600000001
 21
0.0
 31
0.0
  0
LINE
  5
11E
330
BF
100
AcDbEntity
  8
24
  6
Continuous
 62
     1
100
AcDbLine
 10
73.73572299999991
 20
260.4008159999998
 30
0.0
 11
73.73572299999991
 21
0.0
 31
0.0
  0
LINE
  5
11F
330
BF
100
AcDbEntity
  8
24
  6
Continuous
 62
     1
100
AcDbLine
 10
86.80038699999995
 20
260.4008159999998
 30
0.0
 11
86.80038699999995
 21
0.0
 31
0.0
  0
LINE
  5
120
330
BF
100
AcDbEntity
  8
24
  6
Continuous
 62
     1
100
AcDbLine
 10
94.44298699999992
 20
260.4008159999998
 30
0.0
 11
94.44298699999992
 21
0.0
 31
0.0
  0
LINE
  5
121
330
BF
100
AcDbEntity
  8
24
  6
Continuous
 62
     1
100
AcDbLine
 10
104.0706499999999
 20
260.4008159999998
 30
0.0
 11
104.0706499999999
 21
0.0
 31
0.0
  0
LINE
  5
122
330
BF
100
AcDbEntity
  8
24
  6
Continuous
 62
     1
100
AcDbLine
 10
112.9300579999999
 20
260.4008159999998
 30
0.0
 11
112.9300579999999
 21
0.0
 31
0.0
  0
LINE
  5
123
330
BF
100
AcDbEntity
  8
24
  6
Continuous
 62
     1
100
AcDbLine
 10
117.1358309999999
 20
260.4008159999998
 30
0.0
 11
117.1358309999999
 21
0.0
 31
0.0
  0
LINE
  5
124
330
BF
100
AcDbEntity
  8
24
  6
Continuous
 62
     1
100
AcDbLine
 10
181.2428559999998
 20
260.4008159999998
 30
0.0
 11
181.2428559999998
 21
0.0
 31
0.0
  0
LINE
  5
125
330
BF
100
AcDbEntity
  8
24
  6
Continuous
 62
     1
100
AcDbLine
 10
130.2003219999999
 20
230.0653719999999
 30
0.0
 11
130.2003219999999
 21
0.0
 31
0.0
  0
LINE
  5
126
330
BF
100
AcDbEntity
  8
24
  6
Continuous
 62
     1
100
AcDbLine
 10
137.8429209999999
 20
230.0653719999999
 30
0.0
 11
137.8429209999999
 21
0.0
 31
0.0
  0
LINE
  5
127
330
BF
100
AcDbEntity
  8
24
  6
Continuous
 62
     1
100
AcDbLine
 10
147.471274
 20
230.0653719999999
 30
0.0
 11
147.471274
 21
0.0
 31
0.0
  0
LINE
  5
128
330
BF
100
AcDbEntity
  8
24
  6
Continuous
 62
     1
100
AcDbLine
 10
156.3299929999999
 20
230.0653719999999
 30
0.0
 11
156.3299929999999
 21
0.0
 31
0.0
  0
LINE
  5
129
330
BF
100
AcDbEntity
  8
24
  6
Continuous
 62
     1
100
AcDbLine
 10
160.5357649999999
 20
230.0653719999999
 30
0.0
 11
160.5357649999999
 21
0.0
 31
0.0
  0
LINE
  5
12A
330
BF
100
AcDbEntity
  8
24
  6
Continuous
 62
     1
100
AcDbLine
 10
173.600257
 20
230.0653719999999
 30
0.0
 11
173.600257
 21
0.0
 31
0.0
  0
TEXT
  5
12B
330
BF
100
AcDbEntity
  8
23
  6
Continuous
 62
     3
100
AcDbText
 10
78.428632
 20
-38.21649633333334
 30
0.0
 40
3.910714999999998
  1
TERASAKI ELECTRIC CO.,LTD.
 41
0.7
 11
78.428632
 21
-39.520068
 31
0.0
100
AcDbText
 73
     1
  0
TEXT
  5
12C
330
BF
100
AcDbEntity
  8
24
  6
Continuous
 62
     1
100
AcDbText
 10
91.790263
 20
-20.06220266666666
 30
0.0
 40
2.444193999999999
  1
primary ==== 6.6kV
 41
0.7
 11
91.790263
 21
-20.876934
 31
0.0
100
AcDbText
 73
     1
  0
TEXT
  5
12D
330
BF
100
AcDbEntity
  8
24
  6
Continuous
 62
     1
100
AcDbText
 10
91.790263
 20
-23.91933166666667
 30
0.0
 40
2.444193999999999
  1
secondary == 110,220,440V
 41
0.7
 11
91.790263
 21
-24.73406300000001
 31
0.0
100
AcDbText
 73
     1
  0
TEXT
  5
12E
330
BF
100
AcDbEntity
  8
200
  6
Continuous
 62
     1
100
AcDbText
 10
74.98572299999991
 20
-7.499999999999999
 30
0.0
 40
2.5
  1
100
 50
90.0
 41
0.7
 72
     2
 11
73.73572299999991
 21
-4.0
 31
0.0
100
AcDbText
 73
     2
  0
TEXT
  5
12F
330
BF
100
AcDbEntity
  8
200
  6
Continuous
 62
     1
100
AcDbText
 10
70.7796059999999
 20
-6.625
 30
0.0
 40
2.5
  1
80
 50
90.0
 41
0.7
 72
     2
 11
69.5296059999999
 21
-4.0
 31
0.0
100
AcDbText
 73
     2
  0
TEXT
  5
130
330
BF
100
AcDbEntity
  8
200
  6
Continuous
 62
     1
100
AcDbText
 10
61.9205429999999
 20
-6.625
 30
0.0
 40
2.5
  1
50
 50
90.0
 41
0.7
 72
     2
 11
60.6705429999999
 21
-4.0
 31
0.0
100
AcDbText
 73
     2
  0
TEXT
  5
131
330
BF
100
AcDbEntity
  8
200
  6
Continuous
 62
     1
100
AcDbText
 10
52.29253499999988
 20
-6.625
 30
0.0
 40
2.5
  1
30
 50
90.0
 41
0.7
 72
     2
 11
51.04253499999988
 21
-4.0
 31
0.0
100
AcDbText
 73
     2
  0
TEXT
  5
132
330
BF
100
AcDbEntity
  8
200
  6
Continuous
 62
     1
100
AcDbText
 10
95.69298699999992
 20
-8.083333333333332
 30
0.0
 40
2.5
  1
300
 50
90.0
 41
0.7
 72
     2
 11
94.44298699999992
 21
-4.0
 31
0.0
100
AcDbText
 73
     2
  0
TEXT
  5
133
330
BF
100
AcDbEntity
  8
200
  6
Continuous
 62
     1
100
AcDbText
 10
88.05038699999995
 20
-8.083333333333332
 30
0.0
 40
2.5
  1
200
 50
90.0
 41
0.7
 72
     2
 11
86.80038699999995
 21
-4.0
 31
0.0
100
AcDbText
 73
     2
  0
TEXT
  5
134
330
BF
100
AcDbEntity
  8
200
  6
Continuous
 62
     1
100
AcDbText
 10
118.3858309999999
 20
-8.958333333333332
 30
0.0
 40
2.5
  1
1000
 50
90.0
 41
0.7
 72
     2
 11
117.1358309999999
 21
-4.0
 31
0.0
100
AcDbText
 73
     2
  0
TEXT
  5
135
330
BF
100
AcDbEntity
  8
200
  6
Continuous
 62
     1
100
AcDbText
 10
114.1800579999997
 20
-8.083333333333332
 30
0.0
 40
2.5
  1
800
 50
90.0
 41
0.7
 72
     2
 11
112.9300579999997
 21
-4.0
 31
0.0
100
AcDbText
 73
     2
  0
TEXT
  5
136
330
BF
100
AcDbEntity
  8
200
  6
Continuous
 62
     1
100
AcDbText
 10
105.3206499999999
 20
-8.083333333333332
 30
0.0
 40
2.5
  1
500
 50
90.0
 41
0.7
 72
     2
 11
104.0706499999999
 21
-4.0
 31
0.0
100
AcDbText
 73
     2
  0
TEXT
  5
137
330
BF
100
AcDbEntity
  8
200
  6
Continuous
 62
     1
100
AcDbText
 10
139.0929209999999
 20
-9.541666666666667
 30
0.0
 40
2.5
  1
3000
 50
90.0
 41
0.7
 72
     2
 11
137.8429209999999
 21
-4.0
 31
0.0
100
AcDbText
 73
     2
  0
TEXT
  5
138
330
BF
100
AcDbEntity
  8
200
  6
Continuous
 62
     1
100
AcDbText
 10
131.4503219999997
 20
-9.541666666666667
 30
0.0
 40
2.5
  1
2000
 50
90.0
 41
0.7
 72
     2
 11
130.2003219999998
 21
-4.0
 31
0.0
100
AcDbText
 73
     2
  0
TEXT
  5
139
330
BF
100
AcDbEntity
  8
200
  6
Continuous
 62
     1
100
AcDbText
 10
161.8726395661999
 20
-10.48817402477792
 30
0.0
 40
2.5
  1
10000
 50
90.0
 41
0.7
 72
     2
 11
160.6226395661999
 21
-4.071507358111261
 31
0.0
100
AcDbText
 73
     2
  0
TEXT
  5
13A
330
BF
100
AcDbEntity
  8
200
  6
Continuous
 62
     1
100
AcDbText
 10
148.7212739999999
 20
-9.541666666666667
 30
0.0
 40
2.5
  1
5000
 50
90.0
 41
0.7
 72
     2
 11
147.4712739999999
 21
-4.0
 31
0.0
100
AcDbText
 73
     2
  0
TEXT
  5
13B
330
BF
100
AcDbEntity
  8
200
  6
Continuous
 62
     1
100
AcDbText
 10
157.5799929999999
 20
-9.541666666666667
 30
0.0
 40
2.5
  1
8000
 50
90.0
 41
0.7
 72
     2
 11
156.3299929999999
 21
-4.0
 31
0.0
100
AcDbText
 73
     2
  0
TEXT
  5
13C
330
BF
100
AcDbEntity
  8
200
  6
Continuous
 62
     1
100
AcDbText
 10
182.5797305662
 20
-11.07150735811126
 30
0.0
 40
2.5
  1
30000
 50
90.0
 41
0.7
 72
     2
 11
181.3297305662
 21
-4.071507358111261
 31
0.0
100
AcDbText
 73
     2
  0
TEXT
  5
13D
330
BF
100
AcDbEntity
  8
200
  6
Continuous
 62
     1
100
AcDbText
 10
174.9371315661998
 20
-11.07150735811126
 30
0.0
 40
2.5
  1
20000
 50
90.0
 41
0.7
 72
     2
 11
173.6871315661998
 21
-4.071507358111261
 31
0.0
100
AcDbText
 73
     2
  0
LINE
  5
13E
330
BF
100
AcDbEntity
  8
24
  6
Continuous
 62
     1
100
AcDbLine
 10
130.2003219999999
 20
260.4008159999998
 30
0.0
 11
130.2003219999999
 21
256.1946989999996
 31
0.0
  0
LINE
  5
13F
330
BF
100
AcDbEntity
  8
24
  6
Continuous
 62
     1
100
AcDbLine
 10
137.8429209999999
 20
260.4008159999998
 30
0.0
 11
137.8429209999999
 21
256.1946989999996
 31
0.0
  0
LINE
  5
140
330
BF
100
AcDbEntity
  8
24
  6
Continuous
 62
     1
100
AcDbLine
 10
147.471274
 20
260.4008159999998
 30
0.0
 11
147.471274
 21
256.1946989999996
 31
0.0
  0
LINE
  5
141
330
BF
100
AcDbEntity
  8
24
  6
Continuous
 62
     1
100
AcDbLine
 10
156.3299929999999
 20
260.4008159999998
 30
0.0
 11
156.3299929999999
 21
256.1946989999996
 31
0.0
  0
LINE
  5
142
330
BF
100
AcDbEntity
  8
24
  6
Continuous
 62
     1
100
AcDbLine
 10
160.5357649999999
 20
260.4008159999998
 30
0.0
 11
160.5357649999999
 21
256.1946989999996
 31
0.0
  0
LINE
  5
143
330
BF
100
AcDbEntity
  8
24
  6
Continuous
 62
     1
100
AcDbLine
 10
173.600257
 20
260.4008159999998
 30
0.0
 11
173.600257
 21
256.1946989999996
 31
0.0
  0
ENDBLK
  5
145
330
BF
100
AcDbEntity
  8
0
100
AcDbBlockEnd
  0
ENDSEC
  0
SECTION
  2
ENTITIES
  0
MTEXT
  5
9D
330
1F
100
AcDbEntity
  8
レイヤー_5
 62
     7
100
AcDbMText
 10
134.274147
 20
252.2029369999999
 30
0.0
 40
2.444193999999999
 41
0.0
 71
     1
 72
     2
  1
\W1.02;\fOsaka|b0|i0|c128;350A
  7
STD
 73
     1
 44
1.0
  0
MTEXT
  5
9E
330
1F
100
AcDbEntity
  8
レイヤー_5
 62
     7
100
AcDbMText
 10
164.958235
 20
245.122232
 30
0.0
 40
2.444193999999999
 41
0.0
 71
     1
 72
     2
  1
\W1.02;\fOsaka|b0|i0|c128;S400-NF
  7
STD
 73
     1
 44
1.0
  0
MTEXT
  5
9F
330
1F
100
AcDbEntity
  8
レイヤー_5
 62
     7
100
AcDbMText
 10
148.1220530000001
 20
239.772516
 30
0.0
 40
2.444193999999999
 41
0.0
 71
     1
 72
     2
  1
\W1.02;\fOsaka|b0|i0|c128;S400-GF
  7
STD
 73
     1
 44
1.0
  0
MTEXT
  5
A0
330
1F
100
AcDbEntity
  8
レイヤー_5
 62
     7
100
AcDbMText
 10
148.1220530000001
 20
245.122232
 30
0.0
 40
2.444193999999999
 41
0.0
 71
     1
 72
     2
  1
\W1.02;\fOsaka|b0|i0|c128;S400-CF,
  7
STD
 73
     1
 44
1.0
  0
SPLINE
  5
A2
330
1F
100
AcDbEntity
  8
VPORT-BORDERS
 62
     7
100
AcDbSpline
210
0.0
220
0.0
230
1.0
 70
     8
 71
     3
 72
    17
 73
    13
 74
     0
 42
0.0000000001
 43
0.0000000001
 40
0.0
 40
0.0
 40
0.0
 40
0.0
 40
1.0
 40
1.0
 40
1.0
 40
2.0
 40
2.0
 40
2.0
 40
3.0
 40
3.0
 40
3.0
 40
4.0
 40
4.0
 40
4.0
 40
4.0
 10
133.176195404514
 20
13.06897002256931
 30
0.0
 10
120.1234176267362
 20
13.06897002256931
 30
0.0
 10
122.131908295139
 20
13.06897002256931
 30
0.0
 10
115.4291305173612
 20
13.06897002256931
 30
0.0
 10
101.7245406736113
 20
13.06897002256931
 30
0.0
 10
80.09997600000003
 20
17.17070070833321
 30
0.0
 10
80.09997600000003
 20
39.3774417022569
 30
0.0
 10
80.09997600000003
 20
53.84133059114581
 30
0.0
 10
80.09997600000003
 20
126.2883391810838
 30
0.0
 10
80.09997600000003
 20
133.3438947366394
 30
0.0
 10
80.09997600000003
 20
140.399450292195
 30
0.0
 10
79.3565243940973
 20
147.6198536667612
 30
0.0
 10
76.357913282986
 20
153.6170758889834
 30
0.0
  0
MTEXT
  5
A4
330
1F
100
AcDbEntity
  8
VPORT-BORDERS
 62
     7
100
AcDbMText
 10
-10.77143499999999
 20
1.440292999999897
 30
0.0
 40
2.444193999999999
 41
0.0
 71
     1
 72
     2
  1
\W1.02;\fOsaka|b0|i0|c128;0.01S
  7
STD
 73
     1
 44
1.0
  0
LINE
  5
A5
330
1F
100
AcDbEntity
  8
VPORT-BORDERS
 62
     7
100
AcDbLine
 10
194.342488
 20
0.0
 30
0.0
 11
0.0
 21
0.0
 31
0.0
  0
LINE
  5
A6
330
1F
100
AcDbEntity
  8
VPORT-BORDERS
 62
     7
100
AcDbLine
 10
0.0
 20
260.4004709999999
 30
0.0
 11
0.0
 21
0.0
 31
0.0
  0
LINE
  5
A7
330
1F
100
AcDbEntity
  8
VPORT-BORDERS
 62
     7
100
AcDbLine
 10
26.19995199999999
 20
260.4004709999999
 30
0.0
 11
26.19995199999999
 21
0.0
 31
0.0
  0
LINE
  5
A8
330
1F
100
AcDbEntity
  8
VPORT-BORDERS
 62
     7
100
AcDbLine
 10
13.09997600000008
 20
260.4004709999999
 30
0.0
 11
13.09997600000008
 21
0.0
 31
0.0
  0
MTEXT
  5
A9
330
1F
100
AcDbEntity
  8
VPORT-BORDERS
 62
     7
100
AcDbMText
 10
25.23783800000009
 20
-14.78531600000019
 30
0.0
 40
2.444193999999999
 41
0.0
 71
     1
 72
     2
  1
\fOsaka|b0|i0|c128;110V
  7
STD
 11
0.0
 21
1.0
 31
0.0
 73
     1
 44
1.0
  0
MTEXT
  5
AA
330
1F
100
AcDbEntity
  8
VPORT-BORDERS
 62
     7
100
AcDbMText
 10
-1.444081999999809
 20
-14.78531600000019
 30
0.0
 40
2.444193999999999
 41
0.0
 71
     1
 72
     2
  1
\fOsaka|b0|i0|c128;440V
  7
STD
 11
0.0
 21
1.0
 31
0.0
 73
     1
 44
1.0
  0
MTEXT
  5
AB
330
1F
100
AcDbEntity
  8
VPORT-BORDERS
 62
     7
100
AcDbMText
 10
11.65589400000001
 20
-14.78531600000019
 30
0.0
 40
2.444193999999999
 41
0.0
 71
     1
 72
     2
  1
\fOsaka|b0|i0|c128;220V
  7
STD
 11
0.0
 21
1.0
 31
0.0
 73
     1
 44
1.0
  0
SPLINE
  5
14F
330
1F
100
AcDbEntity
  8
VPORT-BORDERS
 62
     7
100
AcDbSpline
210
0.0
220
0.0
230
1.0
 70
     8
 71
     3
 72
    11
 73
     7
 74
     0
 42
0.0000000001
 43
0.0000000001
 40
2.304705974873762
 40
2.304705974873762
 40
2.304705974873762
 40
2.304705974873762
 40
3.0
 40
3.0
 40
3.0
 40
4.0
 40
4.0
 40
4.0
 40
4.0
 10
82.99997600000006
 20
64.10702600000002
 30
0.0
 10
82.99997600000006
 20
89.2384711416293
 30
0.0
 10
82.99997600000006
 20
123.2469773913083
 30
0.0
 10
82.99997600000006
 20
128.1526630130323
 30
0.0
 10
82.99997600000006
 20
135.2082185685878
 30
0.0
 10
82.25652439409731
 20
142.428621943154
 30
0.0
 10
79.25791328298612
 20
148.4258441653762
 30
0.0
  0
SPLINE
  5
152
330
1F
100
AcDbEntity
  8
VPORT-BORDERS
 62
     7
100
AcDbSpline
210
0.0
220
0.0
230
1.0
 70
     8
 71
     3
 72
    11
 73
     7
 74
     0
 42
0.0000000001
 43
0.0000000001
 40
2.313747806806034
 40
2.313747806806034
 40
2.313747806806034
 40
2.313747806806034
 40
3.0
 40
3.0
 40
3.0
 40
4.0
 40
4.0
 40
4.0
 40
4.0
 10
85.49997600000006
 20
64.10702599999996
 30
0.0
 10
85.49997600000006
 20
87.88698595339438
 30
0.0
 10
85.49997600000006
 20
119.0936934685538
 30
0.0
 10
85.49997600000006
 20
123.9355839427557
 30
0.0
 10
85.49997600000006
 20
130.9911394983112
 30
0.0
 10
84.75652439409731
 20
138.2115428728774
 30
0.0
 10
81.75791328298613
 20
144.2087650950995
 30
0.0
  0
SPLINE
  5
153
330
1F
100
AcDbEntity
  8
VPORT-BORDERS
 62
     7
100
AcDbSpline
210
0.0
220
0.0
230
1.0
 70
     8
 71
     3
 72
    11
 73
     7
 74
     0
 42
0.0000000001
 43
0.0000000001
 40
2.322520685202372
 40
2.322520685202372
 40
2.322520685202372
 40
2.322520685202372
 40
3.0
 40
3.0
 40
3.0
 40
4.0
 40
4.0
 40
4.0
 40
4.0
 10
87.79997600000006
 20
64.10702600000002
 30
0.0
 10
87.79997600000006
 20
86.65844839259884
 30
0.0
 10
87.79997600000006
 20
115.4180213499717
 30
0.0
 10
87.79997600000006
 20
120.1980142932662
 30
0.0
 10
87.79997600000006
 20
127.2535698488215
 30
0.0
 10
87.05652439409732
 20
134.4739732233878
 30
0.0
 10
84.05791328298613
 20
140.4711954456101
 30
0.0
  0
SPLINE
  5
154
330
1F
100
AcDbEntity
  8
VPORT-BORDERS
 62
     7
100
AcDbSpline
210
0.0
220
0.0
230
1.0
 70
     8
 71
     3
 72
    11
 73
     7
 74
     0
 42
0.0000000001
 43
0.0000000001
 40
2.330680195813529
 40
2.330680195813529
 40
2.330680195813529
 40
2.330680195813529
 40
3.0
 40
3.0
 40
3.0
 40
4.0
 40
4.0
 40
4.0
 40
4.0
 10
89.69997600000011
 20
64.10702599999999
 30
0.0
 10
89.69997600000011
 20
85.6381282429738
 30
0.0
 10
89.69997600000011
 20
112.4170670854753
 30
0.0
 10
89.69997600000011
 20
117.1394901483465
 30
0.0
 10
89.69997600000011
 20
124.1950457039021
 30
0.0
 10
88.9565243940973
 20
131.4154490784683
 30
0.0
 10
85.95791328298611
 20
137.4126713006905
 30
0.0
  0
SPLINE
  5
155
330
1F
100
AcDbEntity
  8
VPORT-BORDERS
 62
     7
100
AcDbSpline
210
0.0
220
0.0
230
1.0
 70
     8
 71
     3
 72
    11
 73
     7
 74
     0
 42
0.0000000001
 43
0.0000000001
 40
2.338923716294731
 40
2.338923716294731
 40
2.338923716294731
 40
2.338923716294731
 40
3.0
 40
3.0
 40
3.0
 40
4.0
 40
4.0
 40
4.0
 40
4.0
 10
91.49997600000006
 20
64.10702599999999
 30
0.0
 10
91.49997600000006
 20
84.64076638285883
 30
0.0
 10
91.49997600000006
 20
109.5010683919082
 30
0.0
 10
91.49997600000006
 20
114.165328838051
 30
0.0
 10
91.49997600000006
 20
121.2208843936065
 30
0.0
 10
90.75652439409731
 20
128.4412877681727
 30
0.0
 10
87.75791328298613
 20
134.4385099903949
 30
0.0
  0
SPLINE
  5
18B
330
1F
100
AcDbEntity
  8
VPORT-BORDERS
 62
     7
100
AcDbSpline
210
0.0
220
0.0
230
1.0
 70
     8
 71
     3
 72
    23
 73
    19
 74
     0
 42
0.0000000001
 43
0.0000000001
 40
0.0
 40
0.0
 40
0.0
 40
0.0
 40
1.0
 40
1.0
 40
1.0
 40
2.0
 40
2.0
 40
2.0
 40
3.0
 40
3.0
 40
3.0
 40
4.0
 40
4.0
 40
4.0
 40
5.0
 40
5.0
 40
5.0
 40
6.0
 40
6.0
 40
6.0
 40
6.0
 10
48.7045211423611
 20
260.3661922447914
 30
0.0
 10
48.7045211423611
 20
260.3661922447914
 30
0.0
 10
48.7045211423611
 20
254.8099422447914
 30
0.0
 10
48.7045211423611
 20
247.2252200225692
 30
0.0
 10
48.7045211423611
 20
234.6134144670136
 30
0.0
 10
52.39077331250001
 20
220.1820817304686
 30
0.0
 10
54.20771667187501
 20
213.1821644670138
 30
0.0
 10
59.58757778298618
 20
192.4564700225694
 30
0.0
 10
71.9957781953126
 20
161.5980607343749
 30
0.0
 10
77.22336608593749
 20
152.2282622860243
 30
0.0
 10
87.84425096006954
 20
133.1898033559027
 30
0.0
 10
93.55415221875
 20
128.4273033559026
 30
0.0
 10
93.55415221875
 20
115.198136689236
 30
0.0
 10
93.55415221875
 20
101.9689700225692
 30
0.0
 10
93.55415221875
 20
43.51224530468738
 30
0.0
 10
93.55415221875
 20
31.34141197135409
 30
0.0
 10
93.55415221875
 20
19.17057863802068
 30
0.0
 10
107.0368779131945
 20
13.06897002256929
 30
0.0
 10
122.5832158038193
 20
13.06897002256929
 30
0.0
  0
SPLINE
  5
18E
330
1F
100
AcDbEntity
  8
VPORT-BORDERS
 62
     7
100
AcDbSpline
210
0.0
220
0.0
230
1.0
 70
     8
 71
     3
 72
    11
 73
     7
 74
     0
 42
0.0000000001
 43
0.0000000001
 40
4.367790495479672
 40
4.367790495479672
 40
4.367790495479672
 40
4.367790495479672
 40
5.0
 40
5.0
 40
5.0
 40
6.0
 40
6.0
 40
6.0
 40
6.0
 10
91.499976
 20
86.80055899999993
 30
0.0
 10
91.499976
 20
65.23040004464445
 30
0.0
 10
91.499976
 20
39.03592848262022
 30
0.0
 10
91.499976
 20
31.34141197135409
 30
0.0
 10
91.499976
 20
19.17057863802068
 30
0.0
 10
104.9827016944445
 20
13.06897002256929
 30
0.0
 10
120.5290395850693
 20
13.06897002256929
 30
0.0
  0
SPLINE
  5
18F
330
1F
100
AcDbEntity
  8
VPORT-BORDERS
 62
     7
100
AcDbSpline
210
0.0
220
0.0
230
1.0
 70
     8
 71
     3
 72
    11
 73
     7
 74
     0
 42
0.0000000001
 43
0.0000000001
 40
4.367790495479672
 40
4.367790495479672
 40
4.367790495479672
 40
4.367790495479672
 40
5.0
 40
5.0
 40
5.0
 40
6.0
 40
6.0
 40
6.0
 40
6.0
 10
89.69997600000004
 20
86.80055899999993
 30
0.0
 10
89.69997600000004
 20
65.23040004464445
 30
0.0
 10
89.69997600000004
 20
39.03592848262022
 30
0.0
 10
89.69997600000004
 20
31.34141197135409
 30
0.0
 10
89.69997600000004
 20
19.17057863802068
 30
0.0
 10
103.1827016944445
 20
13.06897002256929
 30
0.0
 10
118.7290395850694
 20
13.06897002256929
 30
0.0
  0
SPLINE
  5
190
330
1F
100
AcDbEntity
  8
VPORT-BORDERS
 62
     7
100
AcDbSpline
210
0.0
220
0.0
230
1.0
 70
     8
 71
     3
 72
    11
 73
     7
 74
     0
 42
0.0000000001
 43
0.0000000001
 40
4.367790495480394
 40
4.367790495480394
 40
4.367790495480394
 40
4.367790495480394
 40
5.0
 40
5.0
 40
5.0
 40
6.0
 40
6.0
 40
6.0
 40
6.0
 10
87.79997600000001
 20
86.80055899999999
 30
0.0
 10
87.79997600000001
 20
65.23040004465855
 30
0.0
 10
87.79997600000001
 20
39.03592848268536
 30
0.0
 10
87.79997600000001
 20
31.34141197142804
 30
0.0
 10
87.79997600000001
 20
19.17057863809463
 30
0.0
 10
101.2827016944445
 20
13.06897002264324
 30
0.0
 10
116.8290395850693
 20
13.06897002264324
 30
0.0
  0
SPLINE
  5
191
330
1F
100
AcDbEntity
  8
VPORT-BORDERS
 62
     7
100
AcDbSpline
210
0.0
220
0.0
230
1.0
 70
     8
 71
     3
 72
    11
 73
     7
 74
     0
 42
0.0000000001
 43
0.0000000001
 40
4.367790495479671
 40
4.367790495479671
 40
4.367790495479671
 40
4.367790495479671
 40
5.0
 40
5.0
 40
5.0
 40
6.0
 40
6.0
 40
6.0
 40
6.0
 10
85.49997600000001
 20
86.80055900000002
 30
0.0
 10
85.49997600000001
 20
65.23040004464451
 30
0.0
 10
85.49997600000001
 20
39.03592848262019
 30
0.0
 10
85.49997600000001
 20
31.34141197135406
 30
0.0
 10
85.49997600000001
 20
19.17057863802065
 30
0.0
 10
98.86098258507031
 20
13.56420020446361
 30
0.0
 10
114.5290395850693
 20
13.06897002256926
 30
0.0
  0
SPLINE
  5
192
330
1F
100
AcDbEntity
  8
VPORT-BORDERS
 62
     7
100
AcDbSpline
210
0.0
220
0.0
230
1.0
 70
     8
 71
     3
 72
    11
 73
     7
 74
     0
 42
0.0000000001
 43
0.0000000001
 40
4.369772869345716
 40
4.369772869345716
 40
4.369772869345716
 40
4.369772869345716
 40
5.0
 40
5.0
 40
5.0
 40
6.0
 40
6.0
 40
6.0
 40
6.0
 10
83.00419661674068
 20
86.80055900000004
 30
0.0
 10
83.00419661674068
 20
65.4715523455628
 30
0.0
 10
83.00419661674068
 20
39.96386336769487
 30
0.0
 10
83.00419661674068
 20
33.77227199999998
 30
0.0
 10
83.44332088290519
 20
19.28062918807731
 30
0.0
 10
96.40432276182236
 20
14.41107902711687
 30
0.0
 10
112.03326020181
 20
13.15337759032536
 30
0.0
  0
VIEWPORT
  5
71
330
55
100
AcDbEntity
 67
     1
  8
0
100
AcDbViewport
 10
133.3499908447265
 20
101.5999970436096
 30
0.0
 40
381.3957395593833
 41
218.2856291881582
 68
     1
 69
     1
 12
133.3499908447265
 22
101.5999970436096
 13
0.0
 23
0.0
 14
10.0
 24
10.0
 15
10.0
 25
10.0
 16
0.0
 26
0.0
 36
1.0
 17
0.0
 27
0.0
 37
0.0
 42
50.0
 43
0.0
 44
0.0
 45
218.2856291881582
 50
0.0
 51
0.0
 72
   100
 90
    32800
  1

281
     0
 71
     1
 74
     0
110
0.0
120
0.0
130
0.0
111
1.0
121
0.0
131
0.0
112
0.0
122
1.0
132
0.0
 79
     0
146
0.0
  0
VIEWPORT
  5
73
330
55
100
AcDbEntity
 67
     1
  8
0
100
AcDbViewport
 10
133.3499939441677
 20
101.5999939441678
 30
0.0
 40
213.3599903106689
 41
162.5599903106689
 68
     2
 69
     2
 12
210.0
 22
148.5
 13
0.0
 23
0.0
 14
10.0
 24
10.0
 15
10.0
 25
10.0
 16
0.0
 26
0.0
 36
1.0
 17
0.0
 27
0.0
 37
0.0
 42
50.0
 43
0.0
 44
0.0
 45
324.0677920111345
 50
0.0
 51
0.0
 72
   100
 90
    32864
  1

281
     0
 71
     1
 74
     0
110
0.0
120
0.0
130
0.0
111
1.0
121
0.0
131
0.0
112
0.0
122
1.0
132
0.0
 79
     0
146
0.0
  0
ENDSEC
  0
SECTION
  2
OBJECTS
  0
DICTIONARY
  5
C
330
0
100
AcDbDictionary
281
     1
  3
ACAD_GROUP
350
D
  3
ACAD_LAYOUT
350
1A
  3
ACAD_MLINESTYLE
350
17
  3
ACAD_PLOTSETTINGS
350
19
  3
ACAD_PLOTSTYLENAME
350
E
  3
ACDBHEADERROUNDTRIPXREC
350
194
  3
AcDbVariableDictionary
350
5E
  0
DICTIONARY
  5
D
102
{ACAD_REACTORS
330
C
102
}
330
C
100
AcDbDictionary
281
     1
  0
DICTIONARY
  5
1A
102
{ACAD_REACTORS
330
C
102
}
330
C
100
AcDbDictionary
281
     1
  3
Model
350
22
  3
ﾚｲｱｳﾄ1
350
51
  3
ﾚｲｱｳﾄ2
350
56
  0
DICTIONARY
  5
17
102
{ACAD_REACTORS
330
C
102
}
330
C
100
AcDbDictionary
281
     1
  3
Standard
350
18
  0
DICTIONARY
  5
19
102
{ACAD_REACTORS
330
C
102
}
330
C
100
AcDbDictionary
281
     1
  0
ACDBDICTIONARYWDFLT
  5
E
102
{ACAD_REACTORS
330
C
102
}
330
C
100
AcDbDictionary
281
     1
  3
Normal
350
F
100
AcDbDictionaryWithDefault
340
F
  0
DICTIONARY
  5
194
102
{ACAD_REACTORS
330
C
102
}
330
C
100
AcDbDictionary
281
     1
  3
CEPSNTYPE
350
19E
  3
DIMSTYLEDATA
350
1A2
  3
FINGERPRINTGUID
350
19F
  3
HYPERLINKBASE
350
197
  3
INSUNITS
350
19D
  3
LAYOUTDICT
350
199
  3
LWETCUNION
350
19C
  3
PLOTSETDICT
350
19A
  3
PLOTSTYLNAMDICT
350
19B
  3
PSVPSCALE
350
1A1
  3
PUCSBASE
350
1A5
  3
PUCSORGBACK
350
1AB
  3
PUCSORGBOTTOM
350
1A7
  3
PUCSORGFRONT
350
1AA
  3
PUCSORGLEFT
350
1A8
  3
PUCSORGRIGHT
350
1A9
  3
PUCSORGTOP
350
1A6
  3
PUCSORTHOREF
350
1A3
  3
PUCSORTHOVIEW
350
1A4
  3
STYLESHEET
350
198
  3
TSTACKALIGN
350
195
  3
TSTACKSIZE
350
196
  3
UCSBASE
350
1AE
  3
UCSORGBACK
350
1B4
  3
UCSORGBOTTOM
350
1B0
  3
UCSORGFRONT
350
1B3
  3
UCSORGLEFT
350
1B1
  3
UCSORGRIGHT
350
1B2
  3
UCSORGTOP
350
1AF
  3
UCSORTHOREF
350
1AC
  3
UCSORTHOVIEW
350
1AD
  3
VERSIONGUID
350
1A0
  0
DICTIONARY
  5
5E
102
{ACAD_REACTORS
330
C
102
}
330
C
100
AcDbDictionary
281
     1
  3
DIMASSOC
350
5F
  3
HIDETEXT
350
63
  0
LAYOUT
  5
22
102
{ACAD_REACTORS
330
1A
102
}
330
1A
100
AcDbPlotSettings
  1

  2
none_device
  4
ANSI_A_(8.50_x_11.00_Inches)
  6

 40
6.349999904632567
 41
19.04999923706053
 42
6.350006103515625
 43
19.04998779296875
 44
215.8999938964841
 45
279.3999938964843
 46
0.0
 47
0.0
 48
0.0
 49
0.0
140
0.0
141
0.0
142
1.0
143
78.436453180766
 70
 11952
 72
     0
 73
     1
 74
     0
  7

 75
     0
147
0.0127491741332998
148
0.0
149
0.0
100
AcDbLayout
  1
Model
 70
     1
 71
     0
 10
0.0
 20
0.0
 11
12.0
 21
9.0
 12
0.0
 22
0.0
 32
0.0
 14
0.0
 24
0.0
 34
0.0
 15
0.0
 25
0.0
 35
0.0
146
0.0
 13
0.0
 23
0.0
 33
0.0
 16
1.0
 26
0.0
 36
0.0
 17
0.0
 27
1.0
 37
0.0
 76
     0
330
1F
  0
LAYOUT
  5
51
102
{ACAD_REACTORS
330
1A
102
}
330
1A
100
AcDbPlotSettings
  1

  2
none_device
  4
Letter_(8.50_x_11.00_Inches)
  6

 40
6.349999904632567
 41
6.349999904632567
 42
6.350006103515625
 43
6.350006103515625
 44
215.8999938964841
 45
279.3999938964843
 46
0.0
 47
0.0
 48
0.0
 49
0.0
140
0.0
141
0.0
142
1.0
143
1.0
 70
   688
 72
     1
 73
     1
 74
     5
  7

 75
    16
147
1.0
148
0.0
149
0.0
100
AcDbLayout
  1
ﾚｲｱｳﾄ1
 70
     1
 71
     1
 10
-6.350006103515625
 20
-6.349999904632567
 11
273.0499877929687
 21
209.5499939918517
 12
0.0
 22
0.0
 32
0.0
 14
26.66076962115562
 24
20.31135699206657
 34
-0.0015258207003583
 15
240.039213369355
 25
182.8886381005154
 35
0.0000000349246037
146
0.0
 13
0.0
 23
0.0
 33
0.0
 16
1.0
 26
0.0
 36
0.0
 17
0.0
 27
1.0
 37
0.0
 76
     0
330
50
331
6B
  0
LAYOUT
  5
56
102
{ACAD_REACTORS
330
1A
102
}
330
1A
100
AcDbPlotSettings
  1

  2
none_device
  4
Letter_(8.50_x_11.00_Inches)
  6

 40
6.349999904632567
 41
6.349999904632567
 42
6.350006103515625
 43
6.350006103515625
 44
215.8999938964841
 45
279.3999938964843
 46
0.0
 47
0.0
 48
0.0
 49
0.0
140
0.0
141
0.0
142
1.0
143
1.0
 70
   688
 72
     1
 73
     1
 74
     5
  7

 75
    16
147
1.0
148
0.0
149
0.0
100
AcDbLayout
  1
ﾚｲｱｳﾄ2
 70
     1
 71
     2
 10
-6.350006103515625
 20
-6.349999904632567
 11
273.0499877929687
 21
209.5499939918517
 12
0.0
 22
0.0
 32
0.0
 14
26.66076962115562
 24
20.31135699206657
 34
-0.0015258207003583
 15
240.039213369355
 25
182.8886381005154
 35
0.0000000349246037
146
0.0
 13
0.0
 23
0.0
 33
0.0
 16
1.0
 26
0.0
 36
0.0
 17
0.0
 27
1.0
 37
0.0
 76
     0
330
55
331
71
  0
MLINESTYLE
  5
18
102
{ACAD_REACTORS
330
17
102
}
330
17
100
AcDbMlineStyle
  2
STANDARD
 70
     0
  3

 62
   256
 51
90.0
 52
90.0
 71
     2
 49
0.5
 62
   256
  6
BYLAYER
 49
-0.5
 62
   256
  6
BYLAYER
  0
ACDBPLACEHOLDER
  5
F
102
{ACAD_REACTORS
330
E
102
}
330
E
  0
XRECORD
  5
19E
102
{ACAD_REACTORS
330
194
102
}
330
194
100
AcDbXrecord
280
     1
 90
        0
  0
XRECORD
  5
1A2
102
{ACAD_REACTORS
330
194
102
}
330
194
100
AcDbXrecord
280
     1
1000
DSTYLE
1002
{
1070
   278
 70
    44
1002
}
  0
XRECORD
  5
19F
102
{ACAD_REACTORS
330
194
102
}
330
194
100
AcDbXrecord
280
     1
  1
{FDEAD578-A652-11D2-9A35-0060089B3A3F}
  0
XRECORD
  5
197
102
{ACAD_REACTORS
330
194
102
}
330
194
100
AcDbXrecord
280
     1
  1

  0
XRECORD
  5
19D
102
{ACAD_REACTORS
330
194
102
}
330
194
100
AcDbXrecord
280
     1
 90
        4
  0
XRECORD
  5
199
102
{ACAD_REACTORS
330
194
102
}
330
194
100
AcDbXrecord
280
     1
340
1A
  0
XRECORD
  5
19C
102
{ACAD_REACTORS
330
194
102
}
330
194
100
AcDbXrecord
280
     1
 90
    10781
  0
XRECORD
  5
19A
102
{ACAD_REACTORS
330
194
102
}
330
194
100
AcDbXrecord
280
     1
340
19
  0
XRECORD
  5
19B
102
{ACAD_REACTORS
330
194
102
}
330
194
100
AcDbXrecord
280
     1
340
E
  0
XRECORD
  5
1A1
102
{ACAD_REACTORS
330
194
102
}
330
194
100
AcDbXrecord
280
     1
 40
0.0
  0
XRECORD
  5
1A5
102
{ACAD_REACTORS
330
194
102
}
330
194
100
AcDbXrecord
280
     1
340
0
  0
XRECORD
  5
1AB
102
{ACAD_REACTORS
330
194
102
}
330
194
100
AcDbXrecord
280
     1
 10
0.0
 20
0.0
 30
0.0
  0
XRECORD
  5
1A7
102
{ACAD_REACTORS
330
194
102
}
330
194
100
AcDbXrecord
280
     1
 10
0.0
 20
0.0
 30
0.0
  0
XRECORD
  5
1AA
102
{ACAD_REACTORS
330
194
102
}
330
194
100
AcDbXrecord
280
     1
 10
0.0
 20
0.0
 30
0.0
  0
XRECORD
  5
1A8
102
{ACAD_REACTORS
330
194
102
}
330
194
100
AcDbXrecord
280
     1
 10
0.0
 20
0.0
 30
0.0
  0
XRECORD
  5
1A9
102
{ACAD_REACTORS
330
194
102
}
330
194
100
AcDbXrecord
280
     1
 10
0.0
 20
0.0
 30
0.0
  0
XRECORD
  5
1A6
102
{ACAD_REACTORS
330
194
102
}
330
194
100
AcDbXrecord
280
     1
 10
0.0
 20
0.0
 30
0.0
  0
XRECORD
  5
1A3
102
{ACAD_REACTORS
330
194
102
}
330
194
100
AcDbXrecord
280
     1
340
0
  0
XRECORD
  5
1A4
102
{ACAD_REACTORS
330
194
102
}
330
194
100
AcDbXrecord
280
     1
 70
     0
  0
XRECORD
  5
198
102
{ACAD_REACTORS
330
194
102
}
330
194
100
AcDbXrecord
280
     1
  1

  0
XRECORD
  5
195
102
{ACAD_REACTORS
330
194
102
}
330
194
100
AcDbXrecord
280
     1
 90
        1
  0
XRECORD
  5
196
102
{ACAD_REACTORS
330
194
102
}
330
194
100
AcDbXrecord
280
     1
 90
       70
  0
XRECORD
  5
1AE
102
{ACAD_REACTORS
330
194
102
}
330
194
100
AcDbXrecord
280
     1
340
0
  0
XRECORD
  5
1B4
102
{ACAD_REACTORS
330
194
102
}
330
194
100
AcDbXrecord
280
     1
 10
0.0
 20
0.0
 30
0.0
  0
XRECORD
  5
1B0
102
{ACAD_REACTORS
330
194
102
}
330
194
100
AcDbXrecord
280
     1
 10
0.0
 20
0.0
 30
0.0
  0
XRECORD
  5
1B3
102
{ACAD_REACTORS
330
194
102
}
330
194
100
AcDbXrecord
280
     1
 10
0.0
 20
0.0
 30
0.0
  0
XRECORD
  5
1B1
102
{ACAD_REACTORS
330
194
102
}
330
194
100
AcDbXrecord
280
     1
 10
0.0
 20
0.0
 30
0.0
  0
XRECORD
  5
1B2
102
{ACAD_REACTORS
330
194
102
}
330
194
100
AcDbXrecord
280
     1
 10
0.0
 20
0.0
 30
0.0
  0
XRECORD
  5
1AF
102
{ACAD_REACTORS
330
194
102
}
330
194
100
AcDbXrecord
280
     1
 10
0.0
 20
0.0
 30
0.0
  0
XRECORD
  5
1AC
102
{ACAD_REACTORS
330
194
102
}
330
194
100
AcDbXrecord
280
     1
340
0
  0
XRECORD
  5
1AD
102
{ACAD_REACTORS
330
194
102
}
330
194
100
AcDbXrecord
280
     1
 70
     0
  0
XRECORD
  5
1A0
102
{ACAD_REACTORS
330
194
102
}
330
194
100
AcDbXrecord
280
     1
  1
{5E2EF885-C857-4879-9D65-546C1AB922D2}
  0
DICTIONARYVAR
  5
5F
102
{ACAD_REACTORS
330
5E
102
}
330
5E
100
DictionaryVariables
280
     0
  1
2
  0
DICTIONARYVAR
  5
63
102
{ACAD_REACTORS
330
5E
102
}
330
5E
100
DictionaryVariables
280
     0
  1
1
  0
ENDSEC
  0
EOF
