  0
SECTION
  2
HEADER
  9
$ACADVER
  1
AC1015
  9
$ACADMAINTVER
 70
    10
  9
$DWGCODEPAGE
  3
ANSI_932
  9
$INSBASE
 10
0.0
 20
0.0
 30
0.0
  9
$EXTMIN
 10
174.4958507904036
 20
55.62031519188622
 30
-0.0000000000000058
  9
$EXTMAX
 10
379.6380624543387
 20
330.8192112211264
 30
0.0000000000000104
  9
$LIMMIN
 10
0.0
 20
0.0
  9
$LIMMAX
 10
420.0
 20
297.0
  9
$ORTHOMODE
 70
     1
  9
$REGENMODE
 70
     1
  9
$FILLMODE
 70
     1
  9
$QTEXTMODE
 70
     0
  9
$MIRRTEXT
 70
     1
  9
$LTSCALE
 40
1.0
  9
$ATTMODE
 70
     1
  9
$TEXTSIZE
 40
2.5
  9
$TRACEWID
 40
1.0
  9
$TEXTSTYLE
  7
Standard
  9
$CLAYER
  8
0
  9
$CELTYPE
  6
ByLayer
  9
$CECOLOR
 62
   256
  9
$CELTSCALE
 40
1.0
  9
$DISPSILH
 70
     0
  9
$DIMSCALE
 40
1.0
  9
$DIMASZ
 40
2.5
  9
$DIMEXO
 40
0.625
  9
$DIMDLI
 40
3.75
  9
$DIMRND
 40
0.0
  9
$DIMDLE
 40
0.0
  9
$DIMEXE
 40
1.25
  9
$DIMTP
 40
0.0
  9
$DIMTM
 40
0.0
  9
$DIMTXT
 40
2.5
  9
$DIMCEN
 40
2.5
  9
$DIMTSZ
 40
0.0
  9
$DIMTOL
 70
     0
  9
$DIMLIM
 70
     0
  9
$DIMTIH
 70
     0
  9
$DIMTOH
 70
     0
  9
$DIMSE1
 70
     0
  9
$DIMSE2
 70
     0
  9
$DIMTAD
 70
     1
  9
$DIMZIN
 70
     8
  9
$DIMBLK
  1

  9
$DIMASO
 70
     1
  9
$DIMSHO
 70
     1
  9
$DIMPOST
  1

  9
$DIMAPOST
  1

  9
$DIMALT
 70
     0
  9
$DIMALTD
 70
     3
  9
$DIMALTF
 40
0.03937007874016
  9
$DIMLFAC
 40
1.0
  9
$DIMTOFL
 70
     1
  9
$DIMTVP
 40
0.0
  9
$DIMTIX
 70
     0
  9
$DIMSOXD
 70
     0
  9
$DIMSAH
 70
     0
  9
$DIMBLK1
  1

  9
$DIMBLK2
  1

  9
$DIMSTYLE
  2
ISO-25
  9
$DIMCLRD
 70
     0
  9
$DIMCLRE
 70
     0
  9
$DIMCLRT
 70
     0
  9
$DIMTFAC
 40
1.0
  9
$DIMGAP
 40
0.625
  9
$DIMJUST
 70
     0
  9
$DIMSD1
 70
     0
  9
$DIMSD2
 70
     0
  9
$DIMTOLJ
 70
     0
  9
$DIMTZIN
 70
     8
  9
$DIMALTZ
 70
     0
  9
$DIMALTTZ
 70
     0
  9
$DIMUPT
 70
     0
  9
$DIMDEC
 70
     2
  9
$DIMTDEC
 70
     2
  9
$DIMALTU
 70
     2
  9
$DIMALTTD
 70
     3
  9
$DIMTXSTY
  7
Standard
  9
$DIMAUNIT
 70
     0
  9
$DIMADEC
 70
     0
  9
$DIMALTRND
 40
0.0
  9
$DIMAZIN
 70
     0
  9
$DIMDSEP
 70
    44
  9
$DIMATFIT
 70
     3
  9
$DIMFRAC
 70
     0
  9
$DIMLDRBLK
  1

  9
$DIMLUNIT
 70
     2
  9
$DIMLWD
 70
    -2
  9
$DIMLWE
 70
    -2
  9
$DIMTMOVE
 70
     0
  9
$LUNITS
 70
     2
  9
$LUPREC
 70
     4
  9
$SKETCHINC
 40
1.0
  9
$FILLETRAD
 40
0.0
  9
$AUNITS
 70
     0
  9
$AUPREC
 70
     0
  9
$MENU
  1
.
  9
$ELEVATION
 40
0.0
  9
$PELEVATION
 40
0.0
  9
$THICKNESS
 40
0.0
  9
$LIMCHECK
 70
     0
  9
$CHAMFERA
 40
10.0
  9
$CHAMFERB
 40
10.0
  9
$CHAMFERC
 40
20.0
  9
$CHAMFERD
 40
0.0
  9
$SKPOLY
 70
     0
  9
$TDCREATE
 40
2453249.546734120
  9
$TDUCREATE
 40
2453249.171734120
  9
$TDUPDATE
 40
2454882.594551863
  9
$TDUUPDATE
 40
2454882.219551863
  9
$TDINDWG
 40
0.0436279282
  9
$TDUSRTIMER
 40
0.0436273843
  9
$USRTIMER
 70
     1
  9
$ANGBASE
 50
0.0
  9
$ANGDIR
 70
     0
  9
$PDMODE
 70
     0
  9
$PDSIZE
 40
0.0
  9
$PLINEWID
 40
0.0
  9
$SPLFRAME
 70
     0
  9
$SPLINETYPE
 70
     6
  9
$SPLINESEGS
 70
     8
  9
$HANDSEED
  5
299
  9
$SURFTAB1
 70
     6
  9
$SURFTAB2
 70
     6
  9
$SURFTYPE
 70
     6
  9
$SURFU
 70
     6
  9
$SURFV
 70
     6
  9
$UCSBASE
  2

  9
$UCSNAME
  2

  9
$UCSORG
 10
0.0
 20
0.0
 30
0.0
  9
$UCSXDIR
 10
1.0
 20
0.0
 30
0.0
  9
$UCSYDIR
 10
0.0
 20
1.0
 30
0.0
  9
$UCSORTHOREF
  2

  9
$UCSORTHOVIEW
 70
     0
  9
$UCSORGTOP
 10
0.0
 20
0.0
 30
0.0
  9
$UCSORGBOTTOM
 10
0.0
 20
0.0
 30
0.0
  9
$UCSORGLEFT
 10
0.0
 20
0.0
 30
0.0
  9
$UCSORGRIGHT
 10
0.0
 20
0.0
 30
0.0
  9
$UCSORGFRONT
 10
0.0
 20
0.0
 30
0.0
  9
$UCSORGBACK
 10
0.0
 20
0.0
 30
0.0
  9
$PUCSBASE
  2

  9
$PUCSNAME
  2

  9
$PUCSORG
 10
0.0
 20
0.0
 30
0.0
  9
$PUCSXDIR
 10
1.0
 20
0.0
 30
0.0
  9
$PUCSYDIR
 10
0.0
 20
1.0
 30
0.0
  9
$PUCSORTHOREF
  2

  9
$PUCSORTHOVIEW
 70
     0
  9
$PUCSORGTOP
 10
0.0
 20
0.0
 30
0.0
  9
$PUCSORGBOTTOM
 10
0.0
 20
0.0
 30
0.0
  9
$PUCSORGLEFT
 10
0.0
 20
0.0
 30
0.0
  9
$PUCSORGRIGHT
 10
0.0
 20
0.0
 30
0.0
  9
$PUCSORGFRONT
 10
0.0
 20
0.0
 30
0.0
  9
$PUCSORGBACK
 10
0.0
 20
0.0
 30
0.0
  9
$USERI1
 70
     0
  9
$USERI2
 70
     0
  9
$USERI3
 70
     0
  9
$USERI4
 70
     0
  9
$USERI5
 70
     0
  9
$USERR1
 40
0.0
  9
$USERR2
 40
0.0
  9
$USERR3
 40
0.0
  9
$USERR4
 40
0.0
  9
$USERR5
 40
0.0
  9
$WORLDVIEW
 70
     1
  9
$SHADEDGE
 70
     3
  9
$SHADEDIF
 70
    70
  9
$TILEMODE
 70
     1
  9
$MAXACTVP
 70
    64
  9
$PINSBASE
 10
0.0
 20
0.0
 30
0.0
  9
$PLIMCHECK
 70
     0
  9
$PEXTMIN
 10
26.66076962115562
 20
20.31135699206657
 30
-0.0015258207003583
  9
$PEXTMAX
 10
240.039213369355
 20
182.8886381005154
 30
0.0000000349246037
  9
$PLIMMIN
 10
-6.350006103515625
 20
-6.349999904632567
  9
$PLIMMAX
 10
273.0499877929687
 20
209.5499939918517
  9
$UNITMODE
 70
     0
  9
$VISRETAIN
 70
     1
  9
$PLINEGEN
 70
     0
  9
$PSLTSCALE
 70
     1
  9
$TREEDEPTH
 70
  3020
  9
$CMLSTYLE
  2
Standard
  9
$CMLJUST
 70
     0
  9
$CMLSCALE
 40
20.0
  9
$PROXYGRAPHICS
 70
     1
  9
$MEASUREMENT
 70
     1
  9
$CELWEIGHT
370
    -1
  9
$ENDCAPS
280
     0
  9
$JOINSTYLE
280
     0
  9
$LWDISPLAY
290
     0
  9
$INSUNITS
 70
     4
  9
$HYPERLINKBASE
  1

  9
$STYLESHEET
  1

  9
$XEDIT
290
     1
  9
$CEPSNTYPE
380
     0
  9
$PSTYLEMODE
290
     1
  9
$FINGERPRINTGUID
  2
{FDEAD578-A652-11D2-9A35-0060089B3A3F}
  9
$VERSIONGUID
  2
{986D19CB-EC43-426E-B030-C4E4008A4807}
  9
$EXTNAMES
290
     1
  9
$PSVPSCALE
 40
0.0
  9
$OLESTARTUP
290
     0
  0
ENDSEC
  0
SECTION
  2
CLASSES
  0
CLASS
  1
ACDBDICTIONARYWDFLT
  2
AcDbDictionaryWithDefault
  3
AutoCAD 2000
 90
        0
280
     0
281
     0
  0
CLASS
  1
ACDBPLACEHOLDER
  2
AcDbPlaceHolder
  3
AutoCAD 2000
 90
        0
280
     0
281
     0
  0
CLASS
  1
LAYOUT
  2
AcDbLayout
  3
AutoCAD 2000
 90
        0
280
     0
281
     0
  0
CLASS
  1
DICTIONARYVAR
  2
AcDbDictionaryVar
  3
AutoCAD 2000
 90
        0
280
     0
281
     0
  0
ENDSEC
  0
SECTION
  2
TABLES
  0
TABLE
  2
VPORT
  5
8
330
0
100
AcDbSymbolTable
 70
     2
  0
VPORT
  5
277
330
8
100
AcDbSymbolTableRecord
100
AcDbViewportTableRecord
  2
*Active
 70
     0
 10
0.0
 20
0.0
 11
1.0
 21
1.0
 12
277.0669566223712
 22
193.2197632065063
 13
0.0
 23
0.0
 14
10.0
 24
10.0
 15
10.0
 25
10.0
 16
0.0
 26
0.0
 36
1.0
 17
0.0
 27
0.0
 37
0.0
 40
277.3715188926289
 41
1.550724637681159
 42
50.0
 43
0.0
 44
0.0
 50
0.0
 51
0.0
 71
     0
 72
   100
 73
     1
 74
     3
 75
     0
 76
     0
 77
     0
 78
     0
281
     0
 65
     1
110
0.0
120
0.0
130
0.0
111
1.0
121
0.0
131
0.0
112
0.0
122
1.0
132
0.0
 79
     0
146
0.0
  0
ENDTAB
  0
TABLE
  2
LTYPE
  5
5
330
0
100
AcDbSymbolTable
 70
     1
  0
LTYPE
  5
14
330
5
100
AcDbSymbolTableRecord
100
AcDbLinetypeTableRecord
  2
ByBlock
 70
     0
  3

 72
    65
 73
     0
 40
0.0
  0
LTYPE
  5
15
330
5
100
AcDbSymbolTableRecord
100
AcDbLinetypeTableRecord
  2
ByLayer
 70
     0
  3

 72
    65
 73
     0
 40
0.0
  0
LTYPE
  5
16
330
5
100
AcDbSymbolTableRecord
100
AcDbLinetypeTableRecord
  2
Continuous
 70
     0
  3
Solid line
 72
    65
 73
     0
 40
0.0
  0
ENDTAB
  0
TABLE
  2
LAYER
  5
2
330
0
100
AcDbSymbolTable
 70
     6
  0
LAYER
  5
10
330
2
100
AcDbSymbolTableRecord
100
AcDbLayerTableRecord
  2
0
 70
     0
 62
     7
  6
Continuous
370
    -3
390
F
  0
LAYER
  5
86
330
2
100
AcDbSymbolTableRecord
100
AcDbLayerTableRecord
  2
レイヤー_5
 70
     0
 62
     2
  6
Continuous
370
    -3
390
F
  0
LAYER
  5
87
330
2
100
AcDbSymbolTableRecord
100
AcDbLayerTableRecord
  2
VPORT-BORDERS
 70
     0
 62
     5
  6
Continuous
370
    -3
390
F
  0
LAYER
  5
BC
330
2
100
AcDbSymbolTableRecord
100
AcDbLayerTableRecord
  2
23
 70
     0
 62
     3
  6
Continuous
370
    -3
390
F
  0
LAYER
  5
BD
330
2
100
AcDbSymbolTableRecord
100
AcDbLayerTableRecord
  2
24
 70
     0
 62
     1
  6
Continuous
370
    -3
390
F
  0
LAYER
  5
BE
330
2
100
AcDbSymbolTableRecord
100
AcDbLayerTableRecord
  2
200
 70
     0
 62
     1
  6
Continuous
370
    -3
390
F
  0
ENDTAB
  0
TABLE
  2
STYLE
  5
3
330
0
100
AcDbSymbolTable
 70
     2
  0
STYLE
  5
11
330
3
100
AcDbSymbolTableRecord
100
AcDbTextStyleTableRecord
  2
Standard
 70
     0
 40
0.0
 41
1.0
 50
0.0
 71
     0
 42
2.5
  3
txt
  4

  0
STYLE
  5
88
330
3
100
AcDbSymbolTableRecord
100
AcDbTextStyleTableRecord
  2
STD
 70
     0
 40
0.0
 41
1.0
 50
0.0
 71
     0
 42
0.0
  3
txt
  4

  0
ENDTAB
  0
TABLE
  2
VIEW
  5
6
330
0
100
AcDbSymbolTable
 70
     0
  0
ENDTAB
  0
TABLE
  2
UCS
  5
7
330
0
100
AcDbSymbolTable
 70
     0
  0
ENDTAB
  0
TABLE
  2
APPID
  5
9
330
0
100
AcDbSymbolTable
 70
     1
  0
APPID
  5
12
330
9
100
AcDbSymbolTableRecord
100
AcDbRegAppTableRecord
  2
ACAD
 70
     0
  0
ENDTAB
  0
TABLE
  2
DIMSTYLE
  5
A
330
0
100
AcDbSymbolTable
 70
     2
100
AcDbDimStyleTable
 71
     0
  0
DIMSTYLE
105
27
330
A
100
AcDbSymbolTableRecord
100
AcDbDimStyleTableRecord
  2
ISO-25
 70
     0
 41
2.5
 42
0.625
 43
3.75
 44
1.25
 73
     0
 74
     0
 77
     1
 78
     8
140
2.5
141
2.5
143
0.03937007874016
147
0.625
171
     3
172
     1
271
     2
272
     2
274
     3
278
    44
283
     0
284
     8
340
11
  0
DIMSTYLE
105
89
330
A
100
AcDbSymbolTableRecord
100
AcDbDimStyleTableRecord
  2
Standard
 70
     0
340
11
  0
ENDTAB
  0
TABLE
  2
BLOCK_RECORD
  5
1
330
0
100
AcDbSymbolTable
 70
     3
  0
BLOCK_RECORD
  5
1F
330
1
100
AcDbSymbolTableRecord
100
AcDbBlockTableRecord
  2
*Model_Space
340
22
  0
BLOCK_RECORD
  5
55
330
1
100
AcDbSymbolTableRecord
100
AcDbBlockTableRecord
  2
*Paper_Space
340
56
  0
BLOCK_RECORD
  5
50
330
1
100
AcDbSymbolTableRecord
100
AcDbBlockTableRecord
  2
*Paper_Space0
340
51
  0
BLOCK_RECORD
  5
BF
330
1
100
AcDbSymbolTableRecord
100
AcDbBlockTableRecord
  2
A$C1D0A326F
340
0
102
{BLKREFS
331
146
102
}
  0
BLOCK_RECORD
  5
1EE
330
1
100
AcDbSymbolTableRecord
100
AcDbBlockTableRecord
  2
A$C5C041FE5
340
0
102
{BLKREFS
331
275
102
}
  0
ENDTAB
  0
ENDSEC
  0
SECTION
  2
BLOCKS
  0
BLOCK
  5
20
330
1F
100
AcDbEntity
  8
0
100
AcDbBlockBegin
  2
*Model_Space
 70
     0
 10
0.0
 20
0.0
 30
0.0
  3
*Model_Space
  1

  0
ENDBLK
  5
21
330
1F
100
AcDbEntity
  8
0
100
AcDbBlockEnd
  0
BLOCK
  5
57
330
55
100
AcDbEntity
 67
     1
  8
0
100
AcDbBlockBegin
  2
*Paper_Space
 70
     0
 10
0.0
 20
0.0
 30
0.0
  3
*Paper_Space
  1

  0
ENDBLK
  5
58
330
55
100
AcDbEntity
 67
     1
  8
0
100
AcDbBlockEnd
  0
BLOCK
  5
52
330
50
100
AcDbEntity
  8
0
100
AcDbBlockBegin
  2
*Paper_Space0
 70
     0
 10
0.0
 20
0.0
 30
0.0
  3
*Paper_Space0
  1

  0
VIEWPORT
  5
6B
330
50
100
AcDbEntity
  8
0
100
AcDbViewport
 10
133.3499908447265
 20
101.5999970436096
 30
0.0
 40
381.3957395593833
 41
218.2856291881582
 69
     0
 12
133.3499908447265
 22
101.5999970436096
 13
0.0
 23
0.0
 14
10.0
 24
10.0
 15
10.0
 25
10.0
 16
0.0
 26
0.0
 36
1.0
 17
0.0
 27
0.0
 37
0.0
 42
50.0
 43
0.0
 44
0.0
 45
218.2856291881582
 50
0.0
 51
0.0
 72
   100
 90
    32800
  1

281
     0
 71
     1
 74
     0
110
0.0
120
0.0
130
0.0
111
1.0
121
0.0
131
0.0
112
0.0
122
1.0
132
0.0
 79
     0
146
0.0
  0
VIEWPORT
  5
6D
330
50
100
AcDbEntity
  8
0
100
AcDbViewport
 10
133.3499939441677
 20
101.5999939441678
 30
0.0
 40
213.3599903106689
 41
162.5599903106689
 69
     0
 12
210.0
 22
148.5
 13
0.0
 23
0.0
 14
10.0
 24
10.0
 15
10.0
 25
10.0
 16
0.0
 26
0.0
 36
1.0
 17
0.0
 27
0.0
 37
0.0
 42
50.0
 43
0.0
 44
0.0
 45
324.0677920111345
 50
0.0
 51
0.0
 72
   100
 90
    32864
  1

281
     0
 71
     1
 74
     0
110
0.0
120
0.0
130
0.0
111
1.0
121
0.0
131
0.0
112
0.0
122
1.0
132
0.0
 79
     0
146
0.0
  0
ENDBLK
  5
53
330
50
100
AcDbEntity
  8
0
100
AcDbBlockEnd
  0
BLOCK
  5
144
330
BF
100
AcDbEntity
  8
0
100
AcDbBlockBegin
  2
A$C1D0A326F
 70
     0
 10
0.0
 20
0.0
 30
0.0
  3
A$C1D0A326F
  1

  0
TEXT
  5
C0
330
BF
100
AcDbEntity
  8
23
  6
Continuous
 62
     3
100
AcDbText
 10
43.39993499999979
 20
276.6340526666665
 30
0.0
 40
3.910714999999981
  1
Time/Current characteristic curves
 41
0.7
 11
43.39993499999979
 21
275.3304809999999
 31
0.0
100
AcDbText
 73
     1
  0
LINE
  5
C1
330
BF
100
AcDbEntity
  8
24
  6
Continuous
 62
     1
100
AcDbLine
 10
181.2428559999998
 20
0.0
 30
0.0
 11
-0.0000000000000142
 21
0.0
 31
0.0
  0
LINE
  5
C2
330
BF
100
AcDbEntity
  8
24
  6
Continuous
 62
     1
100
AcDbLine
 10
181.2428559999998
 20
13.06518099999999
 30
0.0
 11
-0.0000000000000142
 21
13.06518099999999
 31
0.0
  0
LINE
  5
C3
330
BF
100
AcDbEntity
  8
24
  6
Continuous
 62
     1
100
AcDbLine
 10
181.2428559999998
 20
20.707091
 30
0.0
 11
-0.0000000000000142
 21
20.707091
 31
0.0
  0
LINE
  5
C4
330
BF
100
AcDbEntity
  8
24
  6
Continuous
 62
     1
100
AcDbLine
 10
181.2428559999998
 20
26.12967199999999
 30
0.0
 11
-0.0000000000000142
 21
26.12967199999999
 31
0.0
  0
LINE
  5
C5
330
BF
100
AcDbEntity
  8
24
  6
Continuous
 62
     1
100
AcDbLine
 10
181.2428559999998
 20
30.33544399999999
 30
0.0
 11
-0.0000000000000142
 21
30.33544399999999
 31
0.0
  0
LINE
  5
C6
330
BF
100
AcDbEntity
  8
24
  6
Continuous
 62
     1
100
AcDbLine
 10
181.2428559999998
 20
33.77227199999999
 30
0.0
 11
-0.0000000000000142
 21
33.77227199999999
 31
0.0
  0
LINE
  5
C7
330
BF
100
AcDbEntity
  8
24
  6
Continuous
 62
     1
100
AcDbLine
 10
181.2428559999998
 20
39.194163
 30
0.0
 11
-0.0000000000000142
 21
39.194163
 31
0.0
  0
LINE
  5
C8
330
BF
100
AcDbEntity
  8
24
  6
Continuous
 62
     1
100
AcDbLine
 10
181.2428559999998
 20
43.40062399999996
 30
0.0
 11
-0.0000000000000142
 21
43.40062399999996
 31
0.0
  0
LINE
  5
C9
330
BF
100
AcDbEntity
  8
24
  6
Continuous
 62
     1
100
AcDbLine
 10
181.2428559999998
 20
56.46511600000001
 30
0.0
 11
-0.0000000000000142
 21
56.46511600000001
 31
0.0
  0
LINE
  5
CA
330
BF
100
AcDbEntity
  8
24
  6
Continuous
 62
     1
100
AcDbLine
 10
181.2428559999998
 20
64.107026
 30
0.0
 11
-0.0000000000000142
 21
64.107026
 31
0.0
  0
LINE
  5
CB
330
BF
100
AcDbEntity
  8
24
  6
Continuous
 62
     1
100
AcDbLine
 10
181.2428559999998
 20
69.529607
 30
0.0
 11
-0.0000000000000142
 21
69.529607
 31
0.0
  0
LINE
  5
CC
330
BF
100
AcDbEntity
  8
24
  6
Continuous
 62
     1
100
AcDbLine
 10
181.2428559999998
 20
73.73537899999991
 30
0.0
 11
-0.0000000000000142
 21
73.73537899999991
 31
0.0
  0
LINE
  5
CD
330
BF
100
AcDbEntity
  8
24
  6
Continuous
 62
     1
100
AcDbLine
 10
181.2428559999998
 20
77.17220599999997
 30
0.0
 11
-0.0000000000000142
 21
77.17220599999997
 31
0.0
  0
LINE
  5
CE
330
BF
100
AcDbEntity
  8
24
  6
Continuous
 62
     1
100
AcDbLine
 10
181.2428559999998
 20
82.594098
 30
0.0
 11
-0.0000000000000142
 21
82.594098
 31
0.0
  0
LINE
  5
CF
330
BF
100
AcDbEntity
  8
24
  6
Continuous
 62
     1
100
AcDbLine
 10
181.2428559999998
 20
86.80055899999997
 30
0.0
 11
-0.0000000000000142
 21
86.80055899999997
 31
0.0
  0
LINE
  5
D0
330
BF
100
AcDbEntity
  8
24
  6
Continuous
 62
     1
100
AcDbLine
 10
181.2428559999998
 20
99.8657389999999
 30
0.0
 11
-0.0000000000000142
 21
99.8657389999999
 31
0.0
  0
LINE
  5
D1
330
BF
100
AcDbEntity
  8
24
  6
Continuous
 62
     1
100
AcDbLine
 10
181.2428559999998
 20
107.5076499999999
 30
0.0
 11
-0.0000000000000142
 21
107.5076499999999
 31
0.0
  0
LINE
  5
D2
330
BF
100
AcDbEntity
  8
24
  6
Continuous
 62
     1
100
AcDbLine
 10
181.2428559999998
 20
112.9302309999999
 30
0.0
 11
-0.0000000000000142
 21
112.9302309999999
 31
0.0
  0
LINE
  5
D3
330
BF
100
AcDbEntity
  8
24
  6
Continuous
 62
     1
100
AcDbLine
 10
181.2428559999998
 20
117.1360029999999
 30
0.0
 11
-0.0000000000000142
 21
117.1360029999999
 31
0.0
  0
LINE
  5
D4
330
BF
100
AcDbEntity
  8
24
  6
Continuous
 62
     1
100
AcDbLine
 10
181.2428559999998
 20
120.5728299999998
 30
0.0
 11
-0.0000000000000142
 21
120.5728299999998
 31
0.0
  0
LINE
  5
D5
330
BF
100
AcDbEntity
  8
24
  6
Continuous
 62
     1
100
AcDbLine
 10
181.2428559999998
 20
125.9948939999999
 30
0.0
 11
-0.0000000000000142
 21
125.9948939999999
 31
0.0
  0
LINE
  5
D6
330
BF
100
AcDbEntity
  8
24
  6
Continuous
 62
     1
100
AcDbLine
 10
181.2428559999998
 20
130.2006659999997
 30
0.0
 11
-0.0000000000000142
 21
130.2006659999997
 31
0.0
  0
LINE
  5
D7
330
BF
100
AcDbEntity
  8
24
  6
Continuous
 62
     1
100
AcDbLine
 10
181.2428559999998
 20
143.265502
 30
0.0
 11
-0.0000000000000142
 21
143.265502
 31
0.0
  0
LINE
  5
D8
330
BF
100
AcDbEntity
  8
24
  6
Continuous
 62
     1
100
AcDbLine
 10
181.2428559999998
 20
150.907757
 30
0.0
 11
-0.0000000000000142
 21
150.907757
 31
0.0
  0
LINE
  5
D9
330
BF
100
AcDbEntity
  8
24
  6
Continuous
 62
     1
100
AcDbLine
 10
181.2428559999998
 20
156.329993
 30
0.0
 11
-0.0000000000000142
 21
156.329993
 31
0.0
  0
LINE
  5
DA
330
BF
100
AcDbEntity
  8
24
  6
Continuous
 62
     1
100
AcDbLine
 10
181.2428559999998
 20
160.53611
 30
0.0
 11
-0.0000000000000142
 21
160.53611
 31
0.0
  0
LINE
  5
DB
330
BF
100
AcDbEntity
  8
24
  6
Continuous
 62
     1
100
AcDbLine
 10
181.2428559999998
 20
163.9725929999999
 30
0.0
 11
-0.0000000000000142
 21
163.9725929999999
 31
0.0
  0
LINE
  5
DC
330
BF
100
AcDbEntity
  8
24
  6
Continuous
 62
     1
100
AcDbLine
 10
181.2428559999998
 20
169.3948289999999
 30
0.0
 11
-0.0000000000000142
 21
169.3948289999999
 31
0.0
  0
LINE
  5
DD
330
BF
100
AcDbEntity
  8
24
  6
Continuous
 62
     1
100
AcDbLine
 10
181.2428559999998
 20
173.6006009999999
 30
0.0
 11
-0.0000000000000142
 21
173.6006009999999
 31
0.0
  0
LINE
  5
DE
330
BF
100
AcDbEntity
  8
24
  6
Continuous
 62
     1
100
AcDbLine
 10
181.2428559999998
 20
186.6654369999999
 30
0.0
 11
-0.0000000000000142
 21
186.6654369999999
 31
0.0
  0
LINE
  5
DF
330
BF
100
AcDbEntity
  8
24
  6
Continuous
 62
     1
100
AcDbLine
 10
181.2428559999998
 20
194.3076919999999
 30
0.0
 11
-0.0000000000000142
 21
194.3076919999999
 31
0.0
  0
LINE
  5
E0
330
BF
100
AcDbEntity
  8
24
  6
Continuous
 62
     1
100
AcDbLine
 10
181.2428559999998
 20
199.730273
 30
0.0
 11
-0.0000000000000142
 21
199.730273
 31
0.0
  0
LINE
  5
E1
330
BF
100
AcDbEntity
  8
24
  6
Continuous
 62
     1
100
AcDbLine
 10
181.2428559999998
 20
203.9360449999999
 30
0.0
 11
-0.0000000000000142
 21
203.9360449999999
 31
0.0
  0
LINE
  5
E2
330
BF
100
AcDbEntity
  8
24
  6
Continuous
 62
     1
100
AcDbLine
 10
181.2428559999998
 20
207.3725279999999
 30
0.0
 11
-0.0000000000000142
 21
207.3725279999999
 31
0.0
  0
LINE
  5
E3
330
BF
100
AcDbEntity
  8
24
  6
Continuous
 62
     1
100
AcDbLine
 10
181.2428559999998
 20
212.7947639999999
 30
0.0
 11
-0.0000000000000142
 21
212.7947639999999
 31
0.0
  0
LINE
  5
E4
330
BF
100
AcDbEntity
  8
24
  6
Continuous
 62
     1
100
AcDbLine
 10
181.2428559999998
 20
217.0008809999999
 30
0.0
 11
-0.0000000000000142
 21
217.0008809999999
 31
0.0
  0
LINE
  5
E5
330
BF
100
AcDbEntity
  8
24
  6
Continuous
 62
     1
100
AcDbLine
 10
181.2428559999998
 20
230.0653719999999
 30
0.0
 11
-0.0000000000000142
 21
230.0653719999999
 31
0.0
  0
LINE
  5
E6
330
BF
100
AcDbEntity
  8
24
  6
Continuous
 62
     1
100
AcDbLine
 10
181.2428559999998
 20
256.1946989999996
 30
0.0
 11
-0.0000000000000142
 21
256.1946989999996
 31
0.0
  0
LINE
  5
E7
330
BF
100
AcDbEntity
  8
24
  6
Continuous
 62
     1
100
AcDbLine
 10
181.2428559999998
 20
260.4008159999998
 30
0.0
 11
-0.0000000000000142
 21
260.4008159999998
 31
0.0
  0
LINE
  5
E8
330
BF
100
AcDbEntity
  8
24
  6
Continuous
 62
     1
100
AcDbLine
 10
117.1358309999999
 20
250.7724629999998
 30
0.0
 11
-0.0000000000000142
 21
250.7724629999998
 31
0.0
  0
LINE
  5
E9
330
BF
100
AcDbEntity
  8
24
  6
Continuous
 62
     1
100
AcDbLine
 10
117.1358309999999
 20
247.3359799999998
 30
0.0
 11
-0.0000000000000142
 21
247.3359799999998
 31
0.0
  0
LINE
  5
EA
330
BF
100
AcDbEntity
  8
24
  6
Continuous
 62
     1
100
AcDbLine
 10
117.1358309999999
 20
243.130207
 30
0.0
 11
-0.0000000000000142
 21
243.130207
 31
0.0
  0
LINE
  5
EB
330
BF
100
AcDbEntity
  8
24
  6
Continuous
 62
     1
100
AcDbLine
 10
117.1358309999999
 20
237.707972
 30
0.0
 11
-0.0000000000000142
 21
237.707972
 31
0.0
  0
TEXT
  5
EC
330
BF
100
AcDbEntity
  8
24
  6
Continuous
 62
     1
100
AcDbText
 10
32.42523899999997
 20
-19.82829600000002
 30
0.0
 40
3.421865999999998
  1
Current (A)
 41
0.7
 11
32.42523899999997
 21
-20.96891800000002
 31
0.0
100
AcDbText
 73
     1
  0
LINE
  5
ED
330
BF
100
AcDbEntity
  8
24
  6
Continuous
 62
     1
100
AcDbLine
 10
-0.0000000000000142
 20
260.4008159999998
 30
0.0
 11
-0.0000000000000142
 21
0.0
 31
0.0
  0
LINE
  5
EE
330
BF
100
AcDbEntity
  8
24
  6
Continuous
 62
     1
100
AcDbLine
 10
7.642599999999986
 20
260.4008159999998
 30
0.0
 11
7.642599999999986
 21
0.0
 31
0.0
  0
LINE
  5
EF
330
BF
100
AcDbEntity
  8
24
  6
Continuous
 62
     1
100
AcDbLine
 10
17.27060799999988
 20
260.4008159999998
 30
0.0
 11
17.27060799999988
 21
0.0
 31
0.0
  0
LINE
  5
F0
330
BF
100
AcDbEntity
  8
24
  6
Continuous
 62
     1
100
AcDbLine
 10
26.12932699999999
 20
260.4008159999998
 30
0.0
 11
26.12932699999999
 21
0.0
 31
0.0
  0
LINE
  5
F1
330
BF
100
AcDbEntity
  8
24
  6
Continuous
 62
     1
100
AcDbLine
 10
30.33544399999988
 20
260.4008159999998
 30
0.0
 11
30.33544399999988
 21
0.0
 31
0.0
  0
LINE
  5
F2
330
BF
100
AcDbEntity
  8
24
  6
Continuous
 62
     1
100
AcDbLine
 10
43.39993499999979
 20
260.4008159999998
 30
0.0
 11
43.39993499999979
 21
0.0
 31
0.0
  0
TEXT
  5
F3
330
BF
100
AcDbEntity
  8
24
  6
Continuous
 62
     1
100
AcDbText
 10
-13.546066
 20
88.392882
 30
0.0
 40
3.421865999999993
  1
Operating time (sec)
 50
90.0
 41
0.7
 11
-12.405444
 21
88.392882
 31
0.0
100
AcDbText
 73
     1
  0
TEXT
  5
F4
330
BF
100
AcDbEntity
  8
200
  6
Continuous
 62
     1
100
AcDbText
 10
-9.258413555151093
 20
19.45709099999987
 30
0.0
 40
2.5
  1
0.03
 41
0.6
 72
     2
 11
-5.258413555151093
 21
20.70709099999987
 31
0.0
100
AcDbText
 73
     2
  0
TEXT
  5
F5
330
BF
100
AcDbEntity
  8
200
  6
Continuous
 62
     1
100
AcDbText
 10
1.249999999999943
 20
-5.166666666666666
 30
0.0
 40
2.5
  1
2
 50
90.0
 41
0.7
 72
     2
 11
-0.0000000000000568
 21
-4.0
 31
0.0
100
AcDbText
 73
     2
  0
TEXT
  5
F6
330
BF
100
AcDbEntity
  8
200
  6
Continuous
 62
     1
100
AcDbText
 10
-9.259367750161615
 20
11.81518099999985
 30
0.0
 40
2.5
  1
0.02
 41
0.6
 72
     2
 11
-5.259367750161614
 21
13.06518099999985
 31
0.0
100
AcDbText
 73
     2
  0
TEXT
  5
F7
330
BF
100
AcDbEntity
  8
200
  6
Continuous
 62
     1
100
AcDbText
 10
-8.760999113331521
 20
-1.250000000000142
 30
0.0
 40
2.5
  1
0.01
 41
0.6
 72
     2
 11
-5.260999113331521
 21
-0.0000000000001421
 31
0.0
100
AcDbText
 73
     2
  0
TEXT
  5
F8
330
BF
100
AcDbEntity
  8
200
  6
Continuous
 62
     1
100
AcDbText
 10
27.37932699999989
 20
-5.166666666666666
 30
0.0
 40
2.5
  1
8
 50
90.0
 41
0.7
 72
     2
 11
26.12932699999989
 21
-4.0
 31
0.0
100
AcDbText
 73
     2
  0
TEXT
  5
F9
330
BF
100
AcDbEntity
  8
200
  6
Continuous
 62
     1
100
AcDbText
 10
18.52060799999988
 20
-5.166666666666666
 30
0.0
 40
2.5
  1
5
 50
90.0
 41
0.7
 72
     2
 11
17.27060799999988
 21
-4.0
 31
0.0
100
AcDbText
 73
     2
  0
TEXT
  5
FA
330
BF
100
AcDbEntity
  8
200
  6
Continuous
 62
     1
100
AcDbText
 10
8.892599999999887
 20
-5.166666666666666
 30
0.0
 40
2.5
  1
3
 50
90.0
 41
0.7
 72
     2
 11
7.642599999999887
 21
-4.0
 31
0.0
100
AcDbText
 73
     2
  0
TEXT
  5
FB
330
BF
100
AcDbEntity
  8
200
  6
Continuous
 62
     1
100
AcDbText
 10
44.64993499999988
 20
-6.625
 30
0.0
 40
2.5
  1
20
 50
90.0
 41
0.7
 72
     2
 11
43.39993499999988
 21
-4.0
 31
0.0
100
AcDbText
 73
     2
  0
TEXT
  5
FC
330
BF
100
AcDbEntity
  8
200
  6
Continuous
 62
     1
100
AcDbText
 10
31.58544399999988
 20
-6.041666666666666
 30
0.0
 40
2.5
  1
10
 50
90.0
 41
0.7
 72
     2
 11
30.33544399999988
 21
-4.0
 31
0.0
100
AcDbText
 73
     2
  0
TEXT
  5
FD
330
BF
100
AcDbEntity
  8
200
  6
Continuous
 62
     1
100
AcDbText
 10
-8.002317408877715
 20
68.27960699999978
 30
0.0
 40
2.5
  1
0.4
 41
0.6
 72
     2
 11
-5.252317408877714
 21
69.52960699999978
 31
0.0
100
AcDbText
 73
     2
  0
TEXT
  5
FE
330
BF
100
AcDbEntity
  8
200
  6
Continuous
 62
     1
100
AcDbText
 10
-9.257736473147474
 20
24.87967199999988
 30
0.0
 40
2.5
  1
0.04
 41
0.6
 72
     2
 11
-5.257736473147473
 21
26.12967199999988
 31
0.0
100
AcDbText
 73
     2
  0
TEXT
  5
FF
330
BF
100
AcDbEntity
  8
200
  6
Continuous
 62
     1
100
AcDbText
 10
-9.257211326075889
 20
29.08544399999984
 30
0.0
 40
2.5
  1
0.05
 41
0.6
 72
     2
 11
-5.257211326075888
 21
30.33544399999984
 31
0.0
100
AcDbText
 73
     2
  0
TEXT
  5
100
330
BF
100
AcDbEntity
  8
200
  6
Continuous
 62
     1
100
AcDbText
 10
-7.505579963030868
 20
42.15062399999984
 30
0.0
 40
2.5
  1
0.1
 41
0.6
 72
     2
 11
-5.255579963030868
 21
43.40062399999984
 31
0.0
100
AcDbText
 73
     2
  0
TEXT
  5
101
330
BF
100
AcDbEntity
  8
200
  6
Continuous
 62
     1
100
AcDbText
 10
-8.003948685891842
 20
55.21511599999985
 30
0.0
 40
2.5
  1
0.2
 41
0.6
 72
     2
 11
-5.253948685891841
 21
56.46511599999985
 31
0.0
100
AcDbText
 73
     2
  0
TEXT
  5
102
330
BF
100
AcDbEntity
  8
200
  6
Continuous
 62
     1
100
AcDbText
 10
-8.002994490881306
 20
62.85702599999979
 30
0.0
 40
2.5
  1
0.3
 41
0.6
 72
     2
 11
-5.252994490881306
 21
64.10702599999979
 31
0.0
100
AcDbText
 73
     2
  0
TEXT
  5
103
330
BF
100
AcDbEntity
  8
200
  6
Continuous
 62
     1
100
AcDbText
 10
-8.001792261806144
 20
72.48537899999971
 30
0.0
 40
2.5
  1
0.5
 41
0.6
 72
     2
 11
-5.251792261806143
 21
73.73537899999971
 31
0.0
100
AcDbText
 73
     2
  0
TEXT
  5
104
330
BF
100
AcDbEntity
  8
200
  6
Continuous
 62
     1
100
AcDbText
 10
-5.748529535716016
 20
85.5505589999999
 30
0.0
 40
2.5
  1
1
 41
0.6
 72
     2
 11
-5.248529535716016
 21
86.8005589999999
 31
0.0
100
AcDbText
 73
     2
  0
TEXT
  5
105
330
BF
100
AcDbEntity
  8
200
  6
Continuous
 62
     1
100
AcDbText
 10
-6.247575340580637
 20
106.2576499999997
 30
0.0
 40
2.5
  1
3
 41
0.6
 72
     2
 11
-5.247575340580637
 21
107.5076499999997
 31
0.0
100
AcDbText
 73
     2
  0
TEXT
  5
106
330
BF
100
AcDbEntity
  8
200
  6
Continuous
 62
     1
100
AcDbText
 10
-6.248529535716016
 20
98.6157389999998
 30
0.0
 40
2.5
  1
2
 41
0.6
 72
     2
 11
-5.248529535716016
 21
99.8657389999998
 31
0.0
100
AcDbText
 73
     2
  0
TEXT
  5
107
330
BF
100
AcDbEntity
  8
200
  6
Continuous
 62
     1
100
AcDbText
 10
-6.246898258577004
 20
111.6802309999999
 30
0.0
 40
2.5
  1
4
 41
0.6
 72
     2
 11
-5.246898258577004
 21
112.9302309999999
 31
0.0
100
AcDbText
 73
     2
  0
TEXT
  5
108
330
BF
100
AcDbEntity
  8
200
  6
Continuous
 62
     1
100
AcDbText
 10
-6.246373111505433
 20
115.8860029999997
 30
0.0
 40
2.5
  1
5
 41
0.6
 72
     2
 11
-5.246373111505433
 21
117.1360029999997
 31
0.0
100
AcDbText
 73
     2
  0
TEXT
  5
109
330
BF
100
AcDbEntity
  8
200
  6
Continuous
 62
     1
100
AcDbText
 10
-6.994741813014797
 20
128.9506659999997
 30
0.0
 40
2.5
  1
10
 41
0.6
 72
     2
 11
-5.244741813014797
 21
130.2006659999997
 31
0.0
100
AcDbText
 73
     2
  0
TEXT
  5
10A
330
BF
100
AcDbEntity
  8
200
  6
Continuous
 62
     1
100
AcDbText
 10
-7.493110492922737
 20
142.0155019999997
 30
0.0
 40
2.5
  1
20
 41
0.6
 72
     2
 11
-5.243110492922737
 21
143.2655019999998
 31
0.0
100
AcDbText
 73
     2
  0
TEXT
  5
10B
330
BF
100
AcDbEntity
  8
200
  6
Continuous
 62
     1
100
AcDbText
 10
-7.492156254834383
 20
149.6577569999998
 30
0.0
 40
2.5
  1
30
 41
0.6
 72
     2
 11
-5.242156254834383
 21
150.9077569999998
 31
0.0
100
AcDbText
 73
     2
  0
TEXT
  5
10C
330
BF
100
AcDbEntity
  8
200
  6
Continuous
 62
     1
100
AcDbText
 10
-7.491479215908596
 20
155.0799929999998
 30
0.0
 40
2.5
  1
40
 41
0.6
 72
     2
 11
-5.241479215908596
 21
156.3299929999998
 31
0.0
100
AcDbText
 73
     2
  0
TEXT
  5
10D
330
BF
100
AcDbEntity
  8
200
  6
Continuous
 62
     1
100
AcDbText
 10
-7.490524934742309
 20
162.7225929999998
 30
0.0
 40
2.5
  1
60
 41
0.6
 72
     2
 11
-5.240524934742309
 21
163.9725929999998
 31
0.0
100
AcDbText
 73
     2
  0
TEXT
  5
10E
330
BF
100
AcDbEntity
  8
200
  6
Continuous
 62
     1
100
AcDbText
 10
-7.490954025759136
 20
159.2861099999998
 30
0.0
 40
2.5
  1
50
 41
0.6
 72
     2
 11
-5.240954025759136
 21
160.5361099999998
 31
0.0
100
AcDbText
 73
     2
  0
TEXT
  5
10F
330
BF
100
AcDbEntity
  8
200
  6
Continuous
 62
     1
100
AcDbText
 10
-8.736737190564568
 20
193.0576919999996
 30
0.0
 40
2.5
  1
300
 41
0.6
 72
     2
 11
-5.236737190564568
 21
194.3076919999996
 31
0.0
100
AcDbText
 73
     2
  0
TEXT
  5
110
330
BF
100
AcDbEntity
  8
200
  6
Continuous
 62
     1
100
AcDbText
 10
-8.239322748744996
 20
172.3506009999998
 30
0.0
 40
2.5
  1
100
 41
0.6
 72
     2
 11
-5.239322748744996
 21
173.6006009999998
 31
0.0
100
AcDbText
 73
     2
  0
TEXT
  5
111
330
BF
100
AcDbEntity
  8
200
  6
Continuous
 62
     1
100
AcDbText
 10
-8.737691428652965
 20
185.4154369999998
 30
0.0
 40
2.5
  1
200
 41
0.6
 72
     2
 11
-5.237691428652964
 21
186.6654369999998
 31
0.0
100
AcDbText
 73
     2
  0
TEXT
  5
112
330
BF
100
AcDbEntity
  8
200
  6
Continuous
 62
     1
100
AcDbText
 10
-9.483903641397319
 20
215.7508809999997
 30
0.0
 40
2.5
  1
1000
 41
0.6
 72
     2
 11
-5.233903641397318
 21
217.0008809999997
 31
0.0
100
AcDbText
 73
     2
  0
TEXT
  5
113
330
BF
100
AcDbEntity
  8
200
  6
Continuous
 62
     1
100
AcDbText
 10
-8.735534961489378
 20
202.6860449999999
 30
0.0
 40
2.5
  1
500
 41
0.6
 72
     2
 11
-5.235534961489378
 21
203.9360449999999
 31
0.0
100
AcDbText
 73
     2
  0
TEXT
  5
114
330
BF
100
AcDbEntity
  8
200
  6
Continuous
 62
     1
100
AcDbText
 10
-8.736060108560948
 20
198.4802729999998
 30
0.0
 40
2.5
  1
400
 41
0.6
 72
     2
 11
-5.236060108560947
 21
199.7302729999998
 31
0.0
100
AcDbText
 73
     2
  0
TEXT
  5
115
330
BF
100
AcDbEntity
  8
23
  6
Continuous
 62
     3
100
AcDbText
 10
-0.0000000000000141
 20
276.6340526666665
 30
0.0
 40
3.910714999999981
  1
TemBreak2
 41
0.7
 11
-0.0000000000000142
 21
275.3304809999999
 31
0.0
100
AcDbText
 73
     1
  0
TEXT
  5
116
330
BF
100
AcDbEntity
  8
200
  6
Continuous
 62
     1
100
AcDbText
 10
-9.980771491001704
 20
241.872855374364
 30
0.0
 40
2.5
  1
4000
 41
0.6
 72
     2
 11
-5.230771491001704
 21
243.1228553743641
 31
0.0
100
AcDbText
 73
     2
  0
TEXT
  5
117
330
BF
100
AcDbEntity
  8
200
  6
Continuous
 62
     1
100
AcDbText
 10
-9.98144855139337
 20
236.4506203743641
 30
0.0
 40
2.5
  1
3000
 41
0.6
 72
     2
 11
-5.23144855139337
 21
237.7006203743642
 31
0.0
100
AcDbText
 73
     2
  0
TEXT
  5
118
330
BF
100
AcDbEntity
  8
200
  6
Continuous
 62
     1
100
AcDbText
 10
-9.982272364383177
 20
228.8153719999998
 30
0.0
 40
2.5
  1
2000
 41
0.6
 72
     2
 11
-5.232272364383176
 21
230.0653719999997
 31
0.0
100
AcDbText
 73
     2
  0
TEXT
  5
119
330
BF
100
AcDbEntity
  8
200
  6
Continuous
 62
     1
100
AcDbText
 10
-10.72850376865693
 20
258.9971158246214
 30
0.0
 40
2.5
  1
10000
 41
0.6
 72
     2
 11
-5.228503768656934
 21
260.2471158246213
 31
0.0
100
AcDbText
 73
     2
  0
TEXT
  5
11A
330
BF
100
AcDbEntity
  8
200
  6
Continuous
 62
     1
100
AcDbText
 10
-9.980246322336938
 20
246.078628374364
 30
0.0
 40
2.5
  1
5000
 41
0.6
 72
     2
 11
-5.230246322336938
 21
247.328628374364
 31
0.0
100
AcDbText
 73
     2
  0
LINE
  5
11B
330
BF
100
AcDbEntity
  8
24
  6
Continuous
 62
     1
100
AcDbLine
 10
51.04253499999998
 20
260.4008159999998
 30
0.0
 11
51.04253499999998
 21
0.0
 31
0.0
  0
LINE
  5
11C
330
BF
100
AcDbEntity
  8
24
  6
Continuous
 62
     1
100
AcDbLine
 10
60.67054299999998
 20
260.4008159999998
 30
0.0
 11
60.67054299999998
 21
0.0
 31
0.0
  0
LINE
  5
11D
330
BF
100
AcDbEntity
  8
24
  6
Continuous
 62
     1
100
AcDbLine
 10
69.529606
 20
260.4008159999998
 30
0.0
 11
69.529606
 21
0.0
 31
0.0
  0
LINE
  5
11E
330
BF
100
AcDbEntity
  8
24
  6
Continuous
 62
     1
100
AcDbLine
 10
73.73572299999989
 20
260.4008159999998
 30
0.0
 11
73.73572299999989
 21
0.0
 31
0.0
  0
LINE
  5
11F
330
BF
100
AcDbEntity
  8
24
  6
Continuous
 62
     1
100
AcDbLine
 10
86.8003869999999
 20
260.4008159999998
 30
0.0
 11
86.8003869999999
 21
0.0
 31
0.0
  0
LINE
  5
120
330
BF
100
AcDbEntity
  8
24
  6
Continuous
 62
     1
100
AcDbLine
 10
94.4429869999999
 20
260.4008159999998
 30
0.0
 11
94.4429869999999
 21
0.0
 31
0.0
  0
LINE
  5
121
330
BF
100
AcDbEntity
  8
24
  6
Continuous
 62
     1
100
AcDbLine
 10
104.0706499999999
 20
260.4008159999998
 30
0.0
 11
104.0706499999999
 21
0.0
 31
0.0
  0
LINE
  5
122
330
BF
100
AcDbEntity
  8
24
  6
Continuous
 62
     1
100
AcDbLine
 10
112.9300579999999
 20
260.4008159999998
 30
0.0
 11
112.9300579999999
 21
0.0
 31
0.0
  0
LINE
  5
123
330
BF
100
AcDbEntity
  8
24
  6
Continuous
 62
     1
100
AcDbLine
 10
117.1358309999999
 20
260.4008159999998
 30
0.0
 11
117.1358309999999
 21
0.0
 31
0.0
  0
LINE
  5
124
330
BF
100
AcDbEntity
  8
24
  6
Continuous
 62
     1
100
AcDbLine
 10
181.2428559999998
 20
260.4008159999998
 30
0.0
 11
181.2428559999998
 21
0.0
 31
0.0
  0
LINE
  5
125
330
BF
100
AcDbEntity
  8
24
  6
Continuous
 62
     1
100
AcDbLine
 10
130.2003219999999
 20
230.0653719999999
 30
0.0
 11
130.2003219999999
 21
0.0
 31
0.0
  0
LINE
  5
126
330
BF
100
AcDbEntity
  8
24
  6
Continuous
 62
     1
100
AcDbLine
 10
137.8429209999999
 20
230.0653719999999
 30
0.0
 11
137.8429209999999
 21
0.0
 31
0.0
  0
LINE
  5
127
330
BF
100
AcDbEntity
  8
24
  6
Continuous
 62
     1
100
AcDbLine
 10
147.471274
 20
230.0653719999999
 30
0.0
 11
147.471274
 21
0.0
 31
0.0
  0
LINE
  5
128
330
BF
100
AcDbEntity
  8
24
  6
Continuous
 62
     1
100
AcDbLine
 10
156.3299929999999
 20
230.0653719999999
 30
0.0
 11
156.3299929999999
 21
0.0
 31
0.0
  0
LINE
  5
129
330
BF
100
AcDbEntity
  8
24
  6
Continuous
 62
     1
100
AcDbLine
 10
160.5357649999999
 20
230.0653719999999
 30
0.0
 11
160.5357649999999
 21
0.0
 31
0.0
  0
LINE
  5
12A
330
BF
100
AcDbEntity
  8
24
  6
Continuous
 62
     1
100
AcDbLine
 10
173.600257
 20
230.0653719999999
 30
0.0
 11
173.600257
 21
0.0
 31
0.0
  0
TEXT
  5
12B
330
BF
100
AcDbEntity
  8
23
  6
Continuous
 62
     3
100
AcDbText
 10
78.428632
 20
-38.21649633333334
 30
0.0
 40
3.910714999999998
  1
TERASAKI ELECTRIC CO.,LTD.
 41
0.7
 11
78.428632
 21
-39.520068
 31
0.0
100
AcDbText
 73
     1
  0
TEXT
  5
12C
330
BF
100
AcDbEntity
  8
24
  6
Continuous
 62
     1
100
AcDbText
 10
91.79026299999998
 20
-20.06220266666666
 30
0.0
 40
2.444193999999999
  1
primary ==== 6.6kV
 41
0.7
 11
91.79026299999998
 21
-20.876934
 31
0.0
100
AcDbText
 73
     1
  0
TEXT
  5
12D
330
BF
100
AcDbEntity
  8
24
  6
Continuous
 62
     1
100
AcDbText
 10
91.79026299999998
 20
-23.91933166666667
 30
0.0
 40
2.444193999999999
  1
secondary == 110,220,440V
 41
0.7
 11
91.79026299999998
 21
-24.73406300000001
 31
0.0
100
AcDbText
 73
     1
  0
TEXT
  5
12E
330
BF
100
AcDbEntity
  8
200
  6
Continuous
 62
     1
100
AcDbText
 10
74.98572299999989
 20
-7.499999999999999
 30
0.0
 40
2.5
  1
100
 50
90.0
 41
0.7
 72
     2
 11
73.73572299999989
 21
-4.0
 31
0.0
100
AcDbText
 73
     2
  0
TEXT
  5
12F
330
BF
100
AcDbEntity
  8
200
  6
Continuous
 62
     1
100
AcDbText
 10
70.7796059999999
 20
-6.625
 30
0.0
 40
2.5
  1
80
 50
90.0
 41
0.7
 72
     2
 11
69.5296059999999
 21
-4.0
 31
0.0
100
AcDbText
 73
     2
  0
TEXT
  5
130
330
BF
100
AcDbEntity
  8
200
  6
Continuous
 62
     1
100
AcDbText
 10
61.92054299999989
 20
-6.625
 30
0.0
 40
2.5
  1
50
 50
90.0
 41
0.7
 72
     2
 11
60.67054299999989
 21
-4.0
 31
0.0
100
AcDbText
 73
     2
  0
TEXT
  5
131
330
BF
100
AcDbEntity
  8
200
  6
Continuous
 62
     1
100
AcDbText
 10
52.29253499999988
 20
-6.625
 30
0.0
 40
2.5
  1
30
 50
90.0
 41
0.7
 72
     2
 11
51.04253499999988
 21
-4.0
 31
0.0
100
AcDbText
 73
     2
  0
TEXT
  5
132
330
BF
100
AcDbEntity
  8
200
  6
Continuous
 62
     1
100
AcDbText
 10
95.6929869999999
 20
-8.083333333333332
 30
0.0
 40
2.5
  1
300
 50
90.0
 41
0.7
 72
     2
 11
94.4429869999999
 21
-4.0
 31
0.0
100
AcDbText
 73
     2
  0
TEXT
  5
133
330
BF
100
AcDbEntity
  8
200
  6
Continuous
 62
     1
100
AcDbText
 10
88.0503869999999
 20
-8.083333333333332
 30
0.0
 40
2.5
  1
200
 50
90.0
 41
0.7
 72
     2
 11
86.8003869999999
 21
-4.0
 31
0.0
100
AcDbText
 73
     2
  0
TEXT
  5
134
330
BF
100
AcDbEntity
  8
200
  6
Continuous
 62
     1
100
AcDbText
 10
118.3858309999999
 20
-8.958333333333332
 30
0.0
 40
2.5
  1
1000
 50
90.0
 41
0.7
 72
     2
 11
117.1358309999999
 21
-4.0
 31
0.0
100
AcDbText
 73
     2
  0
TEXT
  5
135
330
BF
100
AcDbEntity
  8
200
  6
Continuous
 62
     1
100
AcDbText
 10
114.1800579999996
 20
-8.083333333333332
 30
0.0
 40
2.5
  1
800
 50
90.0
 41
0.7
 72
     2
 11
112.9300579999996
 21
-4.0
 31
0.0
100
AcDbText
 73
     2
  0
TEXT
  5
136
330
BF
100
AcDbEntity
  8
200
  6
Continuous
 62
     1
100
AcDbText
 10
105.3206499999999
 20
-8.083333333333332
 30
0.0
 40
2.5
  1
500
 50
90.0
 41
0.7
 72
     2
 11
104.0706499999999
 21
-4.0
 31
0.0
100
AcDbText
 73
     2
  0
TEXT
  5
137
330
BF
100
AcDbEntity
  8
200
  6
Continuous
 62
     1
100
AcDbText
 10
139.0929209999999
 20
-9.541666666666667
 30
0.0
 40
2.5
  1
3000
 50
90.0
 41
0.7
 72
     2
 11
137.8429209999999
 21
-4.0
 31
0.0
100
AcDbText
 73
     2
  0
TEXT
  5
138
330
BF
100
AcDbEntity
  8
200
  6
Continuous
 62
     1
100
AcDbText
 10
131.4503219999997
 20
-9.541666666666667
 30
0.0
 40
2.5
  1
2000
 50
90.0
 41
0.7
 72
     2
 11
130.2003219999998
 21
-4.0
 31
0.0
100
AcDbText
 73
     2
  0
TEXT
  5
139
330
BF
100
AcDbEntity
  8
200
  6
Continuous
 62
     1
100
AcDbText
 10
161.8726395661999
 20
-10.48817402477792
 30
0.0
 40
2.5
  1
10000
 50
90.0
 41
0.7
 72
     2
 11
160.6226395661999
 21
-4.071507358111261
 31
0.0
100
AcDbText
 73
     2
  0
TEXT
  5
13A
330
BF
100
AcDbEntity
  8
200
  6
Continuous
 62
     1
100
AcDbText
 10
148.7212739999999
 20
-9.541666666666667
 30
0.0
 40
2.5
  1
5000
 50
90.0
 41
0.7
 72
     2
 11
147.4712739999999
 21
-4.0
 31
0.0
100
AcDbText
 73
     2
  0
TEXT
  5
13B
330
BF
100
AcDbEntity
  8
200
  6
Continuous
 62
     1
100
AcDbText
 10
157.5799929999999
 20
-9.541666666666667
 30
0.0
 40
2.5
  1
8000
 50
90.0
 41
0.7
 72
     2
 11
156.3299929999999
 21
-4.0
 31
0.0
100
AcDbText
 73
     2
  0
TEXT
  5
13C
330
BF
100
AcDbEntity
  8
200
  6
Continuous
 62
     1
100
AcDbText
 10
182.5797305662
 20
-11.07150735811126
 30
0.0
 40
2.5
  1
30000
 50
90.0
 41
0.7
 72
     2
 11
181.3297305662
 21
-4.071507358111261
 31
0.0
100
AcDbText
 73
     2
  0
TEXT
  5
13D
330
BF
100
AcDbEntity
  8
200
  6
Continuous
 62
     1
100
AcDbText
 10
174.9371315661998
 20
-11.07150735811126
 30
0.0
 40
2.5
  1
20000
 50
90.0
 41
0.7
 72
     2
 11
173.6871315661998
 21
-4.071507358111261
 31
0.0
100
AcDbText
 73
     2
  0
LINE
  5
13E
330
BF
100
AcDbEntity
  8
24
  6
Continuous
 62
     1
100
AcDbLine
 10
130.2003219999999
 20
260.4008159999998
 30
0.0
 11
130.2003219999999
 21
256.1946989999996
 31
0.0
  0
LINE
  5
13F
330
BF
100
AcDbEntity
  8
24
  6
Continuous
 62
     1
100
AcDbLine
 10
137.8429209999999
 20
260.4008159999998
 30
0.0
 11
137.8429209999999
 21
256.1946989999996
 31
0.0
  0
LINE
  5
140
330
BF
100
AcDbEntity
  8
24
  6
Continuous
 62
     1
100
AcDbLine
 10
147.471274
 20
260.4008159999998
 30
0.0
 11
147.471274
 21
256.1946989999996
 31
0.0
  0
LINE
  5
141
330
BF
100
AcDbEntity
  8
24
  6
Continuous
 62
     1
100
AcDbLine
 10
156.3299929999999
 20
260.4008159999998
 30
0.0
 11
156.3299929999999
 21
256.1946989999996
 31
0.0
  0
LINE
  5
142
330
BF
100
AcDbEntity
  8
24
  6
Continuous
 62
     1
100
AcDbLine
 10
160.5357649999999
 20
260.4008159999998
 30
0.0
 11
160.5357649999999
 21
256.1946989999996
 31
0.0
  0
LINE
  5
143
330
BF
100
AcDbEntity
  8
24
  6
Continuous
 62
     1
100
AcDbLine
 10
173.600257
 20
260.4008159999998
 30
0.0
 11
173.600257
 21
256.1946989999996
 31
0.0
  0
ENDBLK
  5
145
330
BF
100
AcDbEntity
  8
0
100
AcDbBlockEnd
  0
BLOCK
  5
273
330
1EE
100
AcDbEntity
  8
0
100
AcDbBlockBegin
  2
A$C5C041FE5
 70
     0
 10
0.0
 20
0.0
 30
0.0
  3
A$C5C041FE5
  1

  0
TEXT
  5
1EF
330
1EE
100
AcDbEntity
  8
23
  6
Continuous
 62
     3
100
AcDbText
 10
43.39993499999981
 20
276.6340526666666
 30
0.0
 40
3.910714999999981
  1
Time/Current characteristic curves
 41
0.7
 11
43.39993499999981
 21
275.3304809999999
 31
0.0
100
AcDbText
 73
     1
  0
LINE
  5
1F0
330
1EE
100
AcDbEntity
  8
24
  6
Continuous
 62
     1
100
AcDbLine
 10
181.2428559999998
 20
0.0
 30
0.0
 11
0.0
 21
0.0
 31
0.0
  0
LINE
  5
1F1
330
1EE
100
AcDbEntity
  8
24
  6
Continuous
 62
     1
100
AcDbLine
 10
181.2428559999998
 20
13.065181
 30
0.0
 11
0.0
 21
13.065181
 31
0.0
  0
LINE
  5
1F2
330
1EE
100
AcDbEntity
  8
24
  6
Continuous
 62
     1
100
AcDbLine
 10
181.2428559999998
 20
20.707091
 30
0.0
 11
0.0
 21
20.707091
 31
0.0
  0
LINE
  5
1F3
330
1EE
100
AcDbEntity
  8
24
  6
Continuous
 62
     1
100
AcDbLine
 10
181.2428559999998
 20
26.12967199999999
 30
0.0
 11
0.0
 21
26.12967199999999
 31
0.0
  0
LINE
  5
1F4
330
1EE
100
AcDbEntity
  8
24
  6
Continuous
 62
     1
100
AcDbLine
 10
181.2428559999998
 20
30.33544399999999
 30
0.0
 11
0.0
 21
30.33544399999999
 31
0.0
  0
LINE
  5
1F5
330
1EE
100
AcDbEntity
  8
24
  6
Continuous
 62
     1
100
AcDbLine
 10
181.2428559999998
 20
33.772272
 30
0.0
 11
0.0
 21
33.772272
 31
0.0
  0
LINE
  5
1F6
330
1EE
100
AcDbEntity
  8
24
  6
Continuous
 62
     1
100
AcDbLine
 10
181.2428559999998
 20
39.194163
 30
0.0
 11
0.0
 21
39.194163
 31
0.0
  0
LINE
  5
1F7
330
1EE
100
AcDbEntity
  8
24
  6
Continuous
 62
     1
100
AcDbLine
 10
181.2428559999998
 20
43.40062399999996
 30
0.0
 11
0.0
 21
43.40062399999996
 31
0.0
  0
LINE
  5
1F8
330
1EE
100
AcDbEntity
  8
24
  6
Continuous
 62
     1
100
AcDbLine
 10
181.2428559999998
 20
56.46511600000001
 30
0.0
 11
0.0
 21
56.46511600000001
 31
0.0
  0
LINE
  5
1F9
330
1EE
100
AcDbEntity
  8
24
  6
Continuous
 62
     1
100
AcDbLine
 10
181.2428559999998
 20
64.107026
 30
0.0
 11
0.0
 21
64.107026
 31
0.0
  0
LINE
  5
1FA
330
1EE
100
AcDbEntity
  8
24
  6
Continuous
 62
     1
100
AcDbLine
 10
181.2428559999998
 20
69.529607
 30
0.0
 11
0.0
 21
69.529607
 31
0.0
  0
LINE
  5
1FB
330
1EE
100
AcDbEntity
  8
24
  6
Continuous
 62
     1
100
AcDbLine
 10
181.2428559999998
 20
73.73537899999991
 30
0.0
 11
0.0
 21
73.73537899999991
 31
0.0
  0
LINE
  5
1FC
330
1EE
100
AcDbEntity
  8
24
  6
Continuous
 62
     1
100
AcDbLine
 10
181.2428559999998
 20
77.17220599999999
 30
0.0
 11
0.0
 21
77.17220599999999
 31
0.0
  0
LINE
  5
1FD
330
1EE
100
AcDbEntity
  8
24
  6
Continuous
 62
     1
100
AcDbLine
 10
181.2428559999998
 20
82.594098
 30
0.0
 11
0.0
 21
82.594098
 31
0.0
  0
LINE
  5
1FE
330
1EE
100
AcDbEntity
  8
24
  6
Continuous
 62
     1
100
AcDbLine
 10
181.2428559999998
 20
86.80055899999999
 30
0.0
 11
0.0
 21
86.80055899999999
 31
0.0
  0
LINE
  5
1FF
330
1EE
100
AcDbEntity
  8
24
  6
Continuous
 62
     1
100
AcDbLine
 10
181.2428559999998
 20
99.8657389999999
 30
0.0
 11
0.0
 21
99.8657389999999
 31
0.0
  0
LINE
  5
200
330
1EE
100
AcDbEntity
  8
24
  6
Continuous
 62
     1
100
AcDbLine
 10
181.2428559999998
 20
107.5076499999999
 30
0.0
 11
0.0
 21
107.5076499999999
 31
0.0
  0
LINE
  5
201
330
1EE
100
AcDbEntity
  8
24
  6
Continuous
 62
     1
100
AcDbLine
 10
181.2428559999998
 20
112.9302309999999
 30
0.0
 11
0.0
 21
112.9302309999999
 31
0.0
  0
LINE
  5
202
330
1EE
100
AcDbEntity
  8
24
  6
Continuous
 62
     1
100
AcDbLine
 10
181.2428559999998
 20
117.1360029999999
 30
0.0
 11
0.0
 21
117.1360029999999
 31
0.0
  0
LINE
  5
203
330
1EE
100
AcDbEntity
  8
24
  6
Continuous
 62
     1
100
AcDbLine
 10
181.2428559999998
 20
120.5728299999998
 30
0.0
 11
0.0
 21
120.5728299999998
 31
0.0
  0
LINE
  5
204
330
1EE
100
AcDbEntity
  8
24
  6
Continuous
 62
     1
100
AcDbLine
 10
181.2428559999998
 20
125.9948939999999
 30
0.0
 11
0.0
 21
125.9948939999999
 31
0.0
  0
LINE
  5
205
330
1EE
100
AcDbEntity
  8
24
  6
Continuous
 62
     1
100
AcDbLine
 10
181.2428559999998
 20
130.2006659999998
 30
0.0
 11
0.0
 21
130.2006659999998
 31
0.0
  0
LINE
  5
206
330
1EE
100
AcDbEntity
  8
24
  6
Continuous
 62
     1
100
AcDbLine
 10
181.2428559999998
 20
143.265502
 30
0.0
 11
0.0
 21
143.265502
 31
0.0
  0
LINE
  5
207
330
1EE
100
AcDbEntity
  8
24
  6
Continuous
 62
     1
100
AcDbLine
 10
181.2428559999998
 20
150.907757
 30
0.0
 11
0.0
 21
150.907757
 31
0.0
  0
LINE
  5
208
330
1EE
100
AcDbEntity
  8
24
  6
Continuous
 62
     1
100
AcDbLine
 10
181.2428559999998
 20
156.329993
 30
0.0
 11
0.0
 21
156.329993
 31
0.0
  0
LINE
  5
209
330
1EE
100
AcDbEntity
  8
24
  6
Continuous
 62
     1
100
AcDbLine
 10
181.2428559999998
 20
160.53611
 30
0.0
 11
0.0
 21
160.53611
 31
0.0
  0
LINE
  5
20A
330
1EE
100
AcDbEntity
  8
24
  6
Continuous
 62
     1
100
AcDbLine
 10
181.2428559999998
 20
163.972593
 30
0.0
 11
0.0
 21
163.972593
 31
0.0
  0
LINE
  5
20B
330
1EE
100
AcDbEntity
  8
24
  6
Continuous
 62
     1
100
AcDbLine
 10
181.2428559999998
 20
169.3948289999999
 30
0.0
 11
0.0
 21
169.3948289999999
 31
0.0
  0
LINE
  5
20C
330
1EE
100
AcDbEntity
  8
24
  6
Continuous
 62
     1
100
AcDbLine
 10
181.2428559999998
 20
173.6006009999999
 30
0.0
 11
0.0
 21
173.6006009999999
 31
0.0
  0
LINE
  5
20D
330
1EE
100
AcDbEntity
  8
24
  6
Continuous
 62
     1
100
AcDbLine
 10
181.2428559999998
 20
186.6654369999999
 30
0.0
 11
0.0
 21
186.6654369999999
 31
0.0
  0
LINE
  5
20E
330
1EE
100
AcDbEntity
  8
24
  6
Continuous
 62
     1
100
AcDbLine
 10
181.2428559999998
 20
194.3076919999999
 30
0.0
 11
0.0
 21
194.3076919999999
 31
0.0
  0
LINE
  5
20F
330
1EE
100
AcDbEntity
  8
24
  6
Continuous
 62
     1
100
AcDbLine
 10
181.2428559999998
 20
199.730273
 30
0.0
 11
0.0
 21
199.730273
 31
0.0
  0
LINE
  5
210
330
1EE
100
AcDbEntity
  8
24
  6
Continuous
 62
     1
100
AcDbLine
 10
181.2428559999998
 20
203.9360449999999
 30
0.0
 11
0.0
 21
203.9360449999999
 31
0.0
  0
LINE
  5
211
330
1EE
100
AcDbEntity
  8
24
  6
Continuous
 62
     1
100
AcDbLine
 10
181.2428559999998
 20
207.3725279999999
 30
0.0
 11
0.0
 21
207.3725279999999
 31
0.0
  0
LINE
  5
212
330
1EE
100
AcDbEntity
  8
24
  6
Continuous
 62
     1
100
AcDbLine
 10
181.2428559999998
 20
212.7947639999999
 30
0.0
 11
0.0
 21
212.7947639999999
 31
0.0
  0
LINE
  5
213
330
1EE
100
AcDbEntity
  8
24
  6
Continuous
 62
     1
100
AcDbLine
 10
181.2428559999998
 20
217.0008809999999
 30
0.0
 11
0.0
 21
217.0008809999999
 31
0.0
  0
LINE
  5
214
330
1EE
100
AcDbEntity
  8
24
  6
Continuous
 62
     1
100
AcDbLine
 10
181.2428559999998
 20
230.0653719999999
 30
0.0
 11
0.0
 21
230.0653719999999
 31
0.0
  0
LINE
  5
215
330
1EE
100
AcDbEntity
  8
24
  6
Continuous
 62
     1
100
AcDbLine
 10
181.2428559999998
 20
256.1946989999997
 30
0.0
 11
0.0
 21
256.1946989999997
 31
0.0
  0
LINE
  5
216
330
1EE
100
AcDbEntity
  8
24
  6
Continuous
 62
     1
100
AcDbLine
 10
181.2428559999998
 20
260.4008159999998
 30
0.0
 11
0.0
 21
260.4008159999998
 31
0.0
  0
LINE
  5
217
330
1EE
100
AcDbEntity
  8
24
  6
Continuous
 62
     1
100
AcDbLine
 10
117.1358309999999
 20
250.7724629999998
 30
0.0
 11
0.0
 21
250.7724629999998
 31
0.0
  0
LINE
  5
218
330
1EE
100
AcDbEntity
  8
24
  6
Continuous
 62
     1
100
AcDbLine
 10
117.1358309999999
 20
247.3359799999998
 30
0.0
 11
0.0
 21
247.3359799999998
 31
0.0
  0
LINE
  5
219
330
1EE
100
AcDbEntity
  8
24
  6
Continuous
 62
     1
100
AcDbLine
 10
117.1358309999999
 20
243.130207
 30
0.0
 11
0.0
 21
243.130207
 31
0.0
  0
LINE
  5
21A
330
1EE
100
AcDbEntity
  8
24
  6
Continuous
 62
     1
100
AcDbLine
 10
117.1358309999999
 20
237.707972
 30
0.0
 11
0.0
 21
237.707972
 31
0.0
  0
TEXT
  5
21B
330
1EE
100
AcDbEntity
  8
24
  6
Continuous
 62
     1
100
AcDbText
 10
32.42523899999999
 20
-19.82829600000002
 30
0.0
 40
3.421865999999998
  1
Current (A)
 41
0.7
 11
32.42523899999999
 21
-20.96891800000002
 31
0.0
100
AcDbText
 73
     1
  0
LINE
  5
21C
330
1EE
100
AcDbEntity
  8
24
  6
Continuous
 62
     1
100
AcDbLine
 10
0.0
 20
260.4008159999998
 30
0.0
 11
0.0
 21
0.0
 31
0.0
  0
LINE
  5
21D
330
1EE
100
AcDbEntity
  8
24
  6
Continuous
 62
     1
100
AcDbLine
 10
7.642600000000001
 20
260.4008159999998
 30
0.0
 11
7.642600000000001
 21
0.0
 31
0.0
  0
LINE
  5
21E
330
1EE
100
AcDbEntity
  8
24
  6
Continuous
 62
     1
100
AcDbLine
 10
17.27060799999989
 20
260.4008159999998
 30
0.0
 11
17.27060799999989
 21
0.0
 31
0.0
  0
LINE
  5
21F
330
1EE
100
AcDbEntity
  8
24
  6
Continuous
 62
     1
100
AcDbLine
 10
26.129327
 20
260.4008159999998
 30
0.0
 11
26.129327
 21
0.0
 31
0.0
  0
LINE
  5
220
330
1EE
100
AcDbEntity
  8
24
  6
Continuous
 62
     1
100
AcDbLine
 10
30.33544399999989
 20
260.4008159999998
 30
0.0
 11
30.33544399999989
 21
0.0
 31
0.0
  0
LINE
  5
221
330
1EE
100
AcDbEntity
  8
24
  6
Continuous
 62
     1
100
AcDbLine
 10
43.39993499999981
 20
260.4008159999998
 30
0.0
 11
43.39993499999981
 21
0.0
 31
0.0
  0
TEXT
  5
222
330
1EE
100
AcDbEntity
  8
24
  6
Continuous
 62
     1
100
AcDbText
 10
-13.546066
 20
88.392882
 30
0.0
 40
3.421865999999993
  1
Operating time (sec)
 50
90.0
 41
0.7
 11
-12.405444
 21
88.392882
 31
0.0
100
AcDbText
 73
     1
  0
TEXT
  5
223
330
1EE
100
AcDbEntity
  8
200
  6
Continuous
 62
     1
100
AcDbText
 10
-9.258413555151079
 20
19.45709099999988
 30
0.0
 40
2.5
  1
0.03
 41
0.6
 72
     2
 11
-5.258413555151079
 21
20.70709099999988
 31
0.0
100
AcDbText
 73
     2
  0
TEXT
  5
224
330
1EE
100
AcDbEntity
  8
200
  6
Continuous
 62
     1
100
AcDbText
 10
1.249999999999957
 20
-5.166666666666666
 30
0.0
 40
2.5
  1
2
 50
90.0
 41
0.7
 72
     2
 11
-0.0000000000000426
 21
-4.0
 31
0.0
100
AcDbText
 73
     2
  0
TEXT
  5
225
330
1EE
100
AcDbEntity
  8
200
  6
Continuous
 62
     1
100
AcDbText
 10
-9.259367750161601
 20
11.81518099999985
 30
0.0
 40
2.5
  1
0.02
 41
0.6
 72
     2
 11
-5.259367750161601
 21
13.06518099999985
 31
0.0
100
AcDbText
 73
     2
  0
TEXT
  5
226
330
1EE
100
AcDbEntity
  8
200
  6
Continuous
 62
     1
100
AcDbText
 10
-8.760999113331507
 20
-1.250000000000142
 30
0.0
 40
2.5
  1
0.01
 41
0.6
 72
     2
 11
-5.260999113331507
 21
-0.0000000000001421
 31
0.0
100
AcDbText
 73
     2
  0
TEXT
  5
227
330
1EE
100
AcDbEntity
  8
200
  6
Continuous
 62
     1
100
AcDbText
 10
27.3793269999999
 20
-5.166666666666666
 30
0.0
 40
2.5
  1
8
 50
90.0
 41
0.7
 72
     2
 11
26.1293269999999
 21
-4.0
 31
0.0
100
AcDbText
 73
     2
  0
TEXT
  5
228
330
1EE
100
AcDbEntity
  8
200
  6
Continuous
 62
     1
100
AcDbText
 10
18.52060799999989
 20
-5.166666666666666
 30
0.0
 40
2.5
  1
5
 50
90.0
 41
0.7
 72
     2
 11
17.27060799999989
 21
-4.0
 31
0.0
100
AcDbText
 73
     2
  0
TEXT
  5
229
330
1EE
100
AcDbEntity
  8
200
  6
Continuous
 62
     1
100
AcDbText
 10
8.892599999999902
 20
-5.166666666666666
 30
0.0
 40
2.5
  1
3
 50
90.0
 41
0.7
 72
     2
 11
7.642599999999902
 21
-4.0
 31
0.0
100
AcDbText
 73
     2
  0
TEXT
  5
22A
330
1EE
100
AcDbEntity
  8
200
  6
Continuous
 62
     1
100
AcDbText
 10
44.6499349999999
 20
-6.625
 30
0.0
 40
2.5
  1
20
 50
90.0
 41
0.7
 72
     2
 11
43.3999349999999
 21
-4.0
 31
0.0
100
AcDbText
 73
     2
  0
TEXT
  5
22B
330
1EE
100
AcDbEntity
  8
200
  6
Continuous
 62
     1
100
AcDbText
 10
31.58544399999989
 20
-6.041666666666666
 30
0.0
 40
2.5
  1
10
 50
90.0
 41
0.7
 72
     2
 11
30.33544399999989
 21
-4.0
 31
0.0
100
AcDbText
 73
     2
  0
TEXT
  5
22C
330
1EE
100
AcDbEntity
  8
200
  6
Continuous
 62
     1
100
AcDbText
 10
-8.002317408877701
 20
68.27960699999978
 30
0.0
 40
2.5
  1
0.4
 41
0.6
 72
     2
 11
-5.252317408877701
 21
69.52960699999978
 31
0.0
100
AcDbText
 73
     2
  0
TEXT
  5
22D
330
1EE
100
AcDbEntity
  8
200
  6
Continuous
 62
     1
100
AcDbText
 10
-9.25773647314746
 20
24.87967199999988
 30
0.0
 40
2.5
  1
0.04
 41
0.6
 72
     2
 11
-5.25773647314746
 21
26.12967199999988
 31
0.0
100
AcDbText
 73
     2
  0
TEXT
  5
22E
330
1EE
100
AcDbEntity
  8
200
  6
Continuous
 62
     1
100
AcDbText
 10
-9.257211326075875
 20
29.08544399999984
 30
0.0
 40
2.5
  1
0.05
 41
0.6
 72
     2
 11
-5.257211326075875
 21
30.33544399999984
 31
0.0
100
AcDbText
 73
     2
  0
TEXT
  5
22F
330
1EE
100
AcDbEntity
  8
200
  6
Continuous
 62
     1
100
AcDbText
 10
-7.505579963030854
 20
42.15062399999985
 30
0.0
 40
2.5
  1
0.1
 41
0.6
 72
     2
 11
-5.255579963030854
 21
43.40062399999985
 31
0.0
100
AcDbText
 73
     2
  0
TEXT
  5
230
330
1EE
100
AcDbEntity
  8
200
  6
Continuous
 62
     1
100
AcDbText
 10
-8.003948685891828
 20
55.21511599999986
 30
0.0
 40
2.5
  1
0.2
 41
0.6
 72
     2
 11
-5.253948685891828
 21
56.46511599999986
 31
0.0
100
AcDbText
 73
     2
  0
TEXT
  5
231
330
1EE
100
AcDbEntity
  8
200
  6
Continuous
 62
     1
100
AcDbText
 10
-8.002994490881292
 20
62.85702599999979
 30
0.0
 40
2.5
  1
0.3
 41
0.6
 72
     2
 11
-5.252994490881292
 21
64.10702599999979
 31
0.0
100
AcDbText
 73
     2
  0
TEXT
  5
232
330
1EE
100
AcDbEntity
  8
200
  6
Continuous
 62
     1
100
AcDbText
 10
-8.00179226180613
 20
72.4853789999997
 30
0.0
 40
2.5
  1
0.5
 41
0.6
 72
     2
 11
-5.25179226180613
 21
73.7353789999997
 31
0.0
100
AcDbText
 73
     2
  0
TEXT
  5
233
330
1EE
100
AcDbEntity
  8
200
  6
Continuous
 62
     1
100
AcDbText
 10
-5.748529535716002
 20
85.5505589999999
 30
0.0
 40
2.5
  1
1
 41
0.6
 72
     2
 11
-5.248529535716002
 21
86.8005589999999
 31
0.0
100
AcDbText
 73
     2
  0
TEXT
  5
234
330
1EE
100
AcDbEntity
  8
200
  6
Continuous
 62
     1
100
AcDbText
 10
-6.247575340580624
 20
106.2576499999998
 30
0.0
 40
2.5
  1
3
 41
0.6
 72
     2
 11
-5.247575340580624
 21
107.5076499999998
 31
0.0
100
AcDbText
 73
     2
  0
TEXT
  5
235
330
1EE
100
AcDbEntity
  8
200
  6
Continuous
 62
     1
100
AcDbText
 10
-6.248529535716002
 20
98.6157389999998
 30
0.0
 40
2.5
  1
2
 41
0.6
 72
     2
 11
-5.248529535716002
 21
99.8657389999998
 31
0.0
100
AcDbText
 73
     2
  0
TEXT
  5
236
330
1EE
100
AcDbEntity
  8
200
  6
Continuous
 62
     1
100
AcDbText
 10
-6.24689825857699
 20
111.6802309999999
 30
0.0
 40
2.5
  1
4
 41
0.6
 72
     2
 11
-5.24689825857699
 21
112.9302309999999
 31
0.0
100
AcDbText
 73
     2
  0
TEXT
  5
237
330
1EE
100
AcDbEntity
  8
200
  6
Continuous
 62
     1
100
AcDbText
 10
-6.24637311150542
 20
115.8860029999998
 30
0.0
 40
2.5
  1
5
 41
0.6
 72
     2
 11
-5.24637311150542
 21
117.1360029999998
 31
0.0
100
AcDbText
 73
     2
  0
TEXT
  5
238
330
1EE
100
AcDbEntity
  8
200
  6
Continuous
 62
     1
100
AcDbText
 10
-6.994741813014783
 20
128.9506659999998
 30
0.0
 40
2.5
  1
10
 41
0.6
 72
     2
 11
-5.244741813014783
 21
130.2006659999998
 31
0.0
100
AcDbText
 73
     2
  0
TEXT
  5
239
330
1EE
100
AcDbEntity
  8
200
  6
Continuous
 62
     1
100
AcDbText
 10
-7.493110492922724
 20
142.0155019999997
 30
0.0
 40
2.5
  1
20
 41
0.6
 72
     2
 11
-5.243110492922724
 21
143.2655019999998
 31
0.0
100
AcDbText
 73
     2
  0
TEXT
  5
23A
330
1EE
100
AcDbEntity
  8
200
  6
Continuous
 62
     1
100
AcDbText
 10
-7.49215625483437
 20
149.6577569999998
 30
0.0
 40
2.5
  1
30
 41
0.6
 72
     2
 11
-5.24215625483437
 21
150.9077569999998
 31
0.0
100
AcDbText
 73
     2
  0
TEXT
  5
23B
330
1EE
100
AcDbEntity
  8
200
  6
Continuous
 62
     1
100
AcDbText
 10
-7.491479215908583
 20
155.0799929999998
 30
0.0
 40
2.5
  1
40
 41
0.6
 72
     2
 11
-5.241479215908583
 21
156.3299929999998
 31
0.0
100
AcDbText
 73
     2
  0
TEXT
  5
23C
330
1EE
100
AcDbEntity
  8
200
  6
Continuous
 62
     1
100
AcDbText
 10
-7.490524934742296
 20
162.7225929999998
 30
0.0
 40
2.5
  1
60
 41
0.6
 72
     2
 11
-5.240524934742296
 21
163.9725929999998
 31
0.0
100
AcDbText
 73
     2
  0
TEXT
  5
23D
330
1EE
100
AcDbEntity
  8
200
  6
Continuous
 62
     1
100
AcDbText
 10
-7.490954025759123
 20
159.2861099999998
 30
0.0
 40
2.5
  1
50
 41
0.6
 72
     2
 11
-5.240954025759123
 21
160.5361099999998
 31
0.0
100
AcDbText
 73
     2
  0
TEXT
  5
23E
330
1EE
100
AcDbEntity
  8
200
  6
Continuous
 62
     1
100
AcDbText
 10
-8.736737190564554
 20
193.0576919999998
 30
0.0
 40
2.5
  1
300
 41
0.6
 72
     2
 11
-5.236737190564554
 21
194.3076919999997
 31
0.0
100
AcDbText
 73
     2
  0
TEXT
  5
23F
330
1EE
100
AcDbEntity
  8
200
  6
Continuous
 62
     1
100
AcDbText
 10
-8.239322748744982
 20
172.3506009999998
 30
0.0
 40
2.5
  1
100
 41
0.6
 72
     2
 11
-5.239322748744982
 21
173.6006009999998
 31
0.0
100
AcDbText
 73
     2
  0
TEXT
  5
240
330
1EE
100
AcDbEntity
  8
200
  6
Continuous
 62
     1
100
AcDbText
 10
-8.737691428652951
 20
185.4154369999998
 30
0.0
 40
2.5
  1
200
 41
0.6
 72
     2
 11
-5.237691428652951
 21
186.6654369999998
 31
0.0
100
AcDbText
 73
     2
  0
TEXT
  5
241
330
1EE
100
AcDbEntity
  8
200
  6
Continuous
 62
     1
100
AcDbText
 10
-9.483903641397304
 20
215.7508809999998
 30
0.0
 40
2.5
  1
1000
 41
0.6
 72
     2
 11
-5.233903641397304
 21
217.0008809999997
 31
0.0
100
AcDbText
 73
     2
  0
TEXT
  5
242
330
1EE
100
AcDbEntity
  8
200
  6
Continuous
 62
     1
100
AcDbText
 10
-8.735534961489364
 20
202.6860449999999
 30
0.0
 40
2.5
  1
500
 41
0.6
 72
     2
 11
-5.235534961489364
 21
203.9360449999999
 31
0.0
100
AcDbText
 73
     2
  0
TEXT
  5
243
330
1EE
100
AcDbEntity
  8
200
  6
Continuous
 62
     1
100
AcDbText
 10
-8.736060108560934
 20
198.4802729999998
 30
0.0
 40
2.5
  1
400
 41
0.6
 72
     2
 11
-5.236060108560934
 21
199.7302729999998
 31
0.0
100
AcDbText
 73
     2
  0
TEXT
  5
244
330
1EE
100
AcDbEntity
  8
23
  6
Continuous
 62
     3
100
AcDbText
 10
0.0000000000000001
 20
276.6340526666666
 30
0.0
 40
3.910714999999981
  1
TemBreak2
 41
0.7
 11
0.0
 21
275.3304809999999
 31
0.0
100
AcDbText
 73
     1
  0
TEXT
  5
245
330
1EE
100
AcDbEntity
  8
200
  6
Continuous
 62
     1
100
AcDbText
 10
-9.980771491001689
 20
241.8728553743642
 30
0.0
 40
2.5
  1
4000
 41
0.6
 72
     2
 11
-5.230771491001689
 21
243.1228553743641
 31
0.0
100
AcDbText
 73
     2
  0
TEXT
  5
246
330
1EE
100
AcDbEntity
  8
200
  6
Continuous
 62
     1
100
AcDbText
 10
-9.981448551393356
 20
236.4506203743641
 30
0.0
 40
2.5
  1
3000
 41
0.6
 72
     2
 11
-5.231448551393356
 21
237.7006203743642
 31
0.0
100
AcDbText
 73
     2
  0
TEXT
  5
247
330
1EE
100
AcDbEntity
  8
200
  6
Continuous
 62
     1
100
AcDbText
 10
-9.982272364383163
 20
228.8153719999998
 30
0.0
 40
2.5
  1
2000
 41
0.6
 72
     2
 11
-5.232272364383163
 21
230.0653719999998
 31
0.0
100
AcDbText
 73
     2
  0
TEXT
  5
248
330
1EE
100
AcDbEntity
  8
200
  6
Continuous
 62
     1
100
AcDbText
 10
-10.72850376865692
 20
258.9971158246214
 30
0.0
 40
2.5
  1
10000
 41
0.6
 72
     2
 11
-5.228503768656921
 21
260.2471158246214
 31
0.0
100
AcDbText
 73
     2
  0
TEXT
  5
249
330
1EE
100
AcDbEntity
  8
200
  6
Continuous
 62
     1
100
AcDbText
 10
-9.980246322336924
 20
246.078628374364
 30
0.0
 40
2.5
  1
5000
 41
0.6
 72
     2
 11
-5.230246322336924
 21
247.328628374364
 31
0.0
100
AcDbText
 73
     2
  0
LINE
  5
24A
330
1EE
100
AcDbEntity
  8
24
  6
Continuous
 62
     1
100
AcDbLine
 10
51.042535
 20
260.4008159999998
 30
0.0
 11
51.042535
 21
0.0
 31
0.0
  0
LINE
  5
24B
330
1EE
100
AcDbEntity
  8
24
  6
Continuous
 62
     1
100
AcDbLine
 10
60.67054299999999
 20
260.4008159999998
 30
0.0
 11
60.67054299999999
 21
0.0
 31
0.0
  0
LINE
  5
24C
330
1EE
100
AcDbEntity
  8
24
  6
Continuous
 62
     1
100
AcDbLine
 10
69.52960600000001
 20
260.4008159999998
 30
0.0
 11
69.52960600000001
 21
0.0
 31
0.0
  0
LINE
  5
24D
330
1EE
100
AcDbEntity
  8
24
  6
Continuous
 62
     1
100
AcDbLine
 10
73.73572299999991
 20
260.4008159999998
 30
0.0
 11
73.73572299999991
 21
0.0
 31
0.0
  0
LINE
  5
24E
330
1EE
100
AcDbEntity
  8
24
  6
Continuous
 62
     1
100
AcDbLine
 10
86.80038699999993
 20
260.4008159999998
 30
0.0
 11
86.80038699999993
 21
0.0
 31
0.0
  0
LINE
  5
24F
330
1EE
100
AcDbEntity
  8
24
  6
Continuous
 62
     1
100
AcDbLine
 10
94.44298699999992
 20
260.4008159999998
 30
0.0
 11
94.44298699999992
 21
0.0
 31
0.0
  0
LINE
  5
250
330
1EE
100
AcDbEntity
  8
24
  6
Continuous
 62
     1
100
AcDbLine
 10
104.0706499999999
 20
260.4008159999998
 30
0.0
 11
104.0706499999999
 21
0.0
 31
0.0
  0
LINE
  5
251
330
1EE
100
AcDbEntity
  8
24
  6
Continuous
 62
     1
100
AcDbLine
 10
112.9300579999999
 20
260.4008159999998
 30
0.0
 11
112.9300579999999
 21
0.0
 31
0.0
  0
LINE
  5
252
330
1EE
100
AcDbEntity
  8
24
  6
Continuous
 62
     1
100
AcDbLine
 10
117.1358309999999
 20
260.4008159999998
 30
0.0
 11
117.1358309999999
 21
0.0
 31
0.0
  0
LINE
  5
253
330
1EE
100
AcDbEntity
  8
24
  6
Continuous
 62
     1
100
AcDbLine
 10
181.2428559999998
 20
260.4008159999998
 30
0.0
 11
181.2428559999998
 21
0.0
 31
0.0
  0
LINE
  5
254
330
1EE
100
AcDbEntity
  8
24
  6
Continuous
 62
     1
100
AcDbLine
 10
130.2003219999999
 20
230.0653719999999
 30
0.0
 11
130.2003219999999
 21
0.0
 31
0.0
  0
LINE
  5
255
330
1EE
100
AcDbEntity
  8
24
  6
Continuous
 62
     1
100
AcDbLine
 10
137.8429209999999
 20
230.0653719999999
 30
0.0
 11
137.8429209999999
 21
0.0
 31
0.0
  0
LINE
  5
256
330
1EE
100
AcDbEntity
  8
24
  6
Continuous
 62
     1
100
AcDbLine
 10
147.471274
 20
230.0653719999999
 30
0.0
 11
147.471274
 21
0.0
 31
0.0
  0
LINE
  5
257
330
1EE
100
AcDbEntity
  8
24
  6
Continuous
 62
     1
100
AcDbLine
 10
156.3299929999999
 20
230.0653719999999
 30
0.0
 11
156.3299929999999
 21
0.0
 31
0.0
  0
LINE
  5
258
330
1EE
100
AcDbEntity
  8
24
  6
Continuous
 62
     1
100
AcDbLine
 10
160.5357649999999
 20
230.0653719999999
 30
0.0
 11
160.5357649999999
 21
0.0
 31
0.0
  0
LINE
  5
259
330
1EE
100
AcDbEntity
  8
24
  6
Continuous
 62
     1
100
AcDbLine
 10
173.600257
 20
230.0653719999999
 30
0.0
 11
173.600257
 21
0.0
 31
0.0
  0
TEXT
  5
25A
330
1EE
100
AcDbEntity
  8
23
  6
Continuous
 62
     3
100
AcDbText
 10
78.428632
 20
-38.21649633333334
 30
0.0
 40
3.910714999999998
  1
TERASAKI ELECTRIC CO.,LTD.
 41
0.7
 11
78.428632
 21
-39.520068
 31
0.0
100
AcDbText
 73
     1
  0
TEXT
  5
25B
330
1EE
100
AcDbEntity
  8
24
  6
Continuous
 62
     1
100
AcDbText
 10
91.790263
 20
-20.06220266666666
 30
0.0
 40
2.444193999999999
  1
primary ==== 6.6kV
 41
0.7
 11
91.790263
 21
-20.876934
 31
0.0
100
AcDbText
 73
     1
  0
TEXT
  5
25C
330
1EE
100
AcDbEntity
  8
24
  6
Continuous
 62
     1
100
AcDbText
 10
91.790263
 20
-23.91933166666667
 30
0.0
 40
2.444193999999999
  1
secondary == 110,220,440V
 41
0.7
 11
91.790263
 21
-24.73406300000001
 31
0.0
100
AcDbText
 73
     1
  0
TEXT
  5
25D
330
1EE
100
AcDbEntity
  8
200
  6
Continuous
 62
     1
100
AcDbText
 10
74.98572299999991
 20
-7.499999999999999
 30
0.0
 40
2.5
  1
100
 50
90.0
 41
0.7
 72
     2
 11
73.73572299999991
 21
-4.0
 31
0.0
100
AcDbText
 73
     2
  0
TEXT
  5
25E
330
1EE
100
AcDbEntity
  8
200
  6
Continuous
 62
     1
100
AcDbText
 10
70.7796059999999
 20
-6.625
 30
0.0
 40
2.5
  1
80
 50
90.0
 41
0.7
 72
     2
 11
69.5296059999999
 21
-4.0
 31
0.0
100
AcDbText
 73
     2
  0
TEXT
  5
25F
330
1EE
100
AcDbEntity
  8
200
  6
Continuous
 62
     1
100
AcDbText
 10
61.92054299999991
 20
-6.625
 30
0.0
 40
2.5
  1
50
 50
90.0
 41
0.7
 72
     2
 11
60.67054299999991
 21
-4.0
 31
0.0
100
AcDbText
 73
     2
  0
TEXT
  5
260
330
1EE
100
AcDbEntity
  8
200
  6
Continuous
 62
     1
100
AcDbText
 10
52.29253499999988
 20
-6.625
 30
0.0
 40
2.5
  1
30
 50
90.0
 41
0.7
 72
     2
 11
51.04253499999988
 21
-4.0
 31
0.0
100
AcDbText
 73
     2
  0
TEXT
  5
261
330
1EE
100
AcDbEntity
  8
200
  6
Continuous
 62
     1
100
AcDbText
 10
95.69298699999992
 20
-8.083333333333332
 30
0.0
 40
2.5
  1
300
 50
90.0
 41
0.7
 72
     2
 11
94.44298699999992
 21
-4.0
 31
0.0
100
AcDbText
 73
     2
  0
TEXT
  5
262
330
1EE
100
AcDbEntity
  8
200
  6
Continuous
 62
     1
100
AcDbText
 10
88.05038699999993
 20
-8.083333333333332
 30
0.0
 40
2.5
  1
200
 50
90.0
 41
0.7
 72
     2
 11
86.80038699999993
 21
-4.0
 31
0.0
100
AcDbText
 73
     2
  0
TEXT
  5
263
330
1EE
100
AcDbEntity
  8
200
  6
Continuous
 62
     1
100
AcDbText
 10
118.3858309999999
 20
-8.958333333333332
 30
0.0
 40
2.5
  1
1000
 50
90.0
 41
0.7
 72
     2
 11
117.1358309999999
 21
-4.0
 31
0.0
100
AcDbText
 73
     2
  0
TEXT
  5
264
330
1EE
100
AcDbEntity
  8
200
  6
Continuous
 62
     1
100
AcDbText
 10
114.1800579999998
 20
-8.083333333333332
 30
0.0
 40
2.5
  1
800
 50
90.0
 41
0.7
 72
     2
 11
112.9300579999998
 21
-4.0
 31
0.0
100
AcDbText
 73
     2
  0
TEXT
  5
265
330
1EE
100
AcDbEntity
  8
200
  6
Continuous
 62
     1
100
AcDbText
 10
105.3206499999999
 20
-8.083333333333332
 30
0.0
 40
2.5
  1
500
 50
90.0
 41
0.7
 72
     2
 11
104.0706499999999
 21
-4.0
 31
0.0
100
AcDbText
 73
     2
  0
TEXT
  5
266
330
1EE
100
AcDbEntity
  8
200
  6
Continuous
 62
     1
100
AcDbText
 10
139.0929209999999
 20
-9.541666666666667
 30
0.0
 40
2.5
  1
3000
 50
90.0
 41
0.7
 72
     2
 11
137.8429209999999
 21
-4.0
 31
0.0
100
AcDbText
 73
     2
  0
TEXT
  5
267
330
1EE
100
AcDbEntity
  8
200
  6
Continuous
 62
     1
100
AcDbText
 10
131.4503219999997
 20
-9.541666666666667
 30
0.0
 40
2.5
  1
2000
 50
90.0
 41
0.7
 72
     2
 11
130.2003219999998
 21
-4.0
 31
0.0
100
AcDbText
 73
     2
  0
TEXT
  5
268
330
1EE
100
AcDbEntity
  8
200
  6
Continuous
 62
     1
100
AcDbText
 10
161.8726395661999
 20
-10.48817402477792
 30
0.0
 40
2.5
  1
10000
 50
90.0
 41
0.7
 72
     2
 11
160.6226395661999
 21
-4.071507358111261
 31
0.0
100
AcDbText
 73
     2
  0
TEXT
  5
269
330
1EE
100
AcDbEntity
  8
200
  6
Continuous
 62
     1
100
AcDbText
 10
148.7212739999999
 20
-9.541666666666667
 30
0.0
 40
2.5
  1
5000
 50
90.0
 41
0.7
 72
     2
 11
147.4712739999999
 21
-4.0
 31
0.0
100
AcDbText
 73
     2
  0
TEXT
  5
26A
330
1EE
100
AcDbEntity
  8
200
  6
Continuous
 62
     1
100
AcDbText
 10
157.5799929999999
 20
-9.541666666666667
 30
0.0
 40
2.5
  1
8000
 50
90.0
 41
0.7
 72
     2
 11
156.3299929999999
 21
-4.0
 31
0.0
100
AcDbText
 73
     2
  0
TEXT
  5
26B
330
1EE
100
AcDbEntity
  8
200
  6
Continuous
 62
     1
100
AcDbText
 10
182.5797305662
 20
-11.07150735811126
 30
0.0
 40
2.5
  1
30000
 50
90.0
 41
0.7
 72
     2
 11
181.3297305662
 21
-4.071507358111261
 31
0.0
100
AcDbText
 73
     2
  0
TEXT
  5
26C
330
1EE
100
AcDbEntity
  8
200
  6
Continuous
 62
     1
100
AcDbText
 10
174.9371315661998
 20
-11.07150735811126
 30
0.0
 40
2.5
  1
20000
 50
90.0
 41
0.7
 72
     2
 11
173.6871315661998
 21
-4.071507358111261
 31
0.0
100
AcDbText
 73
     2
  0
LINE
  5
26D
330
1EE
100
AcDbEntity
  8
24
  6
Continuous
 62
     1
100
AcDbLine
 10
130.2003219999999
 20
260.4008159999998
 30
0.0
 11
130.2003219999999
 21
256.1946989999997
 31
0.0
  0
LINE
  5
26E
330
1EE
100
AcDbEntity
  8
24
  6
Continuous
 62
     1
100
AcDbLine
 10
137.8429209999999
 20
260.4008159999998
 30
0.0
 11
137.8429209999999
 21
256.1946989999997
 31
0.0
  0
LINE
  5
26F
330
1EE
100
AcDbEntity
  8
24
  6
Continuous
 62
     1
100
AcDbLine
 10
147.471274
 20
260.4008159999998
 30
0.0
 11
147.471274
 21
256.1946989999997
 31
0.0
  0
LINE
  5
270
330
1EE
100
AcDbEntity
  8
24
  6
Continuous
 62
     1
100
AcDbLine
 10
156.3299929999999
 20
260.4008159999998
 30
0.0
 11
156.3299929999999
 21
256.1946989999997
 31
0.0
  0
LINE
  5
271
330
1EE
100
AcDbEntity
  8
24
  6
Continuous
 62
     1
100
AcDbLine
 10
160.5357649999999
 20
260.4008159999998
 30
0.0
 11
160.5357649999999
 21
256.1946989999997
 31
0.0
  0
LINE
  5
272
330
1EE
100
AcDbEntity
  8
24
  6
Continuous
 62
     1
100
AcDbLine
 10
173.600257
 20
260.4008159999998
 30
0.0
 11
173.600257
 21
256.1946989999997
 31
0.0
  0
ENDBLK
  5
274
330
1EE
100
AcDbEntity
  8
0
100
AcDbBlockEnd
  0
ENDSEC
  0
SECTION
  2
ENTITIES
  0
MTEXT
  5
9E
330
1F
100
AcDbEntity
  8
レイヤー_5
 62
     7
100
AcDbMText
 10
319.5563390583075
 20
322.6196849705392
 30
0.0
 40
2.444193999999999
 41
0.0
 71
     1
 72
     2
  1
\W1.02;\fOsaka|b0|i0|c128;125A
  7
STD
 73
     1
 44
1.0
  0
MTEXT
  5
9F
330
1F
100
AcDbEntity
  8
レイヤー_5
 62
     7
100
AcDbMText
 10
350.2404270583076
 20
315.5389799705393
 30
0.0
 40
2.444193999999999
 41
0.0
 71
     1
 72
     2
  1
\W1.02;\fOsaka|b0|i0|c128;S400-NF
  7
STD
 73
     1
 44
1.0
  0
MTEXT
  5
A0
330
1F
100
AcDbEntity
  8
レイヤー_5
 62
     7
100
AcDbMText
 10
333.4042450583075
 20
310.1892639705393
 30
0.0
 40
2.444193999999999
 41
0.0
 71
     1
 72
     2
  1
\W1.02;\fOsaka|b0|i0|c128;S400-GF
  7
STD
 73
     1
 44
1.0
  0
MTEXT
  5
A1
330
1F
100
AcDbEntity
  8
レイヤー_5
 62
     7
100
AcDbMText
 10
333.4042450583075
 20
315.5389799705393
 30
0.0
 40
2.444193999999999
 41
0.0
 71
     1
 72
     2
  1
\W1.02;\fOsaka|b0|i0|c128;S400-CF,
  7
STD
 73
     1
 44
1.0
  0
SPLINE
  5
A2
330
1F
100
AcDbEntity
  8
VPORT-BORDERS
 62
     7
100
AcDbSpline
210
0.0
220
0.0
230
1.0
 70
     8
 71
     3
 72
    17
 73
    13
 74
     0
 42
0.0000000001
 43
0.0000000001
 40
0.6977912985393276
 40
0.6977912985393276
 40
0.6977912985393276
 40
0.6977912985393276
 40
1.0
 40
1.0
 40
1.0
 40
2.0
 40
2.0
 40
2.0
 40
3.0
 40
3.0
 40
3.0
 40
4.0
 40
4.0
 40
4.0
 40
4.0
 10
275.4543692737569
 20
86.37401819848658
 30
0.0
 10
272.5720632740666
 20
86.72795916000536
 30
0.0
 10
269.7012263277088
 20
87.14633525595388
 30
0.0
 10
266.5146157614326
 20
87.75488031949766
 30
0.0
 10
252.0210990513631
 20
90.52267003303931
 30
0.0
 10
246.7697400018838
 20
97.4796958576921
 30
0.0
 10
246.7697400018838
 20
116.6468291042198
 30
0.0
 10
246.7697400018838
 20
131.1107179931087
 30
0.0
 10
246.7697400018838
 20
197.668067982258
 30
0.0
 10
246.7697400018838
 20
204.7236235378135
 30
0.0
 10
246.7697400018838
 20
211.7791790933689
 30
0.0
 10
246.2233478577867
 20
214.8367013372925
 30
0.0
 10
241.1318412388629
 20
223.1167090747309
 30
0.0
  0
SPLINE
  5
A3
330
1F
100
AcDbEntity
  8
VPORT-BORDERS
 62
     7
100
AcDbSpline
210
0.0
220
0.0
230
1.0
 70
     8
 71
     3
 72
    26
 73
    22
 74
     0
 42
0.0000000001
 43
0.0000000001
 40
0.0
 40
0.0
 40
0.0
 40
0.0
 40
1.0
 40
1.0
 40
1.0
 40
2.0
 40
2.0
 40
2.0
 40
3.0
 40
3.0
 40
3.0
 40
4.0
 40
4.0
 40
4.0
 40
5.0
 40
5.0
 40
5.0
 40
6.0
 40
6.0
 40
6.0
 40
7.0
 40
7.0
 40
7.0
 40
7.0
 10
214.767214502752
 20
330.7829402153308
 30
0.0
 10
214.767214502752
 20
330.7829402153308
 30
0.0
 10
214.767214502752
 20
313.3204402153308
 30
0.0
 10
214.767214502752
 20
311.5565513264418
 30
0.0
 10
214.767214502752
 20
298.1509957708865
 30
0.0
 10
215.783173161606
 20
286.2195965738379
 30
0.0
 10
220.2352700583076
 20
270.0169679931085
 30
0.0
 10
225.6151311694186
 20
250.4378013264419
 30
0.0
 10
236.6146320374741
 20
230.0166533229698
 30
0.0
 10
243.0035616164673
 20
220.128195749185
 30
0.0
 10
249.3632078838283
 20
210.2853856905912
 30
0.0
 10
251.1350204923353
 20
207.5630712374664
 30
0.0
 10
254.7503036954604
 20
202.0190513264419
 30
0.0
 10
258.057595362127
 20
196.9480430256608
 30
0.0
 10
259.0408256138629
 20
188.5239232882476
 30
0.0
 10
259.0408256138629
 20
182.8515735703654
 30
0.0
 10
259.0408256138629
 20
169.6227514132474
 30
0.0
 10
259.0408256138629
 20
120.7037735486643
 30
0.0
 10
259.0408256138629
 20
108.5329402153309
 30
0.0
 10
259.0408256138629
 20
101.1246068819975
 30
0.0
 10
259.3323000033429
 20
89.79744497849797
 30
0.0
 10
275.4543692737569
 20
86.37401819848658
 30
0.0
  0
MTEXT
  5
A4
330
1F
100
AcDbEntity
  8
VPORT-BORDERS
 62
     7
100
AcDbMText
 10
174.5107570583076
 20
71.85704097053932
 30
0.0
 40
2.444193999999999
 41
0.0
 71
     1
 72
     2
  1
\W1.02;\fOsaka|b0|i0|c128;0.01S
  7
STD
 73
     1
 44
1.0
  0
LINE
  5
A5
330
1F
100
AcDbEntity
  8
VPORT-BORDERS
 62
     7
100
AcDbLine
 10
379.6246800583076
 20
70.41674797053932
 30
0.0
 11
185.2821920583076
 21
70.41674797053932
 31
0.0
  0
LINE
  5
A6
330
1F
100
AcDbEntity
  8
VPORT-BORDERS
 62
     7
100
AcDbLine
 10
185.2821920583076
 20
330.8172189705393
 30
0.0
 11
185.2821920583076
 21
70.41674797053932
 31
0.0
  0
LINE
  5
A7
330
1F
100
AcDbEntity
  8
VPORT-BORDERS
 62
     7
100
AcDbLine
 10
211.4821440583074
 20
330.8172189705393
 30
0.0
 11
211.4821440583074
 21
70.41674797053932
 31
0.0
  0
LINE
  5
A8
330
1F
100
AcDbEntity
  8
VPORT-BORDERS
 62
     7
100
AcDbLine
 10
198.3821680583074
 20
330.8172189705393
 30
0.0
 11
198.3821680583074
 21
70.41674797053932
 31
0.0
  0
MTEXT
  5
A9
330
1F
100
AcDbEntity
  8
VPORT-BORDERS
 62
     7
100
AcDbMText
 10
210.5200300583076
 20
55.63143197053932
 30
0.0
 40
2.444193999999999
 41
0.0
 71
     1
 72
     2
  1
\fOsaka|b0|i0|c128;110V
  7
STD
 11
0.0
 21
1.0
 31
0.0
 73
     1
 44
1.0
  0
MTEXT
  5
AA
330
1F
100
AcDbEntity
  8
VPORT-BORDERS
 62
     7
100
AcDbMText
 10
183.8381100583076
 20
55.63143197053932
 30
0.0
 40
2.444193999999999
 41
0.0
 71
     1
 72
     2
  1
\fOsaka|b0|i0|c128;440V
  7
STD
 11
0.0
 21
1.0
 31
0.0
 73
     1
 44
1.0
  0
MTEXT
  5
AB
330
1F
100
AcDbEntity
  8
VPORT-BORDERS
 62
     7
100
AcDbMText
 10
196.9380860583076
 20
55.63143197053932
 30
0.0
 40
2.444193999999999
 41
0.0
 71
     1
 72
     2
  1
\fOsaka|b0|i0|c128;220V
  7
STD
 11
0.0
 21
1.0
 31
0.0
 73
     1
 44
1.0
  0
LWPOLYLINE
  5
16E
330
1F
100
AcDbEntity
  8
0
100
AcDbPolyline
 90
        2
 70
     0
 43
0.0
 10
299.6316296503215
 20
83.40510275873375
 10
275.4543692737466
 20
86.37401819848783
  0
SPLINE
  5
1B6
330
1F
100
AcDbEntity
  8
VPORT-BORDERS
 62
     7
100
AcDbSpline
210
0.0
220
0.0
230
1.0
 70
     8
 71
     3
 72
    17
 73
    13
 74
     0
 42
0.0000000001
 43
0.0000000001
 40
0.7715258650609919
 40
0.7715258650609919
 40
0.7715258650609919
 40
0.7715258650609919
 40
1.0
 40
1.0
 40
1.0
 40
2.0
 40
2.0
 40
2.0
 40
3.0
 40
3.0
 40
3.0
 40
4.0
 40
4.0
 40
4.0
 40
4.0
 10
275.4543692737466
 20
86.37401819848824
 30
0.0
 10
273.2648079956923
 20
86.67103226232718
 30
0.0
 10
271.0361673440767
 20
87.02240854693114
 30
0.0
 10
268.6270438178561
 20
87.48247738774397
 30
0.0
 10
254.1335271077866
 20
90.25026710128562
 30
0.0
 10
248.8821680583074
 20
97.20729292593842
 30
0.0
 10
248.8821680583074
 20
116.374426172466
 30
0.0
 10
248.8821680583074
 20
131.1107179931087
 30
0.0
 10
248.8821680583074
 20
197.668067982258
 30
0.0
 10
248.8821680583074
 20
201.3625771955203
 30
0.0
 10
248.8821680583074
 20
208.4181327510759
 30
0.0
 10
248.3357759142103
 20
211.4756549949996
 30
0.0
 10
243.2442692952865
 20
219.755662732438
 30
0.0
  0
SPLINE
  5
1BD
330
1F
100
AcDbEntity
  8
VPORT-BORDERS
 62
     7
100
AcDbSpline
210
0.0
220
0.0
230
1.0
 70
     8
 71
     3
 72
    17
 73
    13
 74
     0
 42
0.0000000001
 43
0.0000000001
 40
0.8576390664979085
 40
0.8576390664979085
 40
0.8576390664979085
 40
0.8576390664979085
 40
1.0
 40
1.0
 40
1.0
 40
2.0
 40
2.0
 40
2.0
 40
3.0
 40
3.0
 40
3.0
 40
4.0
 40
4.0
 40
4.0
 40
4.0
 10
275.4543692737466
 20
86.37401819848806
 30
0.0
 10
274.059194293367
 20
86.58942874170781
 30
0.0
 10
272.6281549795473
 20
86.83389551207651
 30
0.0
 10
271.1270438178564
 20
87.12056178907468
 30
0.0
 10
256.633527107787
 20
89.88835150261634
 30
0.0
 10
251.3821680583077
 20
96.84537732726914
 30
0.0
 10
251.3821680583077
 20
116.0125105737968
 30
0.0
 10
251.3821680583077
 20
131.1107179931087
 30
0.0
 10
251.3821680583077
 20
197.668067982258
 30
0.0
 10
251.3821680583077
 20
197.4949185117511
 30
0.0
 10
251.3821680583077
 20
204.5504740673068
 30
0.0
 10
250.8357759142104
 20
207.6079963112303
 30
0.0
 10
245.7442692952868
 20
215.8880040486686
 30
0.0
  0
SPLINE
  5
1BF
330
1F
100
AcDbEntity
  8
VPORT-BORDERS
 62
     7
100
AcDbSpline
210
0.0
220
0.0
230
1.0
 70
     8
 71
     3
 72
    17
 73
    13
 74
     0
 42
0.0000000001
 43
0.0000000001
 40
0.931325201440112
 40
0.931325201440112
 40
0.931325201440112
 40
0.931325201440112
 40
1.0
 40
1.0
 40
1.0
 40
2.0
 40
2.0
 40
2.0
 40
3.0
 40
3.0
 40
3.0
 40
4.0
 40
4.0
 40
4.0
 40
4.0
 10
275.4543692737466
 20
86.37401819848781
 30
0.0
 10
274.7590070774557
 20
86.49414081592537
 30
0.0
 10
274.0511786216196
 20
86.62260819089208
 30
0.0
 10
273.3270438178561
 20
86.76089576981189
 30
0.0
 10
258.8335271077866
 20
89.52868548335354
 30
0.0
 10
253.5821680583074
 20
96.48571130800631
 30
0.0
 10
253.5821680583074
 20
115.6528445545339
 30
0.0
 10
253.5821680583074
 20
131.1107179931087
 30
0.0
 10
253.5821680583074
 20
197.668067982258
 30
0.0
 10
253.5821680583074
 20
194.0950006685018
 30
0.0
 10
253.5821680583074
 20
201.1505562240575
 30
0.0
 10
253.0357759142103
 20
204.2080784679809
 30
0.0
 10
247.9442692952865
 20
212.4880862054193
 30
0.0
  0
SPLINE
  5
1C1
330
1F
100
AcDbEntity
  8
VPORT-BORDERS
 62
     7
100
AcDbSpline
210
0.0
220
0.0
230
1.0
 70
     8
 71
     3
 72
    17
 73
    13
 74
     0
 42
0.0000000001
 43
0.0000000001
 40
0.9959696419315287
 40
0.9959696419315287
 40
0.9959696419315287
 40
0.9959696419315287
 40
1.0
 40
1.0
 40
1.0
 40
2.0
 40
2.0
 40
2.0
 40
3.0
 40
3.0
 40
3.0
 40
4.0
 40
4.0
 40
4.0
 40
4.0
 10
275.4543692737466
 20
86.37401819848783
 30
0.0
 10
275.4119831004977
 20
86.38206661461515
 30
0.0
 10
275.3695415406046
 20
86.39014855557183
 30
0.0
 10
275.327043817856
 20
86.39826431959525
 30
0.0
 10
260.8335271077864
 20
89.16605403313694
 30
0.0
 10
255.5821680583072
 20
96.1230798577897
 30
0.0
 10
255.5821680583072
 20
115.2902131043173
 30
0.0
 10
255.5821680583072
 20
131.1107179931087
 30
0.0
 10
255.5821680583072
 20
197.668067982258
 30
0.0
 10
255.5821680583072
 20
191.0096280216503
 30
0.0
 10
255.5821680583072
 20
198.0651835772059
 30
0.0
 10
255.0357759142102
 20
201.1227058211295
 30
0.0
 10
249.9442692952865
 20
209.4027135585679
 30
0.0
  0
SPLINE
  5
1C3
330
1F
100
AcDbEntity
  8
VPORT-BORDERS
 62
     7
100
AcDbSpline
210
0.0
220
0.0
230
1.0
 70
     8
 71
     3
 72
    14
 73
    10
 74
     0
 42
0.0000000001
 43
0.0000000001
 40
1.03900515609182
 40
1.03900515609182
 40
1.03900515609182
 40
1.03900515609182
 40
2.0
 40
2.0
 40
2.0
 40
3.0
 40
3.0
 40
3.0
 40
4.0
 40
4.0
 40
4.0
 40
4.0
 10
275.4730244660225
 20
86.37401819848767
 30
0.0
 10
262.2318563781685
 20
89.3596334254488
 30
0.0
 10
257.3821680583074
 20
96.50298003344907
 30
0.0
 10
257.3821680583074
 20
114.9224962558632
 30
0.0
 10
257.3821680583074
 20
131.1107179931087
 30
0.0
 10
257.3821680583074
 20
197.668067982258
 30
0.0
 10
257.3821680583074
 20
188.2682126047589
 30
0.0
 10
257.3821680583074
 20
195.3237681603145
 30
0.0
 10
256.8357759142103
 20
198.381290404238
 30
0.0
 10
251.7442692952867
 20
206.6612981416764
 30
0.0
  0
VIEWPORT
  5
71
330
55
100
AcDbEntity
 67
     1
  8
0
100
AcDbViewport
 10
133.3499908447265
 20
101.5999970436096
 30
0.0
 40
381.3957395593833
 41
218.2856291881582
 68
     1
 69
     1
 12
133.3499908447265
 22
101.5999970436096
 13
0.0
 23
0.0
 14
10.0
 24
10.0
 15
10.0
 25
10.0
 16
0.0
 26
0.0
 36
1.0
 17
0.0
 27
0.0
 37
0.0
 42
50.0
 43
0.0
 44
0.0
 45
218.2856291881582
 50
0.0
 51
0.0
 72
   100
 90
    32800
  1

281
     0
 71
     1
 74
     0
110
0.0
120
0.0
130
0.0
111
1.0
121
0.0
131
0.0
112
0.0
122
1.0
132
0.0
 79
     0
146
0.0
  0
VIEWPORT
  5
73
330
55
100
AcDbEntity
 67
     1
  8
0
100
AcDbViewport
 10
133.3499939441677
 20
101.5999939441678
 30
0.0
 40
213.3599903106689
 41
162.5599903106689
 68
     2
 69
     2
 12
210.0
 22
148.5
 13
0.0
 23
0.0
 14
10.0
 24
10.0
 15
10.0
 25
10.0
 16
0.0
 26
0.0
 36
1.0
 17
0.0
 27
0.0
 37
0.0
 42
50.0
 43
0.0
 44
0.0
 45
324.0677920111345
 50
0.0
 51
0.0
 72
   100
 90
    32864
  1

281
     0
 71
     1
 74
     0
110
0.0
120
0.0
130
0.0
111
1.0
121
0.0
131
0.0
112
0.0
122
1.0
132
0.0
 79
     0
146
0.0
  0
ENDSEC
  0
SECTION
  2
OBJECTS
  0
DICTIONARY
  5
C
330
0
100
AcDbDictionary
281
     1
  3
ACAD_GROUP
350
D
  3
ACAD_LAYOUT
350
1A
  3
ACAD_MLINESTYLE
350
17
  3
ACAD_PLOTSETTINGS
350
19
  3
ACAD_PLOTSTYLENAME
350
E
  3
ACDBHEADERROUNDTRIPXREC
350
278
  3
AcDbVariableDictionary
350
5E
  0
DICTIONARY
  5
D
102
{ACAD_REACTORS
330
C
102
}
330
C
100
AcDbDictionary
281
     1
  0
DICTIONARY
  5
1A
102
{ACAD_REACTORS
330
C
102
}
330
C
100
AcDbDictionary
281
     1
  3
Model
350
22
  3
ﾚｲｱｳﾄ1
350
51
  3
ﾚｲｱｳﾄ2
350
56
  0
DICTIONARY
  5
17
102
{ACAD_REACTORS
330
C
102
}
330
C
100
AcDbDictionary
281
     1
  3
Standard
350
18
  0
DICTIONARY
  5
19
102
{ACAD_REACTORS
330
C
102
}
330
C
100
AcDbDictionary
281
     1
  0
ACDBDICTIONARYWDFLT
  5
E
102
{ACAD_REACTORS
330
C
102
}
330
C
100
AcDbDictionary
281
     1
  3
Normal
350
F
100
AcDbDictionaryWithDefault
340
F
  0
DICTIONARY
  5
278
102
{ACAD_REACTORS
330
C
102
}
330
C
100
AcDbDictionary
281
     1
  3
CEPSNTYPE
350
282
  3
DIMSTYLEDATA
350
286
  3
FINGERPRINTGUID
350
283
  3
HYPERLINKBASE
350
27B
  3
INSUNITS
350
281
  3
LAYOUTDICT
350
27D
  3
LWETCUNION
350
280
  3
PLOTSETDICT
350
27E
  3
PLOTSTYLNAMDICT
350
27F
  3
PSVPSCALE
350
285
  3
PUCSBASE
350
289
  3
PUCSORGBACK
350
28F
  3
PUCSORGBOTTOM
350
28B
  3
PUCSORGFRONT
350
28E
  3
PUCSORGLEFT
350
28C
  3
PUCSORGRIGHT
350
28D
  3
PUCSORGTOP
350
28A
  3
PUCSORTHOREF
350
287
  3
PUCSORTHOVIEW
350
288
  3
STYLESHEET
350
27C
  3
TSTACKALIGN
350
279
  3
TSTACKSIZE
350
27A
  3
UCSBASE
350
292
  3
UCSORGBACK
350
298
  3
UCSORGBOTTOM
350
294
  3
UCSORGFRONT
350
297
  3
UCSORGLEFT
350
295
  3
UCSORGRIGHT
350
296
  3
UCSORGTOP
350
293
  3
UCSORTHOREF
350
290
  3
UCSORTHOVIEW
350
291
  3
VERSIONGUID
350
284
  0
DICTIONARY
  5
5E
102
{ACAD_REACTORS
330
C
102
}
330
C
100
AcDbDictionary
281
     1
  3
DIMASSOC
350
5F
  3
HIDETEXT
350
63
  0
LAYOUT
  5
22
102
{ACAD_REACTORS
330
1A
102
}
330
1A
100
AcDbPlotSettings
  1

  2
none_device
  4
ANSI_A_(8.50_x_11.00_Inches)
  6

 40
6.349999904632567
 41
19.04999923706053
 42
6.350006103515625
 43
19.04998779296875
 44
215.8999938964841
 45
279.3999938964843
 46
0.0
 47
0.0
 48
0.0
 49
0.0
140
0.0
141
0.0
142
1.0
143
78.436453180766
 70
 11952
 72
     0
 73
     1
 74
     0
  7

 75
     0
147
0.0127491741332998
148
0.0
149
0.0
100
AcDbLayout
  1
Model
 70
     1
 71
     0
 10
0.0
 20
0.0
 11
12.0
 21
9.0
 12
0.0
 22
0.0
 32
0.0
 14
0.0
 24
0.0
 34
0.0
 15
0.0
 25
0.0
 35
0.0
146
0.0
 13
0.0
 23
0.0
 33
0.0
 16
1.0
 26
0.0
 36
0.0
 17
0.0
 27
1.0
 37
0.0
 76
     0
330
1F
  0
LAYOUT
  5
51
102
{ACAD_REACTORS
330
1A
102
}
330
1A
100
AcDbPlotSettings
  1

  2
none_device
  4
Letter_(8.50_x_11.00_Inches)
  6

 40
6.349999904632567
 41
6.349999904632567
 42
6.350006103515625
 43
6.350006103515625
 44
215.8999938964841
 45
279.3999938964843
 46
0.0
 47
0.0
 48
0.0
 49
0.0
140
0.0
141
0.0
142
1.0
143
1.0
 70
   688
 72
     1
 73
     1
 74
     5
  7

 75
    16
147
1.0
148
0.0
149
0.0
100
AcDbLayout
  1
ﾚｲｱｳﾄ1
 70
     1
 71
     1
 10
-6.350006103515625
 20
-6.349999904632567
 11
273.0499877929687
 21
209.5499939918517
 12
0.0
 22
0.0
 32
0.0
 14
26.66076962115562
 24
20.31135699206657
 34
-0.0015258207003583
 15
240.039213369355
 25
182.8886381005154
 35
0.0000000349246037
146
0.0
 13
0.0
 23
0.0
 33
0.0
 16
1.0
 26
0.0
 36
0.0
 17
0.0
 27
1.0
 37
0.0
 76
     0
330
50
331
6B
  0
LAYOUT
  5
56
102
{ACAD_REACTORS
330
1A
102
}
330
1A
100
AcDbPlotSettings
  1

  2
none_device
  4
Letter_(8.50_x_11.00_Inches)
  6

 40
6.349999904632567
 41
6.349999904632567
 42
6.350006103515625
 43
6.350006103515625
 44
215.8999938964841
 45
279.3999938964843
 46
0.0
 47
0.0
 48
0.0
 49
0.0
140
0.0
141
0.0
142
1.0
143
1.0
 70
   688
 72
     1
 73
     1
 74
     5
  7

 75
    16
147
1.0
148
0.0
149
0.0
100
AcDbLayout
  1
ﾚｲｱｳﾄ2
 70
     1
 71
     2
 10
-6.350006103515625
 20
-6.349999904632567
 11
273.0499877929687
 21
209.5499939918517
 12
0.0
 22
0.0
 32
0.0
 14
26.66076962115562
 24
20.31135699206657
 34
-0.0015258207003583
 15
240.039213369355
 25
182.8886381005154
 35
0.0000000349246037
146
0.0
 13
0.0
 23
0.0
 33
0.0
 16
1.0
 26
0.0
 36
0.0
 17
0.0
 27
1.0
 37
0.0
 76
     0
330
55
331
71
  0
MLINESTYLE
  5
18
102
{ACAD_REACTORS
330
17
102
}
330
17
100
AcDbMlineStyle
  2
STANDARD
 70
     0
  3

 62
   256
 51
90.0
 52
90.0
 71
     2
 49
0.5
 62
   256
  6
BYLAYER
 49
-0.5
 62
   256
  6
BYLAYER
  0
ACDBPLACEHOLDER
  5
F
102
{ACAD_REACTORS
330
E
102
}
330
E
  0
XRECORD
  5
282
102
{ACAD_REACTORS
330
278
102
}
330
278
100
AcDbXrecord
280
     1
 90
        0
  0
XRECORD
  5
286
102
{ACAD_REACTORS
330
278
102
}
330
278
100
AcDbXrecord
280
     1
1000
DSTYLE
1002
{
1070
   278
 70
    44
1002
}
  0
XRECORD
  5
283
102
{ACAD_REACTORS
330
278
102
}
330
278
100
AcDbXrecord
280
     1
  1
{FDEAD578-A652-11D2-9A35-0060089B3A3F}
  0
XRECORD
  5
27B
102
{ACAD_REACTORS
330
278
102
}
330
278
100
AcDbXrecord
280
     1
  1

  0
XRECORD
  5
281
102
{ACAD_REACTORS
330
278
102
}
330
278
100
AcDbXrecord
280
     1
 90
        4
  0
XRECORD
  5
27D
102
{ACAD_REACTORS
330
278
102
}
330
278
100
AcDbXrecord
280
     1
340
1A
  0
XRECORD
  5
280
102
{ACAD_REACTORS
330
278
102
}
330
278
100
AcDbXrecord
280
     1
 90
    10781
  0
XRECORD
  5
27E
102
{ACAD_REACTORS
330
278
102
}
330
278
100
AcDbXrecord
280
     1
340
19
  0
XRECORD
  5
27F
102
{ACAD_REACTORS
330
278
102
}
330
278
100
AcDbXrecord
280
     1
340
E
  0
XRECORD
  5
285
102
{ACAD_REACTORS
330
278
102
}
330
278
100
AcDbXrecord
280
     1
 40
0.0
  0
XRECORD
  5
289
102
{ACAD_REACTORS
330
278
102
}
330
278
100
AcDbXrecord
280
     1
340
0
  0
XRECORD
  5
28F
102
{ACAD_REACTORS
330
278
102
}
330
278
100
AcDbXrecord
280
     1
 10
0.0
 20
0.0
 30
0.0
  0
XRECORD
  5
28B
102
{ACAD_REACTORS
330
278
102
}
330
278
100
AcDbXrecord
280
     1
 10
0.0
 20
0.0
 30
0.0
  0
XRECORD
  5
28E
102
{ACAD_REACTORS
330
278
102
}
330
278
100
AcDbXrecord
280
     1
 10
0.0
 20
0.0
 30
0.0
  0
XRECORD
  5
28C
102
{ACAD_REACTORS
330
278
102
}
330
278
100
AcDbXrecord
280
     1
 10
0.0
 20
0.0
 30
0.0
  0
XRECORD
  5
28D
102
{ACAD_REACTORS
330
278
102
}
330
278
100
AcDbXrecord
280
     1
 10
0.0
 20
0.0
 30
0.0
  0
XRECORD
  5
28A
102
{ACAD_REACTORS
330
278
102
}
330
278
100
AcDbXrecord
280
     1
 10
0.0
 20
0.0
 30
0.0
  0
XRECORD
  5
287
102
{ACAD_REACTORS
330
278
102
}
330
278
100
AcDbXrecord
280
     1
340
0
  0
XRECORD
  5
288
102
{ACAD_REACTORS
330
278
102
}
330
278
100
AcDbXrecord
280
     1
 70
     0
  0
XRECORD
  5
27C
102
{ACAD_REACTORS
330
278
102
}
330
278
100
AcDbXrecord
280
     1
  1

  0
XRECORD
  5
279
102
{ACAD_REACTORS
330
278
102
}
330
278
100
AcDbXrecord
280
     1
 90
        1
  0
XRECORD
  5
27A
102
{ACAD_REACTORS
330
278
102
}
330
278
100
AcDbXrecord
280
     1
 90
       70
  0
XRECORD
  5
292
102
{ACAD_REACTORS
330
278
102
}
330
278
100
AcDbXrecord
280
     1
340
0
  0
XRECORD
  5
298
102
{ACAD_REACTORS
330
278
102
}
330
278
100
AcDbXrecord
280
     1
 10
0.0
 20
0.0
 30
0.0
  0
XRECORD
  5
294
102
{ACAD_REACTORS
330
278
102
}
330
278
100
AcDbXrecord
280
     1
 10
0.0
 20
0.0
 30
0.0
  0
XRECORD
  5
297
102
{ACAD_REACTORS
330
278
102
}
330
278
100
AcDbXrecord
280
     1
 10
0.0
 20
0.0
 30
0.0
  0
XRECORD
  5
295
102
{ACAD_REACTORS
330
278
102
}
330
278
100
AcDbXrecord
280
     1
 10
0.0
 20
0.0
 30
0.0
  0
XRECORD
  5
296
102
{ACAD_REACTORS
330
278
102
}
330
278
100
AcDbXrecord
280
     1
 10
0.0
 20
0.0
 30
0.0
  0
XRECORD
  5
293
102
{ACAD_REACTORS
330
278
102
}
330
278
100
AcDbXrecord
280
     1
 10
0.0
 20
0.0
 30
0.0
  0
XRECORD
  5
290
102
{ACAD_REACTORS
330
278
102
}
330
278
100
AcDbXrecord
280
     1
340
0
  0
XRECORD
  5
291
102
{ACAD_REACTORS
330
278
102
}
330
278
100
AcDbXrecord
280
     1
 70
     0
  0
XRECORD
  5
284
102
{ACAD_REACTORS
330
278
102
}
330
278
100
AcDbXrecord
280
     1
  1
{986D19CB-EC43-426E-B030-C4E4008A4807}
  0
DICTIONARYVAR
  5
5F
102
{ACAD_REACTORS
330
5E
102
}
330
5E
100
DictionaryVariables
280
     0
  1
2
  0
DICTIONARYVAR
  5
63
102
{ACAD_REACTORS
330
5E
102
}
330
5E
100
DictionaryVariables
280
     0
  1
1
  0
ENDSEC
  0
EOF
