  0
SECTION
  2
HEADER
  9
$ACADVER
  1
AC1015
  9
$ACADMAINTVER
 70
    20
  9
$DWGCODEPAGE
  3
ANSI_932
  9
$INSBASE
 10
0.0
 20
0.0
 30
0.0
  9
$EXTMIN
 10
-10.77143499999996
 20
-14.78531599999996
 30
0.0
  9
$EXTMAX
 10
202.3761763885714
 20
260.400471
 30
0.0
  9
$LIMMIN
 10
0.0
 20
0.0
  9
$LIMMAX
 10
420.0
 20
297.0
  9
$ORTHOMODE
 70
     1
  9
$REGENMODE
 70
     1
  9
$FILLMODE
 70
     1
  9
$QTEXTMODE
 70
     0
  9
$MIRRTEXT
 70
     1
  9
$LTSCALE
 40
1.0
  9
$ATTMODE
 70
     1
  9
$TEXTSIZE
 40
2.5
  9
$TRACEWID
 40
1.0
  9
$TEXTSTYLE
  7
Standard
  9
$CLAYER
  8
0
  9
$CELTYPE
  6
ByLayer
  9
$CECOLOR
 62
   256
  9
$CELTSCALE
 40
1.0
  9
$DISPSILH
 70
     0
  9
$DIMSCALE
 40
1.0
  9
$DIMASZ
 40
2.5
  9
$DIMEXO
 40
0.625
  9
$DIMDLI
 40
3.75
  9
$DIMRND
 40
0.0
  9
$DIMDLE
 40
0.0
  9
$DIMEXE
 40
1.25
  9
$DIMTP
 40
0.0
  9
$DIMTM
 40
0.0
  9
$DIMTXT
 40
2.5
  9
$DIMCEN
 40
2.5
  9
$DIMTSZ
 40
0.0
  9
$DIMTOL
 70
     0
  9
$DIMLIM
 70
     0
  9
$DIMTIH
 70
     0
  9
$DIMTOH
 70
     0
  9
$DIMSE1
 70
     0
  9
$DIMSE2
 70
     0
  9
$DIMTAD
 70
     1
  9
$DIMZIN
 70
     8
  9
$DIMBLK
  1

  9
$DIMASO
 70
     1
  9
$DIMSHO
 70
     1
  9
$DIMPOST
  1

  9
$DIMAPOST
  1

  9
$DIMALT
 70
     0
  9
$DIMALTD
 70
     3
  9
$DIMALTF
 40
0.03937007874016
  9
$DIMLFAC
 40
1.0
  9
$DIMTOFL
 70
     1
  9
$DIMTVP
 40
0.0
  9
$DIMTIX
 70
     0
  9
$DIMSOXD
 70
     0
  9
$DIMSAH
 70
     0
  9
$DIMBLK1
  1

  9
$DIMBLK2
  1

  9
$DIMSTYLE
  2
ISO-25
  9
$DIMCLRD
 70
     0
  9
$DIMCLRE
 70
     0
  9
$DIMCLRT
 70
     0
  9
$DIMTFAC
 40
1.0
  9
$DIMGAP
 40
0.625
  9
$DIMJUST
 70
     0
  9
$DIMSD1
 70
     0
  9
$DIMSD2
 70
     0
  9
$DIMTOLJ
 70
     0
  9
$DIMTZIN
 70
     8
  9
$DIMALTZ
 70
     0
  9
$DIMALTTZ
 70
     0
  9
$DIMUPT
 70
     0
  9
$DIMDEC
 70
     2
  9
$DIMTDEC
 70
     2
  9
$DIMALTU
 70
     2
  9
$DIMALTTD
 70
     3
  9
$DIMTXSTY
  7
Standard
  9
$DIMAUNIT
 70
     0
  9
$DIMADEC
 70
     0
  9
$DIMALTRND
 40
0.0
  9
$DIMAZIN
 70
     0
  9
$DIMDSEP
 70
    44
  9
$DIMATFIT
 70
     3
  9
$DIMFRAC
 70
     0
  9
$DIMLDRBLK
  1

  9
$DIMLUNIT
 70
     2
  9
$DIMLWD
 70
    -2
  9
$DIMLWE
 70
    -2
  9
$DIMTMOVE
 70
     0
  9
$LUNITS
 70
     2
  9
$LUPREC
 70
     4
  9
$SKETCHINC
 40
1.0
  9
$FILLETRAD
 40
0.0
  9
$AUNITS
 70
     0
  9
$AUPREC
 70
     0
  9
$MENU
  1
.
  9
$ELEVATION
 40
0.0
  9
$PELEVATION
 40
0.0
  9
$THICKNESS
 40
0.0
  9
$LIMCHECK
 70
     0
  9
$CHAMFERA
 40
10.0
  9
$CHAMFERB
 40
10.0
  9
$CHAMFERC
 40
20.0
  9
$CHAMFERD
 40
0.0
  9
$SKPOLY
 70
     0
  9
$TDCREATE
 40
2453249.553566794
  9
$TDUCREATE
 40
2453249.178566794
  9
$TDUPDATE
 40
2456722.502575046
  9
$TDUUPDATE
 40
2456722.127575047
  9
$TDINDWG
 40
0.2010557755
  9
$TDUSRTIMER
 40
0.2010471181
  9
$USRTIMER
 70
     1
  9
$ANGBASE
 50
0.0
  9
$ANGDIR
 70
     0
  9
$PDMODE
 70
     0
  9
$PDSIZE
 40
0.0
  9
$PLINEWID
 40
0.0
  9
$SPLFRAME
 70
     0
  9
$SPLINETYPE
 70
     6
  9
$SPLINESEGS
 70
     8
  9
$HANDSEED
  5
804
  9
$SURFTAB1
 70
     6
  9
$SURFTAB2
 70
     6
  9
$SURFTYPE
 70
     6
  9
$SURFU
 70
     6
  9
$SURFV
 70
     6
  9
$UCSBASE
  2

  9
$UCSNAME
  2

  9
$UCSORG
 10
0.0
 20
0.0
 30
0.0
  9
$UCSXDIR
 10
1.0
 20
0.0
 30
0.0
  9
$UCSYDIR
 10
0.0
 20
1.0
 30
0.0
  9
$UCSORTHOREF
  2

  9
$UCSORTHOVIEW
 70
     0
  9
$UCSORGTOP
 10
0.0
 20
0.0
 30
0.0
  9
$UCSORGBOTTOM
 10
0.0
 20
0.0
 30
0.0
  9
$UCSORGLEFT
 10
0.0
 20
0.0
 30
0.0
  9
$UCSORGRIGHT
 10
0.0
 20
0.0
 30
0.0
  9
$UCSORGFRONT
 10
0.0
 20
0.0
 30
0.0
  9
$UCSORGBACK
 10
0.0
 20
0.0
 30
0.0
  9
$PUCSBASE
  2

  9
$PUCSNAME
  2

  9
$PUCSORG
 10
0.0
 20
0.0
 30
0.0
  9
$PUCSXDIR
 10
1.0
 20
0.0
 30
0.0
  9
$PUCSYDIR
 10
0.0
 20
1.0
 30
0.0
  9
$PUCSORTHOREF
  2

  9
$PUCSORTHOVIEW
 70
     0
  9
$PUCSORGTOP
 10
0.0
 20
0.0
 30
0.0
  9
$PUCSORGBOTTOM
 10
0.0
 20
0.0
 30
0.0
  9
$PUCSORGLEFT
 10
0.0
 20
0.0
 30
0.0
  9
$PUCSORGRIGHT
 10
0.0
 20
0.0
 30
0.0
  9
$PUCSORGFRONT
 10
0.0
 20
0.0
 30
0.0
  9
$PUCSORGBACK
 10
0.0
 20
0.0
 30
0.0
  9
$USERI1
 70
     0
  9
$USERI2
 70
     0
  9
$USERI3
 70
     0
  9
$USERI4
 70
     0
  9
$USERI5
 70
     0
  9
$USERR1
 40
0.0
  9
$USERR2
 40
0.0
  9
$USERR3
 40
0.0
  9
$USERR4
 40
0.0
  9
$USERR5
 40
0.0
  9
$WORLDVIEW
 70
     1
  9
$SHADEDGE
 70
     3
  9
$SHADEDIF
 70
    70
  9
$TILEMODE
 70
     1
  9
$MAXACTVP
 70
    64
  9
$PINSBASE
 10
0.0
 20
0.0
 30
0.0
  9
$PLIMCHECK
 70
     0
  9
$PEXTMIN
 10
26.66076962115562
 20
20.31135699206657
 30
-0.0015258207003583
  9
$PEXTMAX
 10
240.039213369355
 20
182.8886381005154
 30
0.0000000349246037
  9
$PLIMMIN
 10
-6.350006103515625
 20
-6.349999904632567
  9
$PLIMMAX
 10
273.0499877929687
 20
209.5499939918517
  9
$UNITMODE
 70
     0
  9
$VISRETAIN
 70
     1
  9
$PLINEGEN
 70
     0
  9
$PSLTSCALE
 70
     1
  9
$TREEDEPTH
 70
  3020
  9
$CMLSTYLE
  2
Standard
  9
$CMLJUST
 70
     0
  9
$CMLSCALE
 40
20.0
  9
$PROXYGRAPHICS
 70
     1
  9
$MEASUREMENT
 70
     1
  9
$CELWEIGHT
370
    -1
  9
$ENDCAPS
280
     0
  9
$JOINSTYLE
280
     0
  9
$LWDISPLAY
290
     0
  9
$INSUNITS
 70
     4
  9
$HYPERLINKBASE
  1

  9
$STYLESHEET
  1
MONOCHROME.CTB
  9
$XEDIT
290
     1
  9
$CEPSNTYPE
380
     0
  9
$PSTYLEMODE
290
     1
  9
$FINGERPRINTGUID
  2
{FDEAD578-A652-11D2-9A35-0060089B3A3F}
  9
$VERSIONGUID
  2
{80B578D6-7C8F-4E5A-B902-6F867776E57E}
  9
$EXTNAMES
290
     1
  9
$PSVPSCALE
 40
0.0
  9
$OLESTARTUP
290
     0
  0
ENDSEC
  0
SECTION
  2
CLASSES
  0
CLASS
  1
ACDBDICTIONARYWDFLT
  2
AcDbDictionaryWithDefault
  3
ObjectDBX Classes
 90
        0
280
     0
281
     0
  0
CLASS
  1
ACDBPLACEHOLDER
  2
AcDbPlaceHolder
  3
ObjectDBX Classes
 90
        0
280
     0
281
     0
  0
CLASS
  1
LAYOUT
  2
AcDbLayout
  3
ObjectDBX Classes
 90
        0
280
     0
281
     0
  0
CLASS
  1
DICTIONARYVAR
  2
AcDbDictionaryVar
  3
ObjectDBX Classes
 90
        0
280
     0
281
     0
  0
CLASS
  1
TABLESTYLE
  2
AcDbTableStyle
  3
ObjectDBX Classes
 90
     4095
280
     0
281
     0
  0
CLASS
  1
SORTENTSTABLE
  2
AcDbSortentsTable
  3
ObjectDBX Classes
 90
        0
280
     0
281
     0
  0
CLASS
  1
MATERIAL
  2
AcDbMaterial
  3
ObjectDBX Classes
 90
     1153
280
     0
281
     0
  0
CLASS
  1
VISUALSTYLE
  2
AcDbVisualStyle
  3
ObjectDBX Classes
 90
     4095
280
     0
281
     0
  0
CLASS
  1
SCALE
  2
AcDbScale
  3
ObjectDBX Classes
 90
     1153
280
     0
281
     0
  0
CLASS
  1
MLEADERSTYLE
  2
AcDbMLeaderStyle
  3
ACDB_MLEADERSTYLE_CLASS
 90
     4095
280
     0
281
     0
  0
CLASS
  1
AEC_REFEDIT_STATUS_TRACKER
  2
AecDbRefEditStatusTracker
  3
AecArchBase60|Product Desc: Autodesk Architectural Desktop 2007 |Company: Autodesk,Inc. |WEB Address: www.autodesk.com
 90
    32897
280
     0
281
     0
  0
CLASS
  1
NPOCOLLECTION
  2
AcDbImpNonPersistentObjectsCollection
  3
ObjectDBX Classes
 90
    33921
280
     0
281
     0
  0
CLASS
  1
CELLSTYLEMAP
  2
AcDbCellStyleMap
  3
ObjectDBX Classes
 90
     1152
280
     0
281
     0
  0
ENDSEC
  0
SECTION
  2
TABLES
  0
TABLE
  2
VPORT
  5
8
330
0
100
AcDbSymbolTable
 70
     1
  0
VPORT
  5
5B1
330
8
100
AcDbSymbolTableRecord
100
AcDbViewportTableRecord
  2
*Active
 70
     0
 10
0.0
 20
0.0
 11
1.0
 21
1.0
 12
95.79743299748898
 22
122.8029908474754
 13
0.0
 23
0.0
 14
10.0
 24
10.0
 15
10.0
 25
10.0
 16
0.0
 26
0.0
 36
1.0
 17
0.0
 27
0.0
 37
0.0
 40
277.2073556675356
 41
1.737456242707117
 42
50.0
 43
0.0
 44
0.0
 50
0.0
 51
0.0
 71
     0
 72
   100
 73
     1
 74
     3
 75
     0
 76
     0
 77
     0
 78
     0
281
     0
 65
     1
110
0.0
120
0.0
130
0.0
111
1.0
121
0.0
131
0.0
112
0.0
122
1.0
132
0.0
 79
     0
146
0.0
  0
ENDTAB
  0
TABLE
  2
LTYPE
  5
5
330
0
100
AcDbSymbolTable
 70
     2
  0
LTYPE
  5
14
330
5
100
AcDbSymbolTableRecord
100
AcDbLinetypeTableRecord
  2
ByBlock
 70
     0
  3

 72
    65
 73
     0
 40
0.0
  0
LTYPE
  5
15
330
5
100
AcDbSymbolTableRecord
100
AcDbLinetypeTableRecord
  2
ByLayer
 70
     0
  3

 72
    65
 73
     0
 40
0.0
  0
LTYPE
  5
16
330
5
100
AcDbSymbolTableRecord
100
AcDbLinetypeTableRecord
  2
Continuous
 70
     0
  3
Solid line
 72
    65
 73
     0
 40
0.0
  0
ENDTAB
  0
TABLE
  2
LAYER
  5
2
330
0
100
AcDbSymbolTable
 70
     6
  0
LAYER
  5
10
102
{ACAD_XDICTIONARY
360
623
102
}
330
2
100
AcDbSymbolTableRecord
100
AcDbLayerTableRecord
  2
0
 70
     0
 62
     7
  6
Continuous
370
    -3
390
F
  0
LAYER
  5
86
102
{ACAD_XDICTIONARY
360
625
102
}
330
2
100
AcDbSymbolTableRecord
100
AcDbLayerTableRecord
  2
レイヤー_5
 70
     0
 62
     2
  6
Continuous
370
    -3
390
F
  0
LAYER
  5
87
102
{ACAD_XDICTIONARY
360
627
102
}
330
2
100
AcDbSymbolTableRecord
100
AcDbLayerTableRecord
  2
VPORT-BORDERS
 70
     0
 62
     5
  6
Continuous
370
    -3
390
F
  0
LAYER
  5
CE
102
{ACAD_XDICTIONARY
360
629
102
}
330
2
100
AcDbSymbolTableRecord
100
AcDbLayerTableRecord
  2
23
 70
     0
 62
     3
  6
Continuous
370
    -3
390
F
  0
LAYER
  5
CF
102
{ACAD_XDICTIONARY
360
62B
102
}
330
2
100
AcDbSymbolTableRecord
100
AcDbLayerTableRecord
  2
24
 70
     0
 62
     1
  6
Continuous
370
    -3
390
F
  0
LAYER
  5
D0
102
{ACAD_XDICTIONARY
360
62D
102
}
330
2
100
AcDbSymbolTableRecord
100
AcDbLayerTableRecord
  2
200
 70
     0
 62
     1
  6
Continuous
370
    -3
390
F
  0
ENDTAB
  0
TABLE
  2
STYLE
  5
3
330
0
100
AcDbSymbolTable
 70
     2
  0
STYLE
  5
11
330
3
100
AcDbSymbolTableRecord
100
AcDbTextStyleTableRecord
  2
Standard
 70
     0
 40
0.0
 41
1.0
 50
0.0
 71
     0
 42
2.5
  3
txt
  4

  0
STYLE
  5
88
330
3
100
AcDbSymbolTableRecord
100
AcDbTextStyleTableRecord
  2
STD
 70
     0
 40
0.0
 41
1.0
 50
0.0
 71
     0
 42
0.0
  3
txt
  4

  0
ENDTAB
  0
TABLE
  2
VIEW
  5
6
330
0
100
AcDbSymbolTable
 70
     0
  0
ENDTAB
  0
TABLE
  2
UCS
  5
7
330
0
100
AcDbSymbolTable
 70
     0
  0
ENDTAB
  0
TABLE
  2
APPID
  5
9
330
0
100
AcDbSymbolTable
 70
     3
  0
APPID
  5
12
330
9
100
AcDbSymbolTableRecord
100
AcDbRegAppTableRecord
  2
ACAD
 70
     0
  0
APPID
  5
3B3
330
9
100
AcDbSymbolTableRecord
100
AcDbRegAppTableRecord
  2
ACAD_EXEMPT_FROM_CAD_STANDARDS
 70
     0
  0
APPID
  5
6F7
330
9
100
AcDbSymbolTableRecord
100
AcDbRegAppTableRecord
  2
ACAD_MLEADERVER
 70
     0
  0
ENDTAB
  0
TABLE
  2
DIMSTYLE
  5
A
330
0
100
AcDbSymbolTable
 70
     3
100
AcDbDimStyleTable
 71
     1
340
27
  0
DIMSTYLE
105
27
330
A
100
AcDbSymbolTableRecord
100
AcDbDimStyleTableRecord
  2
ISO-25
 70
     0
 41
2.5
 42
0.625
 43
3.75
 44
1.25
 73
     0
 74
     0
 77
     1
 78
     8
140
2.5
141
2.5
143
0.03937007874016
147
0.625
171
     3
172
     1
271
     2
272
     2
274
     3
278
    44
283
     0
284
     8
340
11
  0
DIMSTYLE
105
89
330
A
100
AcDbSymbolTableRecord
100
AcDbDimStyleTableRecord
  2
Standard
 70
     0
340
11
  0
ENDTAB
  0
TABLE
  2
BLOCK_RECORD
  5
1
330
0
100
AcDbSymbolTable
 70
     7
  0
BLOCK_RECORD
  5
1F
102
{ACAD_XDICTIONARY
360
206
102
}
330
1
100
AcDbSymbolTableRecord
100
AcDbBlockTableRecord
  2
*Model_Space
340
22
  0
BLOCK_RECORD
  5
55
330
1
100
AcDbSymbolTableRecord
100
AcDbBlockTableRecord
  2
*Paper_Space
340
56
  0
BLOCK_RECORD
  5
50
330
1
100
AcDbSymbolTableRecord
100
AcDbBlockTableRecord
  2
*Paper_Space0
340
51
  0
BLOCK_RECORD
  5
AC
330
1
100
AcDbSymbolTableRecord
100
AcDbBlockTableRecord
  2
A$C4A47233A
340
0
  0
BLOCK_RECORD
  5
D1
330
1
100
AcDbSymbolTableRecord
100
AcDbBlockTableRecord
  2
A$C29F15CBE
340
0
  0
BLOCK_RECORD
  5
25A
330
1
100
AcDbSymbolTableRecord
100
AcDbBlockTableRecord
  2
A$C563C75BC
340
0
1001
ACAD
1000
DesignCenter Data
1002
{
1070
     1
1070
     4
1002
}
  0
BLOCK_RECORD
  5
25E
102
{ACAD_XDICTIONARY
360
260
102
}
330
1
100
AcDbSymbolTableRecord
100
AcDbBlockTableRecord
  2
A$C5E035E10
340
0
  0
BLOCK_RECORD
  5
3C3
102
{ACAD_XDICTIONARY
360
3C5
102
}
330
1
100
AcDbSymbolTableRecord
100
AcDbBlockTableRecord
  2
A$C73C334B0
340
0
1001
ACAD
1000
DesignCenter Data
1002
{
1070
     1
1070
     4
1002
}
  0
ENDTAB
  0
ENDSEC
  0
SECTION
  2
BLOCKS
  0
BLOCK
  5
20
330
1F
100
AcDbEntity
  8
0
100
AcDbBlockBegin
  2
*Model_Space
 70
     0
 10
0.0
 20
0.0
 30
0.0
  3
*Model_Space
  1

  0
ENDBLK
  5
21
330
1F
100
AcDbEntity
  8
0
100
AcDbBlockEnd
  0
BLOCK
  5
57
330
55
100
AcDbEntity
 67
     1
  8
0
100
AcDbBlockBegin
  2
*Paper_Space
 70
     0
 10
0.0
 20
0.0
 30
0.0
  3
*Paper_Space
  1

  0
ENDBLK
  5
58
330
55
100
AcDbEntity
 67
     1
  8
0
100
AcDbBlockEnd
  0
BLOCK
  5
52
330
50
100
AcDbEntity
 67
     1
  8
0
100
AcDbBlockBegin
  2
*Paper_Space0
 70
     0
 10
0.0
 20
0.0
 30
0.0
  3
*Paper_Space0
  1

  0
VIEWPORT
  5
6B
102
{ACAD_XDICTIONARY
360
7D5
102
}
330
50
100
AcDbEntity
 67
     1
  8
0
100
AcDbViewport
 10
133.3499908447265
 20
101.5999970436096
 30
0.0
 40
381.3957395593833
 41
218.2856291881582
 68
     0
 69
     0
 12
133.3499908447265
 22
101.5999970436096
 13
0.0
 23
0.0
 14
10.0
 24
10.0
 15
10.0
 25
10.0
 16
0.0
 26
0.0
 36
1.0
 17
0.0
 27
0.0
 37
0.0
 42
50.0
 43
0.0
 44
0.0
 45
218.2856291881582
 50
0.0
 51
0.0
 72
   100
 90
    32800
  1

281
     0
 71
     1
 74
     0
110
0.0
120
0.0
130
0.0
111
1.0
121
0.0
131
0.0
112
0.0
122
1.0
132
0.0
 79
     0
146
0.0
  0
VIEWPORT
  5
6D
102
{ACAD_XDICTIONARY
360
7D7
102
}
330
50
100
AcDbEntity
 67
     1
  8
0
100
AcDbViewport
 10
133.3499939441677
 20
101.5999939441678
 30
0.0
 40
213.3599903106689
 41
162.5599903106689
 68
     0
 69
     0
 12
210.0
 22
148.5
 13
0.0
 23
0.0
 14
10.0
 24
10.0
 15
10.0
 25
10.0
 16
0.0
 26
0.0
 36
1.0
 17
0.0
 27
0.0
 37
0.0
 42
50.0
 43
0.0
 44
0.0
 45
324.0677920111345
 50
0.0
 51
0.0
 72
   100
 90
    32864
  1

281
     0
 71
     1
 74
     0
110
0.0
120
0.0
130
0.0
111
1.0
121
0.0
131
0.0
112
0.0
122
1.0
132
0.0
 79
     0
146
0.0
  0
ENDBLK
  5
53
330
50
100
AcDbEntity
 67
     1
  8
0
100
AcDbBlockEnd
  0
BLOCK
  5
BC
330
AC
100
AcDbEntity
  8
0
100
AcDbBlockBegin
  2
A$C4A47233A
 70
     0
 10
0.0
 20
0.0
 30
0.0
  3
A$C4A47233A
  1

  0
MTEXT
  5
AD
330
AC
100
AcDbEntity
  8
レイヤー_5
 62
     7
100
AcDbMText
 10
168.6503431279469
 20
305.964341141238
 30
0.0
 40
2.444193999999999
 41
0.0
 71
     1
 72
     2
  1
\W1.02;\fOsaka|b0|i0|c128;250A
  7
STD
 73
     1
 44
1.0
1001
ACAD
1000
MTEXTBEGIN
1070
    73
1070
     1
1070
    44
1040
1.0
1070
    74
1070
     0
1000
MTEXTEND
  0
MTEXT
  5
AE
330
AC
100
AcDbEntity
  8
レイヤー_5
 62
     7
100
AcDbMText
 10
199.3344311279468
 20
298.8836361412378
 30
0.0
 40
2.444193999999999
 41
0.0
 71
     1
 72
     2
  1
\W1.02;\fOsaka|b0|i0|c128;S400-NF
  7
STD
 73
     1
 44
1.0
1001
ACAD
1000
MTEXTBEGIN
1070
    73
1070
     1
1070
    44
1040
1.0
1070
    74
1070
     0
1000
MTEXTEND
  0
MTEXT
  5
AF
330
AC
100
AcDbEntity
  8
レイヤー_5
 62
     7
100
AcDbMText
 10
182.4982491279468
 20
293.5339201412379
 30
0.0
 40
2.444193999999999
 41
0.0
 71
     1
 72
     2
  1
\W1.02;\fOsaka|b0|i0|c128;S400-GF
  7
STD
 73
     1
 44
1.0
1001
ACAD
1000
MTEXTBEGIN
1070
    73
1070
     1
1070
    44
1040
1.0
1070
    74
1070
     0
1000
MTEXTEND
  0
MTEXT
  5
B0
330
AC
100
AcDbEntity
  8
レイヤー_5
 62
     7
100
AcDbMText
 10
182.4982491279468
 20
298.8836361412378
 30
0.0
 40
2.444193999999999
 41
0.0
 71
     1
 72
     2
  1
\W1.02;\fOsaka|b0|i0|c128;S400-CF,
  7
STD
 73
     1
 44
1.0
1001
ACAD
1000
MTEXTBEGIN
1070
    73
1070
     1
1070
    44
1040
1.0
1070
    74
1070
     0
1000
MTEXTEND
  0
MTEXT
  5
B1
330
AC
100
AcDbEntity
  8
レイヤー_5
 62
     7
100
AcDbMText
 10
0.0000001279469739
 20
7.306595141238047
 30
0.0
 40
7.306594999999997
 41
0.0
 71
     1
 72
     2
  1
\fRyumin Light|b0|i0|c128;SX4250
  7
STD
 73
     1
 44
1.0
1001
ACAD
1000
MTEXTBEGIN
1070
    73
1070
     1
1070
    44
1040
1.0
1070
    74
1070
     0
1000
MTEXTEND
  0
SPLINE
  5
B2
330
AC
100
AcDbEntity
  8
VPORT-BORDERS
 62
     7
100
AcDbSpline
210
0.0
220
0.0
230
1.0
 70
     8
 71
     3
 72
    17
 73
    13
 74
     0
 42
0.0000000001
 43
0.0000000001
 40
0.0
 40
0.0
 40
0.0
 40
0.0
 40
1.0
 40
1.0
 40
1.0
 40
2.0
 40
2.0
 40
2.0
 40
3.0
 40
3.0
 40
3.0
 40
4.0
 40
4.0
 40
4.0
 40
4.0
 10
159.9146148397523
 20
66.83037416380748
 30
0.0
 10
150.4685075263844
 20
67.28478225842554
 30
0.0
 10
144.4220204387105
 20
67.79706795721027
 30
0.0
 10
133.4573150350649
 20
69.23195022717554
 30
0.0
 10
119.8684803996483
 20
71.0103085171061
 30
0.0
 10
108.1572228041622
 20
75.07310962387693
 30
0.0
 10
108.1572228041622
 20
96.18327672457136
 30
0.0
 10
108.1572228041622
 20
110.6471656134601
 30
0.0
 10
108.1572228041622
 20
163.4914852749186
 30
0.0
 10
108.1572228041622
 20
170.547040830474
 30
0.0
 10
108.1572228041622
 20
177.6024241312553
 30
0.0
 10
106.9600521227384
 20
183.9525963860297
 30
0.0
 10
103.9614410116274
 20
189.9498186082519
 30
0.0
  0
SPLINE
  5
B3
330
AC
100
AcDbEntity
  8
VPORT-BORDERS
 62
     7
100
AcDbSpline
210
0.0
220
0.0
230
1.0
 70
     8
 71
     3
 72
    23
 73
    19
 74
     0
 42
0.0000000001
 43
0.0000000001
 40
0.0
 40
0.0
 40
0.0
 40
0.0
 40
1.0
 40
1.0
 40
1.0
 40
2.0
 40
2.0
 40
2.0
 40
3.0
 40
3.0
 40
3.0
 40
4.0
 40
4.0
 40
4.0
 40
5.0
 40
5.0
 40
5.0
 40
6.0
 40
6.0
 40
6.0
 40
6.0
 10
76.43857317308586
 20
314.1275963860296
 30
0.0
 10
76.43857317308586
 20
314.1275963860296
 30
0.0
 10
76.43857317308586
 20
308.1891130418457
 30
0.0
 10
76.43857317308586
 20
300.6043908196232
 30
0.0
 10
76.43857317308586
 20
286.0228519198837
 30
0.0
 10
81.20658532586363
 20
257.9802914272623
 30
0.0
 10
83.02352868523863
 20
250.9803741638071
 30
0.0
 10
88.40338979634973
 20
230.254679719363
 30
0.0
 10
98.51440053853723
 20
201.2387074971408
 30
0.0
 10
103.9614410116274
 20
189.9498186082519
 30
0.0
 10
114.4996435940927
 20
168.1092912645019
 30
0.0
 10
121.1876074612803
 20
166.6075741421058
 30
0.0
 10
121.1876074612803
 20
153.3784074754394
 30
0.0
 10
121.1876074612803
 20
140.1492408087727
 30
0.0
 10
121.1876074612803
 20
106.5092614250919
 30
0.0
 10
121.1876074612803
 20
94.33842809175889
 30
0.0
 10
121.1876074612803
 20
76.9176137471408
 30
0.0
 10
121.9799794230858
 20
71.69105938516165
 30
0.0
 10
131.4078277303775
 20
69.53925274453665
 30
0.0
  0
MTEXT
  5
B4
330
AC
100
AcDbEntity
  8
VPORT-BORDERS
 62
     7
100
AcDbMText
 10
23.60476112794696
 20
55.20169714123804
 30
0.0
 40
2.444193999999999
 41
0.0
 71
     1
 72
     2
  1
\W1.02;\fOsaka|b0|i0|c128;0.01S
  7
STD
 73
     1
 44
1.0
1001
ACAD
1000
MTEXTBEGIN
1070
    73
1070
     1
1070
    44
1040
1.0
1070
    74
1070
     0
1000
MTEXTEND
  0
LINE
  5
B5
330
AC
100
AcDbEntity
  8
VPORT-BORDERS
 62
     7
100
AcDbLine
 10
228.7186841279468
 20
53.76140414123804
 30
0.0
 11
34.37619612794696
 21
53.76140414123804
 31
0.0
  0
LINE
  5
B6
330
AC
100
AcDbEntity
  8
VPORT-BORDERS
 62
     7
100
AcDbLine
 10
34.37619612794696
 20
314.161875141238
 30
0.0
 11
34.37619612794696
 21
53.76140414123804
 31
0.0
  0
LINE
  5
B7
330
AC
100
AcDbEntity
  8
VPORT-BORDERS
 62
     7
100
AcDbLine
 10
60.57614812794696
 20
314.161875141238
 30
0.0
 11
60.57614812794696
 21
53.76140414123804
 31
0.0
  0
LINE
  5
B8
330
AC
100
AcDbEntity
  8
VPORT-BORDERS
 62
     7
100
AcDbLine
 10
47.47617212794696
 20
314.161875141238
 30
0.0
 11
47.47617212794696
 21
53.76140414123804
 31
0.0
  0
MTEXT
  5
B9
330
AC
100
AcDbEntity
  8
VPORT-BORDERS
 62
     7
100
AcDbMText
 10
59.61403412794695
 20
38.97608814123805
 30
0.0
 40
2.444193999999999
 41
0.0
 71
     1
 72
     2
  1
\fOsaka|b0|i0|c128;110V
  7
STD
 11
0.0
 21
1.0
 31
0.0
 73
     1
 44
1.0
1001
ACAD
1000
MTEXTBEGIN
1070
    73
1070
     1
1070
    44
1040
1.0
1070
    74
1070
     0
1000
MTEXTEND
  0
MTEXT
  5
BA
330
AC
100
AcDbEntity
  8
VPORT-BORDERS
 62
     7
100
AcDbMText
 10
32.93211412794696
 20
38.97608814123805
 30
0.0
 40
2.444193999999999
 41
0.0
 71
     1
 72
     2
  1
\fOsaka|b0|i0|c128;440V
  7
STD
 11
0.0
 21
1.0
 31
0.0
 73
     1
 44
1.0
1001
ACAD
1000
MTEXTBEGIN
1070
    73
1070
     1
1070
    44
1040
1.0
1070
    74
1070
     0
1000
MTEXTEND
  0
MTEXT
  5
BB
330
AC
100
AcDbEntity
  8
VPORT-BORDERS
 62
     7
100
AcDbMText
 10
46.03209012794695
 20
38.97608814123805
 30
0.0
 40
2.444193999999999
 41
0.0
 71
     1
 72
     2
  1
\fOsaka|b0|i0|c128;220V
  7
STD
 11
0.0
 21
1.0
 31
0.0
 73
     1
 44
1.0
1001
ACAD
1000
MTEXTBEGIN
1070
    73
1070
     1
1070
    44
1040
1.0
1070
    74
1070
     0
1000
MTEXTEND
  0
ENDBLK
  5
BD
330
AC
100
AcDbEntity
  8
0
100
AcDbBlockEnd
  0
BLOCK
  5
156
330
D1
100
AcDbEntity
  8
0
100
AcDbBlockBegin
  2
A$C29F15CBE
 70
     0
 10
0.0
 20
0.0
 30
0.0
  3
A$C29F15CBE
  1

  0
TEXT
  5
D2
330
D1
100
AcDbEntity
  8
23
  6
Continuous
 62
     3
100
AcDbText
 10
43.39993499999979
 20
276.6340526666665
 30
0.0
 40
3.910714999999981
  1
Time/Current characteristic curves
 41
0.7
 11
43.39993499999979
 21
275.3304809999999
 31
0.0
100
AcDbText
 73
     1
  0
LINE
  5
D3
330
D1
100
AcDbEntity
  8
24
  6
Continuous
 62
     1
100
AcDbLine
 10
181.2428559999998
 20
0.0
 30
0.0
 11
0.0
 21
0.0
 31
0.0
  0
LINE
  5
D4
330
D1
100
AcDbEntity
  8
24
  6
Continuous
 62
     1
100
AcDbLine
 10
181.2428559999998
 20
13.06518099999999
 30
0.0
 11
0.0
 21
13.06518099999999
 31
0.0
  0
LINE
  5
D5
330
D1
100
AcDbEntity
  8
24
  6
Continuous
 62
     1
100
AcDbLine
 10
181.2428559999998
 20
20.707091
 30
0.0
 11
0.0
 21
20.707091
 31
0.0
  0
LINE
  5
D6
330
D1
100
AcDbEntity
  8
24
  6
Continuous
 62
     1
100
AcDbLine
 10
181.2428559999998
 20
26.12967199999999
 30
0.0
 11
0.0
 21
26.12967199999999
 31
0.0
  0
LINE
  5
D7
330
D1
100
AcDbEntity
  8
24
  6
Continuous
 62
     1
100
AcDbLine
 10
181.2428559999998
 20
30.33544399999999
 30
0.0
 11
0.0
 21
30.33544399999999
 31
0.0
  0
LINE
  5
D8
330
D1
100
AcDbEntity
  8
24
  6
Continuous
 62
     1
100
AcDbLine
 10
181.2428559999998
 20
33.772272
 30
0.0
 11
0.0
 21
33.772272
 31
0.0
  0
LINE
  5
D9
330
D1
100
AcDbEntity
  8
24
  6
Continuous
 62
     1
100
AcDbLine
 10
181.2428559999998
 20
39.194163
 30
0.0
 11
0.0
 21
39.194163
 31
0.0
  0
LINE
  5
DA
330
D1
100
AcDbEntity
  8
24
  6
Continuous
 62
     1
100
AcDbLine
 10
181.2428559999998
 20
43.40062399999996
 30
0.0
 11
0.0
 21
43.40062399999996
 31
0.0
  0
LINE
  5
DB
330
D1
100
AcDbEntity
  8
24
  6
Continuous
 62
     1
100
AcDbLine
 10
181.2428559999998
 20
56.46511600000001
 30
0.0
 11
0.0
 21
56.46511600000001
 31
0.0
  0
LINE
  5
DC
330
D1
100
AcDbEntity
  8
24
  6
Continuous
 62
     1
100
AcDbLine
 10
181.2428559999998
 20
64.107026
 30
0.0
 11
0.0
 21
64.107026
 31
0.0
  0
LINE
  5
DD
330
D1
100
AcDbEntity
  8
24
  6
Continuous
 62
     1
100
AcDbLine
 10
181.2428559999998
 20
69.529607
 30
0.0
 11
0.0
 21
69.529607
 31
0.0
  0
LINE
  5
DE
330
D1
100
AcDbEntity
  8
24
  6
Continuous
 62
     1
100
AcDbLine
 10
181.2428559999998
 20
73.73537899999991
 30
0.0
 11
0.0
 21
73.73537899999991
 31
0.0
  0
LINE
  5
DF
330
D1
100
AcDbEntity
  8
24
  6
Continuous
 62
     1
100
AcDbLine
 10
181.2428559999998
 20
77.17220599999997
 30
0.0
 11
0.0
 21
77.17220599999997
 31
0.0
  0
LINE
  5
E0
330
D1
100
AcDbEntity
  8
24
  6
Continuous
 62
     1
100
AcDbLine
 10
181.2428559999998
 20
82.594098
 30
0.0
 11
0.0
 21
82.594098
 31
0.0
  0
LINE
  5
E1
330
D1
100
AcDbEntity
  8
24
  6
Continuous
 62
     1
100
AcDbLine
 10
181.2428559999998
 20
86.80055899999997
 30
0.0
 11
0.0
 21
86.80055899999997
 31
0.0
  0
LINE
  5
E2
330
D1
100
AcDbEntity
  8
24
  6
Continuous
 62
     1
100
AcDbLine
 10
181.2428559999998
 20
99.8657389999999
 30
0.0
 11
0.0
 21
99.8657389999999
 31
0.0
  0
LINE
  5
E3
330
D1
100
AcDbEntity
  8
24
  6
Continuous
 62
     1
100
AcDbLine
 10
181.2428559999998
 20
107.5076499999999
 30
0.0
 11
0.0
 21
107.5076499999999
 31
0.0
  0
LINE
  5
E4
330
D1
100
AcDbEntity
  8
24
  6
Continuous
 62
     1
100
AcDbLine
 10
181.2428559999998
 20
112.9302309999999
 30
0.0
 11
0.0
 21
112.9302309999999
 31
0.0
  0
LINE
  5
E5
330
D1
100
AcDbEntity
  8
24
  6
Continuous
 62
     1
100
AcDbLine
 10
181.2428559999998
 20
117.1360029999999
 30
0.0
 11
0.0
 21
117.1360029999999
 31
0.0
  0
LINE
  5
E6
330
D1
100
AcDbEntity
  8
24
  6
Continuous
 62
     1
100
AcDbLine
 10
181.2428559999998
 20
120.5728299999998
 30
0.0
 11
0.0
 21
120.5728299999998
 31
0.0
  0
LINE
  5
E7
330
D1
100
AcDbEntity
  8
24
  6
Continuous
 62
     1
100
AcDbLine
 10
181.2428559999998
 20
125.9948939999999
 30
0.0
 11
0.0
 21
125.9948939999999
 31
0.0
  0
LINE
  5
E8
330
D1
100
AcDbEntity
  8
24
  6
Continuous
 62
     1
100
AcDbLine
 10
181.2428559999998
 20
130.2006659999997
 30
0.0
 11
0.0
 21
130.2006659999997
 31
0.0
  0
LINE
  5
E9
330
D1
100
AcDbEntity
  8
24
  6
Continuous
 62
     1
100
AcDbLine
 10
181.2428559999998
 20
143.265502
 30
0.0
 11
0.0
 21
143.265502
 31
0.0
  0
LINE
  5
EA
330
D1
100
AcDbEntity
  8
24
  6
Continuous
 62
     1
100
AcDbLine
 10
181.2428559999998
 20
150.907757
 30
0.0
 11
0.0
 21
150.907757
 31
0.0
  0
LINE
  5
EB
330
D1
100
AcDbEntity
  8
24
  6
Continuous
 62
     1
100
AcDbLine
 10
181.2428559999998
 20
156.329993
 30
0.0
 11
0.0
 21
156.329993
 31
0.0
  0
LINE
  5
EC
330
D1
100
AcDbEntity
  8
24
  6
Continuous
 62
     1
100
AcDbLine
 10
181.2428559999998
 20
160.53611
 30
0.0
 11
0.0
 21
160.53611
 31
0.0
  0
LINE
  5
ED
330
D1
100
AcDbEntity
  8
24
  6
Continuous
 62
     1
100
AcDbLine
 10
181.2428559999998
 20
163.9725929999999
 30
0.0
 11
0.0
 21
163.9725929999999
 31
0.0
  0
LINE
  5
EE
330
D1
100
AcDbEntity
  8
24
  6
Continuous
 62
     1
100
AcDbLine
 10
181.2428559999998
 20
169.3948289999999
 30
0.0
 11
0.0
 21
169.3948289999999
 31
0.0
  0
LINE
  5
EF
330
D1
100
AcDbEntity
  8
24
  6
Continuous
 62
     1
100
AcDbLine
 10
181.2428559999998
 20
173.6006009999999
 30
0.0
 11
0.0
 21
173.6006009999999
 31
0.0
  0
LINE
  5
F0
330
D1
100
AcDbEntity
  8
24
  6
Continuous
 62
     1
100
AcDbLine
 10
181.2428559999998
 20
186.6654369999999
 30
0.0
 11
0.0
 21
186.6654369999999
 31
0.0
  0
LINE
  5
F1
330
D1
100
AcDbEntity
  8
24
  6
Continuous
 62
     1
100
AcDbLine
 10
181.2428559999998
 20
194.3076919999999
 30
0.0
 11
0.0
 21
194.3076919999999
 31
0.0
  0
LINE
  5
F2
330
D1
100
AcDbEntity
  8
24
  6
Continuous
 62
     1
100
AcDbLine
 10
181.2428559999998
 20
199.730273
 30
0.0
 11
0.0
 21
199.730273
 31
0.0
  0
LINE
  5
F3
330
D1
100
AcDbEntity
  8
24
  6
Continuous
 62
     1
100
AcDbLine
 10
181.2428559999998
 20
203.9360449999999
 30
0.0
 11
0.0
 21
203.9360449999999
 31
0.0
  0
LINE
  5
F4
330
D1
100
AcDbEntity
  8
24
  6
Continuous
 62
     1
100
AcDbLine
 10
181.2428559999998
 20
207.3725279999999
 30
0.0
 11
0.0
 21
207.3725279999999
 31
0.0
  0
LINE
  5
F5
330
D1
100
AcDbEntity
  8
24
  6
Continuous
 62
     1
100
AcDbLine
 10
181.2428559999998
 20
212.7947639999999
 30
0.0
 11
0.0
 21
212.7947639999999
 31
0.0
  0
LINE
  5
F6
330
D1
100
AcDbEntity
  8
24
  6
Continuous
 62
     1
100
AcDbLine
 10
181.2428559999998
 20
217.0008809999999
 30
0.0
 11
0.0
 21
217.0008809999999
 31
0.0
  0
LINE
  5
F7
330
D1
100
AcDbEntity
  8
24
  6
Continuous
 62
     1
100
AcDbLine
 10
181.2428559999998
 20
230.0653719999999
 30
0.0
 11
0.0
 21
230.0653719999999
 31
0.0
  0
LINE
  5
F8
330
D1
100
AcDbEntity
  8
24
  6
Continuous
 62
     1
100
AcDbLine
 10
181.2428559999998
 20
256.1946989999996
 30
0.0
 11
0.0
 21
256.1946989999996
 31
0.0
  0
LINE
  5
F9
330
D1
100
AcDbEntity
  8
24
  6
Continuous
 62
     1
100
AcDbLine
 10
181.2428559999998
 20
260.4008159999998
 30
0.0
 11
0.0
 21
260.4008159999998
 31
0.0
  0
LINE
  5
FA
330
D1
100
AcDbEntity
  8
24
  6
Continuous
 62
     1
100
AcDbLine
 10
117.1358309999999
 20
250.7724629999998
 30
0.0
 11
0.0
 21
250.7724629999998
 31
0.0
  0
LINE
  5
FB
330
D1
100
AcDbEntity
  8
24
  6
Continuous
 62
     1
100
AcDbLine
 10
117.1358309999999
 20
247.3359799999998
 30
0.0
 11
0.0
 21
247.3359799999998
 31
0.0
  0
LINE
  5
FC
330
D1
100
AcDbEntity
  8
24
  6
Continuous
 62
     1
100
AcDbLine
 10
117.1358309999999
 20
243.130207
 30
0.0
 11
0.0
 21
243.130207
 31
0.0
  0
LINE
  5
FD
330
D1
100
AcDbEntity
  8
24
  6
Continuous
 62
     1
100
AcDbLine
 10
117.1358309999999
 20
237.707972
 30
0.0
 11
0.0
 21
237.707972
 31
0.0
  0
TEXT
  5
FE
330
D1
100
AcDbEntity
  8
24
  6
Continuous
 62
     1
100
AcDbText
 10
32.42523899999999
 20
-19.82829600000002
 30
0.0
 40
3.421865999999998
  1
Current (A)
 41
0.7
 11
32.42523899999999
 21
-20.96891800000002
 31
0.0
100
AcDbText
 73
     1
  0
LINE
  5
FF
330
D1
100
AcDbEntity
  8
24
  6
Continuous
 62
     1
100
AcDbLine
 10
0.0
 20
260.4008159999998
 30
0.0
 11
0.0
 21
0.0
 31
0.0
  0
LINE
  5
100
330
D1
100
AcDbEntity
  8
24
  6
Continuous
 62
     1
100
AcDbLine
 10
7.642600000000001
 20
260.4008159999998
 30
0.0
 11
7.642600000000001
 21
0.0
 31
0.0
  0
LINE
  5
101
330
D1
100
AcDbEntity
  8
24
  6
Continuous
 62
     1
100
AcDbLine
 10
17.27060799999988
 20
260.4008159999998
 30
0.0
 11
17.27060799999988
 21
0.0
 31
0.0
  0
LINE
  5
102
330
D1
100
AcDbEntity
  8
24
  6
Continuous
 62
     1
100
AcDbLine
 10
26.12932699999999
 20
260.4008159999998
 30
0.0
 11
26.12932699999999
 21
0.0
 31
0.0
  0
LINE
  5
103
330
D1
100
AcDbEntity
  8
24
  6
Continuous
 62
     1
100
AcDbLine
 10
30.33544399999989
 20
260.4008159999998
 30
0.0
 11
30.33544399999989
 21
0.0
 31
0.0
  0
LINE
  5
104
330
D1
100
AcDbEntity
  8
24
  6
Continuous
 62
     1
100
AcDbLine
 10
43.39993499999979
 20
260.4008159999998
 30
0.0
 11
43.39993499999979
 21
0.0
 31
0.0
  0
TEXT
  5
105
330
D1
100
AcDbEntity
  8
24
  6
Continuous
 62
     1
100
AcDbText
 10
-13.546066
 20
88.392882
 30
0.0
 40
3.421865999999993
  1
Operating time (sec)
 50
90.0
 41
0.7
 11
-12.405444
 21
88.392882
 31
0.0
100
AcDbText
 73
     1
  0
TEXT
  5
106
330
D1
100
AcDbEntity
  8
200
  6
Continuous
 62
     1
100
AcDbText
 10
-9.258413555151078
 20
19.45709099999987
 30
0.0
 40
2.5
  1
0.03
 41
0.6
 72
     2
 11
-5.258413555151078
 21
20.70709099999987
 31
0.0
100
AcDbText
 73
     2
  0
TEXT
  5
107
330
D1
100
AcDbEntity
  8
200
  6
Continuous
 62
     1
100
AcDbText
 10
1.249999999999957
 20
-5.166666666666666
 30
0.0
 40
2.5
  1
2
 50
90.0
 41
0.7
 72
     2
 11
-0.0000000000000426
 21
-4.0
 31
0.0
100
AcDbText
 73
     2
  0
TEXT
  5
108
330
D1
100
AcDbEntity
  8
200
  6
Continuous
 62
     1
100
AcDbText
 10
-9.259367750161601
 20
11.81518099999985
 30
0.0
 40
2.5
  1
0.02
 41
0.6
 72
     2
 11
-5.259367750161601
 21
13.06518099999985
 31
0.0
100
AcDbText
 73
     2
  0
TEXT
  5
109
330
D1
100
AcDbEntity
  8
200
  6
Continuous
 62
     1
100
AcDbText
 10
-8.760999113331504
 20
-1.250000000000142
 30
0.0
 40
2.5
  1
0.01
 41
0.6
 72
     2
 11
-5.260999113331505
 21
-0.0000000000001421
 31
0.0
100
AcDbText
 73
     2
  0
TEXT
  5
10A
330
D1
100
AcDbEntity
  8
200
  6
Continuous
 62
     1
100
AcDbText
 10
27.3793269999999
 20
-5.166666666666666
 30
0.0
 40
2.5
  1
8
 50
90.0
 41
0.7
 72
     2
 11
26.1293269999999
 21
-4.0
 31
0.0
100
AcDbText
 73
     2
  0
TEXT
  5
10B
330
D1
100
AcDbEntity
  8
200
  6
Continuous
 62
     1
100
AcDbText
 10
18.52060799999988
 20
-5.166666666666666
 30
0.0
 40
2.5
  1
5
 50
90.0
 41
0.7
 72
     2
 11
17.27060799999988
 21
-4.0
 31
0.0
100
AcDbText
 73
     2
  0
TEXT
  5
10C
330
D1
100
AcDbEntity
  8
200
  6
Continuous
 62
     1
100
AcDbText
 10
8.892599999999902
 20
-5.166666666666666
 30
0.0
 40
2.5
  1
3
 50
90.0
 41
0.7
 72
     2
 11
7.642599999999902
 21
-4.0
 31
0.0
100
AcDbText
 73
     2
  0
TEXT
  5
10D
330
D1
100
AcDbEntity
  8
200
  6
Continuous
 62
     1
100
AcDbText
 10
44.64993499999989
 20
-6.625
 30
0.0
 40
2.5
  1
20
 50
90.0
 41
0.7
 72
     2
 11
43.39993499999989
 21
-4.0
 31
0.0
100
AcDbText
 73
     2
  0
TEXT
  5
10E
330
D1
100
AcDbEntity
  8
200
  6
Continuous
 62
     1
100
AcDbText
 10
31.58544399999989
 20
-6.041666666666666
 30
0.0
 40
2.5
  1
10
 50
90.0
 41
0.7
 72
     2
 11
30.33544399999989
 21
-4.0
 31
0.0
100
AcDbText
 73
     2
  0
TEXT
  5
10F
330
D1
100
AcDbEntity
  8
200
  6
Continuous
 62
     1
100
AcDbText
 10
-8.002317408877701
 20
68.27960699999978
 30
0.0
 40
2.5
  1
0.4
 41
0.6
 72
     2
 11
-5.252317408877701
 21
69.52960699999978
 31
0.0
100
AcDbText
 73
     2
  0
TEXT
  5
110
330
D1
100
AcDbEntity
  8
200
  6
Continuous
 62
     1
100
AcDbText
 10
-9.25773647314746
 20
24.87967199999988
 30
0.0
 40
2.5
  1
0.04
 41
0.6
 72
     2
 11
-5.25773647314746
 21
26.12967199999988
 31
0.0
100
AcDbText
 73
     2
  0
TEXT
  5
111
330
D1
100
AcDbEntity
  8
200
  6
Continuous
 62
     1
100
AcDbText
 10
-9.257211326075875
 20
29.08544399999984
 30
0.0
 40
2.5
  1
0.05
 41
0.6
 72
     2
 11
-5.257211326075875
 21
30.33544399999984
 31
0.0
100
AcDbText
 73
     2
  0
TEXT
  5
112
330
D1
100
AcDbEntity
  8
200
  6
Continuous
 62
     1
100
AcDbText
 10
-7.505579963030853
 20
42.15062399999984
 30
0.0
 40
2.5
  1
0.1
 41
0.6
 72
     2
 11
-5.255579963030853
 21
43.40062399999984
 31
0.0
100
AcDbText
 73
     2
  0
TEXT
  5
113
330
D1
100
AcDbEntity
  8
200
  6
Continuous
 62
     1
100
AcDbText
 10
-8.003948685891828
 20
55.21511599999985
 30
0.0
 40
2.5
  1
0.2
 41
0.6
 72
     2
 11
-5.253948685891828
 21
56.46511599999985
 31
0.0
100
AcDbText
 73
     2
  0
TEXT
  5
114
330
D1
100
AcDbEntity
  8
200
  6
Continuous
 62
     1
100
AcDbText
 10
-8.002994490881292
 20
62.85702599999979
 30
0.0
 40
2.5
  1
0.3
 41
0.6
 72
     2
 11
-5.252994490881292
 21
64.10702599999979
 31
0.0
100
AcDbText
 73
     2
  0
TEXT
  5
115
330
D1
100
AcDbEntity
  8
200
  6
Continuous
 62
     1
100
AcDbText
 10
-8.001792261806127
 20
72.48537899999971
 30
0.0
 40
2.5
  1
0.5
 41
0.6
 72
     2
 11
-5.251792261806127
 21
73.73537899999971
 31
0.0
100
AcDbText
 73
     2
  0
TEXT
  5
116
330
D1
100
AcDbEntity
  8
200
  6
Continuous
 62
     1
100
AcDbText
 10
-5.748529535716
 20
85.5505589999999
 30
0.0
 40
2.5
  1
1
 41
0.6
 72
     2
 11
-5.248529535716
 21
86.8005589999999
 31
0.0
100
AcDbText
 73
     2
  0
TEXT
  5
117
330
D1
100
AcDbEntity
  8
200
  6
Continuous
 62
     1
100
AcDbText
 10
-6.247575340580623
 20
106.2576499999997
 30
0.0
 40
2.5
  1
3
 41
0.6
 72
     2
 11
-5.247575340580623
 21
107.5076499999997
 31
0.0
100
AcDbText
 73
     2
  0
TEXT
  5
118
330
D1
100
AcDbEntity
  8
200
  6
Continuous
 62
     1
100
AcDbText
 10
-6.248529535716
 20
98.6157389999998
 30
0.0
 40
2.5
  1
2
 41
0.6
 72
     2
 11
-5.248529535716
 21
99.8657389999998
 31
0.0
100
AcDbText
 73
     2
  0
TEXT
  5
119
330
D1
100
AcDbEntity
  8
200
  6
Continuous
 62
     1
100
AcDbText
 10
-6.24689825857699
 20
111.6802309999999
 30
0.0
 40
2.5
  1
4
 41
0.6
 72
     2
 11
-5.24689825857699
 21
112.9302309999999
 31
0.0
100
AcDbText
 73
     2
  0
TEXT
  5
11A
330
D1
100
AcDbEntity
  8
200
  6
Continuous
 62
     1
100
AcDbText
 10
-6.24637311150542
 20
115.8860029999997
 30
0.0
 40
2.5
  1
5
 41
0.6
 72
     2
 11
-5.24637311150542
 21
117.1360029999997
 31
0.0
100
AcDbText
 73
     2
  0
TEXT
  5
11B
330
D1
100
AcDbEntity
  8
200
  6
Continuous
 62
     1
100
AcDbText
 10
-6.994741813014782
 20
128.9506659999997
 30
0.0
 40
2.5
  1
10
 41
0.6
 72
     2
 11
-5.244741813014782
 21
130.2006659999997
 31
0.0
100
AcDbText
 73
     2
  0
TEXT
  5
11C
330
D1
100
AcDbEntity
  8
200
  6
Continuous
 62
     1
100
AcDbText
 10
-7.493110492922721
 20
142.0155019999998
 30
0.0
 40
2.5
  1
20
 41
0.6
 72
     2
 11
-5.243110492922721
 21
143.2655019999998
 31
0.0
100
AcDbText
 73
     2
  0
TEXT
  5
11D
330
D1
100
AcDbEntity
  8
200
  6
Continuous
 62
     1
100
AcDbText
 10
-7.49215625483437
 20
149.6577569999998
 30
0.0
 40
2.5
  1
30
 41
0.6
 72
     2
 11
-5.24215625483437
 21
150.9077569999998
 31
0.0
100
AcDbText
 73
     2
  0
TEXT
  5
11E
330
D1
100
AcDbEntity
  8
200
  6
Continuous
 62
     1
100
AcDbText
 10
-7.491479215908582
 20
155.0799929999998
 30
0.0
 40
2.5
  1
40
 41
0.6
 72
     2
 11
-5.241479215908582
 21
156.3299929999998
 31
0.0
100
AcDbText
 73
     2
  0
TEXT
  5
11F
330
D1
100
AcDbEntity
  8
200
  6
Continuous
 62
     1
100
AcDbText
 10
-7.490524934742293
 20
162.7225929999998
 30
0.0
 40
2.5
  1
60
 41
0.6
 72
     2
 11
-5.240524934742293
 21
163.9725929999998
 31
0.0
100
AcDbText
 73
     2
  0
TEXT
  5
120
330
D1
100
AcDbEntity
  8
200
  6
Continuous
 62
     1
100
AcDbText
 10
-7.490954025759123
 20
159.2861099999998
 30
0.0
 40
2.5
  1
50
 41
0.6
 72
     2
 11
-5.240954025759123
 21
160.5361099999998
 31
0.0
100
AcDbText
 73
     2
  0
TEXT
  5
121
330
D1
100
AcDbEntity
  8
200
  6
Continuous
 62
     1
100
AcDbText
 10
-8.736737190564554
 20
193.0576919999995
 30
0.0
 40
2.5
  1
300
 41
0.6
 72
     2
 11
-5.236737190564554
 21
194.3076919999995
 31
0.0
100
AcDbText
 73
     2
  0
TEXT
  5
122
330
D1
100
AcDbEntity
  8
200
  6
Continuous
 62
     1
100
AcDbText
 10
-8.239322748744982
 20
172.3506009999998
 30
0.0
 40
2.5
  1
100
 41
0.6
 72
     2
 11
-5.239322748744981
 21
173.6006009999998
 31
0.0
100
AcDbText
 73
     2
  0
TEXT
  5
123
330
D1
100
AcDbEntity
  8
200
  6
Continuous
 62
     1
100
AcDbText
 10
-8.737691428652951
 20
185.4154369999998
 30
0.0
 40
2.5
  1
200
 41
0.6
 72
     2
 11
-5.237691428652951
 21
186.6654369999998
 31
0.0
100
AcDbText
 73
     2
  0
TEXT
  5
124
330
D1
100
AcDbEntity
  8
200
  6
Continuous
 62
     1
100
AcDbText
 10
-9.483903641397303
 20
215.7508809999997
 30
0.0
 40
2.5
  1
1000
 41
0.6
 72
     2
 11
-5.233903641397303
 21
217.0008809999997
 31
0.0
100
AcDbText
 73
     2
  0
TEXT
  5
125
330
D1
100
AcDbEntity
  8
200
  6
Continuous
 62
     1
100
AcDbText
 10
-8.735534961489364
 20
202.6860449999999
 30
0.0
 40
2.5
  1
500
 41
0.6
 72
     2
 11
-5.235534961489363
 21
203.9360449999999
 31
0.0
100
AcDbText
 73
     2
  0
TEXT
  5
126
330
D1
100
AcDbEntity
  8
200
  6
Continuous
 62
     1
100
AcDbText
 10
-8.736060108560934
 20
198.4802729999998
 30
0.0
 40
2.5
  1
400
 41
0.6
 72
     2
 11
-5.236060108560933
 21
199.7302729999998
 31
0.0
100
AcDbText
 73
     2
  0
TEXT
  5
127
330
D1
100
AcDbEntity
  8
23
  6
Continuous
 62
     3
100
AcDbText
 10
0.0000000000000001
 20
276.6340526666665
 30
0.0
 40
3.910714999999981
  1
TemBreak2
 41
0.7
 11
0.0
 21
275.3304809999999
 31
0.0
100
AcDbText
 73
     1
  0
TEXT
  5
128
330
D1
100
AcDbEntity
  8
200
  6
Continuous
 62
     1
100
AcDbText
 10
-9.980771491001688
 20
241.8728553743641
 30
0.0
 40
2.5
  1
4000
 41
0.6
 72
     2
 11
-5.230771491001688
 21
243.1228553743641
 31
0.0
100
AcDbText
 73
     2
  0
TEXT
  5
129
330
D1
100
AcDbEntity
  8
200
  6
Continuous
 62
     1
100
AcDbText
 10
-9.981448551393356
 20
236.4506203743642
 30
0.0
 40
2.5
  1
3000
 41
0.6
 72
     2
 11
-5.231448551393356
 21
237.7006203743642
 31
0.0
100
AcDbText
 73
     2
  0
TEXT
  5
12A
330
D1
100
AcDbEntity
  8
200
  6
Continuous
 62
     1
100
AcDbText
 10
-9.98227236438316
 20
228.8153719999997
 30
0.0
 40
2.5
  1
2000
 41
0.6
 72
     2
 11
-5.232272364383161
 21
230.0653719999997
 31
0.0
100
AcDbText
 73
     2
  0
TEXT
  5
12B
330
D1
100
AcDbEntity
  8
200
  6
Continuous
 62
     1
100
AcDbText
 10
-10.72850376865692
 20
258.9971158246213
 30
0.0
 40
2.5
  1
10000
 41
0.6
 72
     2
 11
-5.228503768656921
 21
260.2471158246213
 31
0.0
100
AcDbText
 73
     2
  0
TEXT
  5
12C
330
D1
100
AcDbEntity
  8
200
  6
Continuous
 62
     1
100
AcDbText
 10
-9.980246322336924
 20
246.078628374364
 30
0.0
 40
2.5
  1
5000
 41
0.6
 72
     2
 11
-5.230246322336924
 21
247.328628374364
 31
0.0
100
AcDbText
 73
     2
  0
LINE
  5
12D
330
D1
100
AcDbEntity
  8
24
  6
Continuous
 62
     1
100
AcDbLine
 10
51.042535
 20
260.4008159999998
 30
0.0
 11
51.042535
 21
0.0
 31
0.0
  0
LINE
  5
12E
330
D1
100
AcDbEntity
  8
24
  6
Continuous
 62
     1
100
AcDbLine
 10
60.67054299999998
 20
260.4008159999998
 30
0.0
 11
60.67054299999998
 21
0.0
 31
0.0
  0
LINE
  5
12F
330
D1
100
AcDbEntity
  8
24
  6
Continuous
 62
     1
100
AcDbLine
 10
69.52960600000001
 20
260.4008159999998
 30
0.0
 11
69.52960600000001
 21
0.0
 31
0.0
  0
LINE
  5
130
330
D1
100
AcDbEntity
  8
24
  6
Continuous
 62
     1
100
AcDbLine
 10
73.73572299999991
 20
260.4008159999998
 30
0.0
 11
73.73572299999991
 21
0.0
 31
0.0
  0
LINE
  5
131
330
D1
100
AcDbEntity
  8
24
  6
Continuous
 62
     1
100
AcDbLine
 10
86.80038699999995
 20
260.4008159999998
 30
0.0
 11
86.80038699999995
 21
0.0
 31
0.0
  0
LINE
  5
132
330
D1
100
AcDbEntity
  8
24
  6
Continuous
 62
     1
100
AcDbLine
 10
94.44298699999992
 20
260.4008159999998
 30
0.0
 11
94.44298699999992
 21
0.0
 31
0.0
  0
LINE
  5
133
330
D1
100
AcDbEntity
  8
24
  6
Continuous
 62
     1
100
AcDbLine
 10
104.0706499999999
 20
260.4008159999998
 30
0.0
 11
104.0706499999999
 21
0.0
 31
0.0
  0
LINE
  5
134
330
D1
100
AcDbEntity
  8
24
  6
Continuous
 62
     1
100
AcDbLine
 10
112.9300579999999
 20
260.4008159999998
 30
0.0
 11
112.9300579999999
 21
0.0
 31
0.0
  0
LINE
  5
135
330
D1
100
AcDbEntity
  8
24
  6
Continuous
 62
     1
100
AcDbLine
 10
117.1358309999999
 20
260.4008159999998
 30
0.0
 11
117.1358309999999
 21
0.0
 31
0.0
  0
LINE
  5
136
330
D1
100
AcDbEntity
  8
24
  6
Continuous
 62
     1
100
AcDbLine
 10
181.2428559999998
 20
260.4008159999998
 30
0.0
 11
181.2428559999998
 21
0.0
 31
0.0
  0
LINE
  5
137
330
D1
100
AcDbEntity
  8
24
  6
Continuous
 62
     1
100
AcDbLine
 10
130.2003219999999
 20
230.0653719999999
 30
0.0
 11
130.2003219999999
 21
0.0
 31
0.0
  0
LINE
  5
138
330
D1
100
AcDbEntity
  8
24
  6
Continuous
 62
     1
100
AcDbLine
 10
137.8429209999999
 20
230.0653719999999
 30
0.0
 11
137.8429209999999
 21
0.0
 31
0.0
  0
LINE
  5
139
330
D1
100
AcDbEntity
  8
24
  6
Continuous
 62
     1
100
AcDbLine
 10
147.471274
 20
230.0653719999999
 30
0.0
 11
147.471274
 21
0.0
 31
0.0
  0
LINE
  5
13A
330
D1
100
AcDbEntity
  8
24
  6
Continuous
 62
     1
100
AcDbLine
 10
156.3299929999999
 20
230.0653719999999
 30
0.0
 11
156.3299929999999
 21
0.0
 31
0.0
  0
LINE
  5
13B
330
D1
100
AcDbEntity
  8
24
  6
Continuous
 62
     1
100
AcDbLine
 10
160.5357649999999
 20
230.0653719999999
 30
0.0
 11
160.5357649999999
 21
0.0
 31
0.0
  0
LINE
  5
13C
330
D1
100
AcDbEntity
  8
24
  6
Continuous
 62
     1
100
AcDbLine
 10
173.600257
 20
230.0653719999999
 30
0.0
 11
173.600257
 21
0.0
 31
0.0
  0
TEXT
  5
13D
330
D1
100
AcDbEntity
  8
23
  6
Continuous
 62
     3
100
AcDbText
 10
78.428632
 20
-38.21649633333334
 30
0.0
 40
3.910714999999998
  1
TERASAKI ELECTRIC CO.,LTD.
 41
0.7
 11
78.428632
 21
-39.520068
 31
0.0
100
AcDbText
 73
     1
  0
TEXT
  5
13E
330
D1
100
AcDbEntity
  8
24
  6
Continuous
 62
     1
100
AcDbText
 10
91.790263
 20
-20.06220266666666
 30
0.0
 40
2.444193999999999
  1
primary ==== 6.6kV
 41
0.7
 11
91.790263
 21
-20.876934
 31
0.0
100
AcDbText
 73
     1
  0
TEXT
  5
13F
330
D1
100
AcDbEntity
  8
24
  6
Continuous
 62
     1
100
AcDbText
 10
91.790263
 20
-23.91933166666667
 30
0.0
 40
2.444193999999999
  1
secondary == 110,220,440V
 41
0.7
 11
91.790263
 21
-24.73406300000001
 31
0.0
100
AcDbText
 73
     1
  0
TEXT
  5
140
330
D1
100
AcDbEntity
  8
200
  6
Continuous
 62
     1
100
AcDbText
 10
74.98572299999991
 20
-7.499999999999999
 30
0.0
 40
2.5
  1
100
 50
90.0
 41
0.7
 72
     2
 11
73.73572299999991
 21
-4.0
 31
0.0
100
AcDbText
 73
     2
  0
TEXT
  5
141
330
D1
100
AcDbEntity
  8
200
  6
Continuous
 62
     1
100
AcDbText
 10
70.7796059999999
 20
-6.625
 30
0.0
 40
2.5
  1
80
 50
90.0
 41
0.7
 72
     2
 11
69.5296059999999
 21
-4.0
 31
0.0
100
AcDbText
 73
     2
  0
TEXT
  5
142
330
D1
100
AcDbEntity
  8
200
  6
Continuous
 62
     1
100
AcDbText
 10
61.92054299999989
 20
-6.625
 30
0.0
 40
2.5
  1
50
 50
90.0
 41
0.7
 72
     2
 11
60.67054299999989
 21
-4.0
 31
0.0
100
AcDbText
 73
     2
  0
TEXT
  5
143
330
D1
100
AcDbEntity
  8
200
  6
Continuous
 62
     1
100
AcDbText
 10
52.29253499999988
 20
-6.625
 30
0.0
 40
2.5
  1
30
 50
90.0
 41
0.7
 72
     2
 11
51.04253499999988
 21
-4.0
 31
0.0
100
AcDbText
 73
     2
  0
TEXT
  5
144
330
D1
100
AcDbEntity
  8
200
  6
Continuous
 62
     1
100
AcDbText
 10
95.69298699999992
 20
-8.083333333333332
 30
0.0
 40
2.5
  1
300
 50
90.0
 41
0.7
 72
     2
 11
94.44298699999992
 21
-4.0
 31
0.0
100
AcDbText
 73
     2
  0
TEXT
  5
145
330
D1
100
AcDbEntity
  8
200
  6
Continuous
 62
     1
100
AcDbText
 10
88.05038699999995
 20
-8.083333333333332
 30
0.0
 40
2.5
  1
200
 50
90.0
 41
0.7
 72
     2
 11
86.80038699999995
 21
-4.0
 31
0.0
100
AcDbText
 73
     2
  0
TEXT
  5
146
330
D1
100
AcDbEntity
  8
200
  6
Continuous
 62
     1
100
AcDbText
 10
118.3858309999999
 20
-8.958333333333332
 30
0.0
 40
2.5
  1
1000
 50
90.0
 41
0.7
 72
     2
 11
117.1358309999999
 21
-4.0
 31
0.0
100
AcDbText
 73
     2
  0
TEXT
  5
147
330
D1
100
AcDbEntity
  8
200
  6
Continuous
 62
     1
100
AcDbText
 10
114.1800579999997
 20
-8.083333333333332
 30
0.0
 40
2.5
  1
800
 50
90.0
 41
0.7
 72
     2
 11
112.9300579999997
 21
-4.0
 31
0.0
100
AcDbText
 73
     2
  0
TEXT
  5
148
330
D1
100
AcDbEntity
  8
200
  6
Continuous
 62
     1
100
AcDbText
 10
105.3206499999999
 20
-8.083333333333332
 30
0.0
 40
2.5
  1
500
 50
90.0
 41
0.7
 72
     2
 11
104.0706499999999
 21
-4.0
 31
0.0
100
AcDbText
 73
     2
  0
TEXT
  5
149
330
D1
100
AcDbEntity
  8
200
  6
Continuous
 62
     1
100
AcDbText
 10
139.0929209999999
 20
-9.541666666666667
 30
0.0
 40
2.5
  1
3000
 50
90.0
 41
0.7
 72
     2
 11
137.8429209999999
 21
-4.0
 31
0.0
100
AcDbText
 73
     2
  0
TEXT
  5
14A
330
D1
100
AcDbEntity
  8
200
  6
Continuous
 62
     1
100
AcDbText
 10
131.4503219999998
 20
-9.541666666666667
 30
0.0
 40
2.5
  1
2000
 50
90.0
 41
0.7
 72
     2
 11
130.2003219999998
 21
-4.0
 31
0.0
100
AcDbText
 73
     2
  0
TEXT
  5
14B
330
D1
100
AcDbEntity
  8
200
  6
Continuous
 62
     1
100
AcDbText
 10
161.8726395661999
 20
-10.48817402477792
 30
0.0
 40
2.5
  1
10000
 50
90.0
 41
0.7
 72
     2
 11
160.6226395661999
 21
-4.071507358111261
 31
0.0
100
AcDbText
 73
     2
  0
TEXT
  5
14C
330
D1
100
AcDbEntity
  8
200
  6
Continuous
 62
     1
100
AcDbText
 10
148.7212739999999
 20
-9.541666666666667
 30
0.0
 40
2.5
  1
5000
 50
90.0
 41
0.7
 72
     2
 11
147.4712739999999
 21
-4.0
 31
0.0
100
AcDbText
 73
     2
  0
TEXT
  5
14D
330
D1
100
AcDbEntity
  8
200
  6
Continuous
 62
     1
100
AcDbText
 10
157.5799929999999
 20
-9.541666666666667
 30
0.0
 40
2.5
  1
8000
 50
90.0
 41
0.7
 72
     2
 11
156.3299929999999
 21
-4.0
 31
0.0
100
AcDbText
 73
     2
  0
TEXT
  5
14E
330
D1
100
AcDbEntity
  8
200
  6
Continuous
 62
     1
100
AcDbText
 10
182.5797305662
 20
-11.07150735811126
 30
0.0
 40
2.5
  1
30000
 50
90.0
 41
0.7
 72
     2
 11
181.3297305662
 21
-4.071507358111261
 31
0.0
100
AcDbText
 73
     2
  0
TEXT
  5
14F
330
D1
100
AcDbEntity
  8
200
  6
Continuous
 62
     1
100
AcDbText
 10
174.9371315661998
 20
-11.07150735811126
 30
0.0
 40
2.5
  1
20000
 50
90.0
 41
0.7
 72
     2
 11
173.6871315661998
 21
-4.071507358111261
 31
0.0
100
AcDbText
 73
     2
  0
LINE
  5
150
330
D1
100
AcDbEntity
  8
24
  6
Continuous
 62
     1
100
AcDbLine
 10
130.2003219999999
 20
260.4008159999998
 30
0.0
 11
130.2003219999999
 21
256.1946989999996
 31
0.0
  0
LINE
  5
151
330
D1
100
AcDbEntity
  8
24
  6
Continuous
 62
     1
100
AcDbLine
 10
137.8429209999999
 20
260.4008159999998
 30
0.0
 11
137.8429209999999
 21
256.1946989999996
 31
0.0
  0
LINE
  5
152
330
D1
100
AcDbEntity
  8
24
  6
Continuous
 62
     1
100
AcDbLine
 10
147.471274
 20
260.4008159999998
 30
0.0
 11
147.471274
 21
256.1946989999996
 31
0.0
  0
LINE
  5
153
330
D1
100
AcDbEntity
  8
24
  6
Continuous
 62
     1
100
AcDbLine
 10
156.3299929999999
 20
260.4008159999998
 30
0.0
 11
156.3299929999999
 21
256.1946989999996
 31
0.0
  0
LINE
  5
154
330
D1
100
AcDbEntity
  8
24
  6
Continuous
 62
     1
100
AcDbLine
 10
160.5357649999999
 20
260.4008159999998
 30
0.0
 11
160.5357649999999
 21
256.1946989999996
 31
0.0
  0
LINE
  5
155
330
D1
100
AcDbEntity
  8
24
  6
Continuous
 62
     1
100
AcDbLine
 10
173.600257
 20
260.4008159999998
 30
0.0
 11
173.600257
 21
256.1946989999996
 31
0.0
  0
ENDBLK
  5
157
330
D1
100
AcDbEntity
  8
0
100
AcDbBlockEnd
  0
BLOCK
  5
25C
330
25A
100
AcDbEntity
  8
0
100
AcDbBlockBegin
  2
A$C563C75BC
 70
     0
 10
0.0
 20
0.0
 30
0.0
  3
A$C563C75BC
  1

  0
SPLINE
  5
25B
330
25A
100
AcDbEntity
  8
VPORT-BORDERS
 62
     7
100
AcDbSpline
210
0.0
220
0.0
230
1.0
 70
     8
 71
     3
 72
    23
 73
    19
 74
     0
 42
0.0000000001
 43
0.0000000001
 40
0.0
 40
0.0
 40
0.0
 40
0.0
 40
1.0
 40
1.0
 40
1.0
 40
2.0
 40
2.0
 40
2.0
 40
3.0
 40
3.0
 40
3.0
 40
4.0
 40
4.0
 40
4.0
 40
5.0
 40
5.0
 40
5.0
 40
6.0
 40
6.0
 40
6.0
 40
6.0
 10
42.06237704513887
 20
260.3661922447914
 30
0.0
 10
42.06237704513887
 20
260.3661922447914
 30
0.0
 10
42.06237704513887
 20
254.4277089006075
 30
0.0
 10
42.06237704513887
 20
246.8429866783854
 30
0.0
 10
42.06237704513887
 20
232.2614477786458
 30
0.0
 10
46.83038919791671
 20
204.2188872860242
 30
0.0
 10
48.64733255729166
 20
197.2189700225692
 30
0.0
 10
54.0271936684027
 20
176.4932755781249
 30
0.0
 10
64.13820441059036
 20
147.4773033559026
 30
0.0
 10
69.58524488368064
 20
136.1884144670136
 30
0.0
 10
80.12344746614578
 20
114.3478871232636
 30
0.0
 10
86.81141133333339
 20
112.846170000868
 30
0.0
 10
86.81141133333339
 20
99.61700333420118
 30
0.0
 10
86.81141133333339
 20
86.38783666753452
 30
0.0
 10
86.81141133333339
 20
52.7478572838541
 30
0.0
 10
86.81141133333339
 20
40.5770239505207
 30
0.0
 10
86.81141133333339
 20
23.15620960590258
 30
0.0
 10
87.60378329513882
 20
17.9296552439235
 30
0.0
 10
97.02900972796122
 20
15.76072910568891
 30
0.0
  0
ENDBLK
  5
25D
330
25A
100
AcDbEntity
  8
0
100
AcDbBlockEnd
  0
BLOCK
  5
262
330
25E
100
AcDbEntity
  8
0
100
AcDbBlockBegin
  2
A$C5E035E10
 70
     0
 10
0.0
 20
0.0
 30
0.0
  3
A$C5E035E10
  1

  0
XLINE
  5
25F
330
25E
100
AcDbEntity
  8
0
  6
Continuous
370
     0
100
AcDbXline
 10
0.0
 20
0.0
 30
0.0
 11
1.0
 21
0.0
 31
0.0
  0
ENDBLK
  5
263
330
25E
100
AcDbEntity
  8
0
100
AcDbBlockEnd
  0
BLOCK
  5
3C7
330
3C3
100
AcDbEntity
  8
0
100
AcDbBlockBegin
  2
A$C73C334B0
 70
     0
 10
0.0
 20
0.0
 30
0.0
  3
A$C73C334B0
  1

  0
SPLINE
  5
3C4
330
3C3
100
AcDbEntity
  8
0
100
AcDbSpline
210
0.0
220
0.0
230
1.0
 70
     8
 71
     3
 72
    24
 73
    20
 74
     0
 42
0.0000000001
 43
0.0000000001
 40
0.0
 40
0.0
 40
0.0
 40
0.0
 40
20.0094299182604
 40
40.0881661154555
 40
60.42214122292
 40
81.32124072570976
 40
102.8947857505988
 40
113.9391536217054
 40
125.2479466104155
 40
136.8380079790225
 40
142.3214431690505
 40
147.6559128245048
 40
152.8870701411708
 40
158.0485609032264
 40
168.088217004522
 40
168.088217004522
 40
168.088217004522
 40
168.088217004522
 40
188.088217004522
 40
188.088217004522
 40
188.088217004522
 40
188.088217004522
 10
0.0
 20
-0.0000000000000568
 30
0.0
 10
0.1339761517160696
 20
-6.669431359792667
 30
0.0
 10
0.4023925057773571
 20
-20.03139486096165
 30
0.0
 10
2.091380682347903
 20
-40.1207875752557
 30
0.0
 10
5.688383365047285
 20
-60.28518936538389
 30
0.0
 10
11.9137779453988
 20
-80.31907188104659
 30
0.0
 10
18.6649650508686
 20
-96.84887109050102
 30
0.0
 10
24.8829956478051
 20
-110.1055267456488
 30
0.0
 10
30.03327388393906
 20
-120.1892416404991
 30
0.0
 10
35.31292027509824
 20
-128.0838606936207
 30
0.0
 10
38.32022778713332
 20
-134.9363421126165
 30
0.0
 10
40.19836614482267
 20
-139.9487666482877
 30
0.0
 10
41.6954218377544
 20
-144.971395937929
 30
0.0
 10
43.542986651492
 20
-151.5459940323257
 30
0.0
 10
44.20000009672071
 20
-156.6426961603351
 30
0.0
 10
44.20000009672071
 20
-160.0
 30
0.0
 10
44.20000009672071
 20
-160.0
 30
0.0
 10
44.20000009672071
 20
-166.6666666666667
 30
0.0
 10
44.20000009672071
 20
-173.3333333333334
 30
0.0
 10
44.20000009672071
 20
-180.0
 30
0.0
  0
ENDBLK
  5
3C8
330
3C3
100
AcDbEntity
  8
0
100
AcDbBlockEnd
  0
ENDSEC
  0
SECTION
  2
ENTITIES
  0
MTEXT
  5
9D
330
1F
100
AcDbEntity
  8
レイヤー_5
 62
     7
100
AcDbMText
 10
134.2741470000001
 20
252.2029369999997
 30
0.0
 40
2.444193999999999
 41
0.0
 71
     1
 72
     5
  1
{\fOsaka|b0|i0|c128|p0;\W1.02;300A}
  7
STD
 73
     1
 44
1.0
1001
ACAD
1000
MTEXTBEGIN
1070
    73
1070
     1
1070
    44
1040
1.0
1070
    74
1070
     0
1000
MTEXTEND
  0
MTEXT
  5
9F
330
1F
100
AcDbEntity
  8
レイヤー_5
 62
     7
100
AcDbMText
 10
148.1220530000001
 20
239.7725159999999
 30
0.0
 40
2.444193999999999
 41
0.0
 71
     1
 72
     5
  1
{\fOsaka|b0|i0|c128|p0;\W1.02;ZNS400-NF,NS400-NF}
  7
STD
 73
     1
 44
1.0
1001
ACAD
1000
MTEXTBEGIN
1070
    73
1070
     1
1070
    44
1040
1.0
1070
    74
1070
     0
1000
MTEXTEND
  0
MTEXT
  5
A0
330
1F
100
AcDbEntity
  8
レイヤー_5
 62
     7
100
AcDbMText
 10
148.1220530000001
 20
245.1222319999998
 30
0.0
 40
2.444193999999999
 41
0.0
 71
     1
 72
     5
  1
{\fOsaka|b0|i0|c128|p0;\W1.02;ZS400-NF,GF,ZAS400-NF,GF}
  7
STD
 73
     1
 44
1.0
1001
ACAD
1000
MTEXTBEGIN
1070
    73
1070
     1
1070
    44
1040
1.0
1070
    74
1070
     0
1000
MTEXTEND
  0
MTEXT
  5
2AC
330
1F
100
AcDbEntity
  8
VPORT-BORDERS
 62
     7
100
AcDbMText
 10
-10.77143499999996
 20
1.440292999999995
 30
0.0
 40
2.444193999999999
 41
0.0
 71
     1
 72
     5
  1
\W1.02;\fOsaka|b0|i0|c128;0.01S
  7
STD
 73
     1
 44
1.0
1001
ACAD
1000
MTEXTBEGIN
1070
    73
1070
     1
1070
    44
1040
1.0
1070
    74
1070
     0
1000
MTEXTEND
  0
LINE
  5
2AD
330
1F
100
AcDbEntity
  8
VPORT-BORDERS
 62
     7
100
AcDbLine
 10
194.3424879999997
 20
0.0
 30
0.0
 11
-0.0000000000000568
 21
0.0
 31
0.0
  0
LINE
  5
2AE
330
1F
100
AcDbEntity
  8
VPORT-BORDERS
 62
     7
100
AcDbLine
 10
-0.0000000000000568
 20
260.400471
 30
0.0
 11
-0.0000000000000568
 21
0.0
 31
0.0
  0
LINE
  5
2AF
330
1F
100
AcDbEntity
  8
VPORT-BORDERS
 62
     7
100
AcDbLine
 10
26.19995199999996
 20
260.400471
 30
0.0
 11
26.19995199999996
 21
0.0
 31
0.0
  0
LINE
  5
2B0
330
1F
100
AcDbEntity
  8
VPORT-BORDERS
 62
     7
100
AcDbLine
 10
13.09997599999985
 20
260.400471
 30
0.0
 11
13.09997599999985
 21
0.0
 31
0.0
  0
MTEXT
  5
2B1
330
1F
100
AcDbEntity
  8
VPORT-BORDERS
 62
     7
100
AcDbMText
 10
25.23783800000004
 20
-14.78531599999996
 30
0.0
 40
2.444193999999999
 41
0.0
 71
     1
 72
     5
  1
\fOsaka|b0|i0|c128;110V
  7
STD
 11
0.0
 21
1.0
 31
0.0
 73
     1
 44
1.0
1001
ACAD
1000
MTEXTBEGIN
1070
    73
1070
     1
1070
    44
1040
1.0
1070
    74
1070
     0
1000
MTEXTEND
  0
MTEXT
  5
2B2
330
1F
100
AcDbEntity
  8
VPORT-BORDERS
 62
     7
100
AcDbMText
 10
-1.444081999999979
 20
-14.78531599999996
 30
0.0
 40
2.444193999999999
 41
0.0
 71
     1
 72
     5
  1
\fOsaka|b0|i0|c128;440V
  7
STD
 11
0.0
 21
1.0
 31
0.0
 73
     1
 44
1.0
1001
ACAD
1000
MTEXTBEGIN
1070
    73
1070
     1
1070
    44
1040
1.0
1070
    74
1070
     0
1000
MTEXTEND
  0
MTEXT
  5
2B3
330
1F
100
AcDbEntity
  8
VPORT-BORDERS
 62
     7
100
AcDbMText
 10
11.65589399999992
 20
-14.78531599999996
 30
0.0
 40
2.444193999999999
 41
0.0
 71
     1
 72
     5
  1
\fOsaka|b0|i0|c128;220V
  7
STD
 11
0.0
 21
1.0
 31
0.0
 73
     1
 44
1.0
1001
ACAD
1000
MTEXTBEGIN
1070
    73
1070
     1
1070
    44
1040
1.0
1070
    74
1070
     0
1000
MTEXTEND
  0
LWPOLYLINE
  5
615
330
1F
100
AcDbEntity
  8
0
100
AcDbPolyline
 90
      157
 70
     0
 43
0.0
 10
46.09997599999984
 20
260.400471
 10
46.10145760963574
 20
258.7657885135818
 10
46.10682013994156
 20
257.1312010768933
 10
46.1174401430146
 20
255.4968037396639
 10
46.13469417095204
 20
253.8626915516233
 10
46.15995877585114
 20
252.2289595625012
 10
46.19461050980913
 20
250.595702822027
 10
46.24002592492326
 20
248.9630163799305
 10
46.29758157329074
 20
247.3309952859412
 10
46.36865400700883
 20
245.6997345897886
 10
46.45461977817475
 20
244.0693293412025
 10
46.55685543888576
 20
242.4398745899125
 10
46.67673754123907
 20
240.8114653856479
 10
46.81552857860245
 20
239.1842054067518
 10
46.97348999233711
 20
237.5582740617666
 10
47.15036424101158
 20
235.9338900206028
 10
47.34588938707754
 20
234.3112722857397
 10
47.5598034929867
 20
232.6906398596565
 10
47.79184462119071
 20
231.0722117448325
 10
48.04175083414127
 20
229.4562069437469
 10
48.30926019429003
 20
227.8428444588792
 10
48.59411076408867
 20
226.2323432927083
 10
48.8960406059889
 20
224.6249224477138
 10
49.21478778244235
 20
223.0208009263748
 10
49.55009035590074
 20
221.4201977311706
 10
49.90168187150125
 20
219.823328930174
 10
50.26907290733693
 20
218.2302657540883
 10
50.65145356877684
 20
216.6408712574418
 10
51.04798913463461
 20
215.054992367658
 10
51.45784488372388
 20
213.4724760121601
 10
51.8801860948583
 20
211.8931691183714
 10
52.3141780468515
 20
210.3169186137153
 10
52.75898601851714
 20
208.7435714256149
 10
53.21377528866883
 20
207.1729744814938
 10
53.67771113612025
 20
205.604974708775
 10
54.14995883968502
 20
204.039419034882
 10
54.62968367817675
 20
202.4761543872379
 10
55.11605093040914
 20
200.9150276932663
 10
55.608259250314
 20
199.3558903359528
 10
56.10589046864708
 20
197.7986448522098
 10
56.6087713625485
 20
196.2432264791766
 10
57.11673269105621
 20
194.6895709855743
 10
57.62960521320818
 20
193.137614140124
 10
58.14721968804239
 20
191.5872917115466
 10
58.66940687459673
 20
190.0385394685631
 10
59.19599753190922
 20
188.4912931798945
 10
59.72682241901781
 20
186.945488614262
 10
60.26171229496044
 20
185.4010615403864
 10
60.8004979187751
 20
183.8579477269888
 10
61.3430100494997
 20
182.3160829427902
 10
61.88907944617224
 20
180.7754029565117
 10
62.4385758834815
 20
179.2358606741829
 10
62.99170141510826
 20
177.6975549526918
 10
63.54882613661043
 20
176.1606584599605
 10
64.11032144393202
 20
174.6253444350953
 10
64.67655873301707
 20
173.0917861172023
 10
65.24790939980952
 20
171.5601567453878
 10
65.82474484025344
 20
170.030629558758
 10
66.40743645029282
 20
168.5033777964195
 10
66.99635562587163
 20
166.978574697478
 10
67.5918737629339
 20
165.4563935010403
 10
68.19436225742366
 20
163.9370074462122
 10
68.8041925052849
 20
162.4205897721002
 10
69.42173590246159
 20
160.9073137178104
 10
70.04729200652559
 20
159.397323593742
 10
70.68031891135816
 20
157.8904248599577
 10
71.31972880406602
 20
156.3862031444624
 10
71.96443043792314
 20
154.8842425229671
 10
72.61365567677637
 20
153.3842477439939
 10
73.26712334497845
 20
151.8861054222687
 10
73.92459257682112
 20
150.3897172271597
 10
74.58587495173152
 20
148.8950084987356
 10
75.25098735312704
 20
147.4019972394114
 10
75.91999689506561
 20
145.9107241228075
 10
76.59296775263769
 20
144.4212290831972
 10
77.26992878215877
 20
142.9335431698151
 10
77.95088549378589
 20
141.4476915587723
 10
78.6358469216059
 20
139.9637009703187
 10
79.32514099587113
 20
138.4817315899423
 10
80.01964435546375
 20
137.002173250069
 10
80.72028782835657
 20
135.5254384624819
 10
81.42766450227945
 20
134.0518102822456
 10
82.14062372689122
 20
132.580903385063
 10
82.85745374204223
 20
131.1121173717804
 10
83.57642430246356
 20
129.6448194744318
 10
84.29541442358781
 20
128.1776848536167
 10
85.01192746401512
 20
126.7087233123316
 10
85.72344626318601
 20
125.235916249709
 10
86.422212127621
 20
123.7557838165747
 10
87.0854085773419
 20
122.2606483145065
 10
87.68753184061544
 20
120.7420828748327
 10
88.20586856293466
 20
119.1929140081368
 10
88.63987181135954
 20
117.6159247765512
 10
88.99956755517768
 20
116.0186473013079
 10
89.29460301961219
 20
114.4084241935524
 10
89.5283710158251
 20
112.7895155836662
 42
-0.0310865127213442
 10
90.29997600000113
 20
100.3909018472993
 10
90.29997599999987
 20
80.40047099999998
 10
90.29997599999987
 20
79.37215677562869
 10
90.29997599999987
 20
78.3438425512574
 10
90.29997599999987
 20
77.3155283268861
 10
90.29997599999987
 20
76.28721410251481
 10
90.29997599999987
 20
75.25889987814348
 10
90.29997599999987
 20
74.23058565377219
 10
90.29997599999987
 20
73.20227142940092
 10
90.29997599999987
 20
72.17395720502962
 10
90.29997599999987
 20
71.14564298065833
 10
90.29997599999987
 20
70.11732875628706
 10
90.29997599999987
 20
69.08901453191575
 10
90.29997599999987
 20
68.06070030754447
 10
90.29997599999987
 20
67.03238608317315
 10
90.29997599999987
 20
66.00407185880186
 10
90.29997599999987
 20
64.97575763443058
 10
90.29997599999987
 20
63.94744341005929
 10
90.29997599999987
 20
62.91912918568801
 10
90.29997599999987
 20
61.89081496131669
 10
90.29997599999987
 20
60.86250073694539
 10
90.29997599999987
 20
59.83418651257409
 10
90.29997599999987
 20
58.80587228820282
 10
90.29997599999987
 20
57.77755806383152
 10
90.29997599999987
 20
56.74924383946024
 10
90.29997599999987
 20
55.72092961508892
 10
90.29997599999987
 20
54.69261539071762
 10
90.29997599999987
 20
53.66430116634631
 10
90.29997599999987
 20
52.63598694197503
 10
90.29997599999987
 20
51.60767271760374
 10
90.29997599999987
 20
50.57935849323246
 10
90.29997599999987
 20
49.55104426886117
 10
90.29997599999987
 20
48.52273004448986
 10
90.29997599999987
 20
47.49441582011857
 10
90.29997599999987
 20
46.46610159574726
 10
90.29997599999987
 20
45.43778737137595
 10
90.29997599999987
 20
44.40947314700468
 10
90.29997599999987
 20
43.38115892263338
 10
90.29997599999987
 20
42.3528446982621
 10
90.29997599999987
 20
41.32453047389083
 10
90.29997599999987
 20
40.29621624951949
 10
90.29997599999987
 20
39.26790202514821
 10
90.29997599999987
 20
38.23958780077692
 10
90.29997599999992
 20
37.21127357640564
 10
90.29997599999992
 20
36.18295935203434
 10
90.29997599999992
 20
35.15464512766306
 10
90.29997599999992
 20
34.12633090329177
 10
90.29997599999992
 20
33.09801667892043
 10
90.29997599999992
 20
32.06970245454915
 10
90.29997599999992
 20
31.04138823017786
 10
90.29997599999992
 20
30.01307400580657
 10
90.29997599999992
 20
28.98475978143529
 10
90.29997599999992
 20
28.86630785475768
 10
90.32875950773778
 20
28.2300168258958
 10
91.17757328467664
 20
23.89321135897683
 10
94.74112516534146
 20
19.55425657691899
 10
99.66204495839777
 20
16.66221688879562
 10
105.1940899229744
 20
14.83293419904163
 10
111.3944781869451
 20
13.80071201320493
 10
118.3204835092404
 20
13.29986349664654
 10
126.0293796487907
 20
13.06470181472718
  0
LWPOLYLINE
  5
616
330
1F
100
AcDbEntity
  8
0
100
AcDbPolyline
 90
      149
 70
     0
 43
0.0
 10
46.09997599999984
 20
260.400471
 10
46.10145760963574
 20
258.7657885135818
 10
46.10682013994156
 20
257.1312010768933
 10
46.11744014301462
 20
255.4968037396639
 10
46.13469417095204
 20
253.8626915516233
 10
46.15995877585111
 20
252.2289595625012
 10
46.19461050980913
 20
250.595702822027
 10
46.24002592492326
 20
248.9630163799305
 10
46.29758157329074
 20
247.3309952859412
 10
46.36865400700883
 20
245.6997345897886
 10
46.45461977817478
 20
244.0693293412025
 10
46.55685543888575
 20
242.4398745899125
 10
46.67673754123904
 20
240.8114653856479
 10
46.81552857860245
 20
239.1842054067518
 10
46.97348999233711
 20
237.5582740617666
 10
47.15036424101156
 20
235.9338900206028
 10
47.34588938707751
 20
234.3112722857397
 10
47.5598034929867
 20
232.6906398596565
 10
47.79184462119069
 20
231.0722117448325
 10
48.04175083414127
 20
229.4562069437469
 10
48.30926019429
 20
227.8428444588792
 10
48.59411076408867
 20
226.2323432927083
 10
48.8960406059889
 20
224.6249224477138
 10
49.21478778244238
 20
223.0208009263748
 10
49.55009035590074
 20
221.4201977311706
 10
49.90168187150121
 20
219.823328930174
 10
50.2690729073369
 20
218.2302657540883
 10
50.65145356877684
 20
216.6408712574418
 10
51.04798913463461
 20
215.054992367658
 10
51.4578448837239
 20
213.4724760121601
 10
51.8801860948583
 20
211.8931691183714
 10
52.3141780468515
 20
210.3169186137153
 10
52.75898601851711
 20
208.7435714256149
 10
53.21377528866883
 20
207.1729744814938
 10
53.67771113612024
 20
205.604974708775
 10
54.14995883968502
 20
204.039419034882
 10
54.62968367817675
 20
202.4761543872379
 10
55.11605093040918
 20
200.9150276932663
 10
55.608259250314
 20
199.3558903359528
 10
56.10589046864708
 20
197.7986448522098
 10
56.6087713625485
 20
196.2432264791766
 10
57.11673269105618
 20
194.6895709855743
 10
57.62960521320819
 20
193.137614140124
 10
58.14721968804235
 20
191.5872917115466
 10
58.66940687459673
 20
190.0385394685631
 10
59.19599753190925
 20
188.4912931798945
 10
59.7268224190178
 20
186.945488614262
 10
60.26171229496046
 20
185.4010615403864
 10
60.80049791877512
 20
183.8579477269888
 10
61.34301004949968
 20
182.3160829427902
 10
61.88907944617227
 20
180.7754029565117
 10
62.4385758834815
 20
179.2358606741829
 10
62.99170141510825
 20
177.6975549526918
 10
63.54882613661043
 20
176.1606584599605
 10
64.11032144393202
 20
174.6253444350953
 10
64.67655873301707
 20
173.0917861172023
 10
65.24790939980954
 20
171.5601567453878
 10
65.82474484025346
 20
170.030629558758
 10
66.40743645029282
 20
168.5033777964195
 10
66.99635562587161
 20
166.978574697478
 10
67.5918737629339
 20
165.4563935010403
 10
68.19436225742366
 20
163.9370074462122
 10
68.8041925052849
 20
162.4205897721002
 10
69.42173590246158
 20
160.9073137178104
 10
70.04729200652559
 20
159.397323593742
 10
70.68031891135818
 20
157.8904248599577
 10
71.31972880406602
 20
156.3862031444624
 10
71.96443043792315
 20
154.8842425229671
 10
72.61365567677636
 20
153.3842477439939
 10
73.26712334497847
 20
151.8861054222687
 10
73.92459257682116
 20
150.3897172271597
 10
74.58587495173152
 20
148.8950084987356
 10
75.25098735312706
 20
147.4019972394114
 10
75.91999689506559
 20
145.9107241228075
 10
76.5929677526377
 20
144.4212290831972
 10
77.26992878215878
 20
142.9335431698151
 10
77.9508854937859
 20
141.4476915587723
 10
78.63584692160587
 20
139.9637009703187
 10
79.32514099587115
 20
138.4817315899423
 10
80.01964435546375
 20
137.002173250069
 10
80.72028782835657
 20
135.5254384624819
 10
81.42766450227947
 20
134.0518102822456
 10
82.14062372689124
 20
132.580903385063
 10
82.85745374204223
 20
131.1121173717804
 10
83.57642430246356
 20
129.6448194744318
 10
85.01192746401512
 20
126.7087233123316
 10
85.01192746401512
 20
126.7087233123316
 10
85.01192746401512
 20
126.7087233123316
 10
85.01192746401512
 20
126.7087233123316
 42
-0.0923650343673206
 10
88.59997599999983
 20
107.9335788915
 10
88.59997599999983
 20
79.37215677562869
 10
88.59997599999983
 20
78.3438425512574
 10
88.59997599999983
 20
77.3155283268861
 10
88.59997599999983
 20
76.28721410251481
 10
88.59997599999983
 20
75.25889987814348
 10
88.59997599999983
 20
74.23058565377219
 10
88.59997599999983
 20
73.20227142940092
 10
88.59997599999983
 20
72.17395720502962
 10
88.59997599999983
 20
71.14564298065833
 10
88.59997599999983
 20
70.11732875628706
 10
88.59997599999983
 20
69.08901453191575
 10
88.59997599999983
 20
68.06070030754447
 10
88.59997599999983
 20
67.03238608317315
 10
88.59997599999983
 20
66.00407185880186
 10
88.59997599999983
 20
64.97575763443058
 10
88.59997599999983
 20
63.94744341005929
 10
88.59997599999983
 20
62.91912918568801
 10
88.59997599999983
 20
61.89081496131669
 10
88.59997599999983
 20
60.86250073694539
 10
88.59997599999983
 20
59.83418651257409
 10
88.59997599999983
 20
58.80587228820282
 10
88.59997599999983
 20
57.77755806383152
 10
88.59997599999987
 20
56.74924383946024
 10
88.59997599999987
 20
55.72092961508892
 10
88.59997599999987
 20
54.69261539071762
 10
88.59997599999987
 20
53.66430116634631
 10
88.59997599999987
 20
52.63598694197503
 10
88.59997599999987
 20
51.60767271760374
 10
88.59997599999987
 20
50.57935849323246
 10
88.59997599999987
 20
49.55104426886117
 10
88.59997599999987
 20
48.52273004448986
 10
88.59997599999987
 20
47.49441582011857
 10
88.59997599999987
 20
46.46610159574726
 10
88.59997599999987
 20
45.43778737137595
 10
88.59997599999987
 20
44.40947314700468
 10
88.59997599999987
 20
43.38115892263338
 10
88.59997599999987
 20
42.3528446982621
 10
88.59997599999987
 20
41.32453047389083
 10
88.59997599999987
 20
40.29621624951949
 10
88.59997599999987
 20
39.26790202514821
 10
88.59997599999987
 20
38.23958780077692
 10
88.59997599999989
 20
37.21127357640564
 10
88.59997599999989
 20
36.18295935203434
 10
88.59997599999989
 20
35.15464512766306
 10
88.59997599999989
 20
34.12633090329177
 10
88.59997599999989
 20
33.09801667892043
 10
88.59997599999989
 20
32.06970245454915
 10
88.59997599999989
 20
31.04138823017786
 10
88.59997599999989
 20
30.01307400580657
 10
88.59997599999989
 20
28.98475978143529
 10
88.59997599999989
 20
28.86630785475768
 10
88.62875950773775
 20
28.2300168258958
 10
89.47757328467663
 20
23.89321135897683
 10
93.04112516534145
 20
19.55425657691899
 10
97.97429754075693
 20
16.66221688879562
 10
103.5987596978386
 20
14.83293419904163
 10
110.0554384388659
 20
13.80071201320493
 10
117.4853172578471
 20
13.29986349664654
 10
126.0293796487907
 20
13.06470181472718
  0
LWPOLYLINE
  5
617
330
1F
100
AcDbEntity
  8
0
100
AcDbPolyline
 90
      146
 70
     0
 43
0.0
 10
46.09997599999984
 20
260.400471
 10
46.10145760963574
 20
258.7657885135818
 10
46.10682013994156
 20
257.1312010768933
 10
46.11744014301462
 20
255.4968037396639
 10
46.13469417095204
 20
253.8626915516233
 10
46.15995877585111
 20
252.2289595625012
 10
46.19461050980913
 20
250.595702822027
 10
46.24002592492326
 20
248.9630163799305
 10
46.29758157329074
 20
247.3309952859412
 10
46.36865400700883
 20
245.6997345897886
 10
46.45461977817478
 20
244.0693293412025
 10
46.55685543888575
 20
242.4398745899125
 10
46.67673754123904
 20
240.8114653856479
 10
46.81552857860245
 20
239.1842054067518
 10
46.97348999233711
 20
237.5582740617666
 10
47.15036424101156
 20
235.9338900206028
 10
47.34588938707751
 20
234.3112722857397
 10
47.5598034929867
 20
232.6906398596565
 10
47.79184462119069
 20
231.0722117448325
 10
48.04175083414127
 20
229.4562069437469
 10
48.30926019429
 20
227.8428444588792
 10
48.59411076408867
 20
226.2323432927083
 10
48.8960406059889
 20
224.6249224477138
 10
49.21478778244238
 20
223.0208009263748
 10
49.55009035590074
 20
221.4201977311706
 10
49.90168187150121
 20
219.823328930174
 10
50.2690729073369
 20
218.2302657540883
 10
50.65145356877684
 20
216.6408712574418
 10
51.04798913463461
 20
215.054992367658
 10
51.4578448837239
 20
213.4724760121601
 10
51.8801860948583
 20
211.8931691183714
 10
52.3141780468515
 20
210.3169186137153
 10
52.75898601851711
 20
208.7435714256149
 10
53.21377528866883
 20
207.1729744814938
 10
53.67771113612024
 20
205.604974708775
 10
54.14995883968502
 20
204.039419034882
 10
54.62968367817675
 20
202.4761543872379
 10
55.11605093040918
 20
200.9150276932663
 10
55.608259250314
 20
199.3558903359528
 10
56.10589046864708
 20
197.7986448522098
 10
56.6087713625485
 20
196.2432264791766
 10
57.11673269105618
 20
194.6895709855743
 10
57.62960521320819
 20
193.137614140124
 10
58.14721968804235
 20
191.5872917115466
 10
58.66940687459673
 20
190.0385394685631
 10
59.19599753190925
 20
188.4912931798945
 10
59.7268224190178
 20
186.945488614262
 10
60.26171229496046
 20
185.4010615403864
 10
60.80049791877512
 20
183.8579477269888
 10
61.34301004949968
 20
182.3160829427902
 10
61.88907944617227
 20
180.7754029565117
 10
62.4385758834815
 20
179.2358606741829
 10
62.99170141510825
 20
177.6975549526918
 10
63.54882613661043
 20
176.1606584599605
 10
64.11032144393202
 20
174.6253444350953
 10
64.67655873301707
 20
173.0917861172023
 10
65.24790939980954
 20
171.5601567453878
 10
65.82474484025346
 20
170.030629558758
 10
66.40743645029282
 20
168.5033777964195
 10
66.99635562587161
 20
166.978574697478
 10
67.5918737629339
 20
165.4563935010403
 10
68.19436225742366
 20
163.9370074462122
 10
68.8041925052849
 20
162.4205897721002
 10
69.42173590246158
 20
160.9073137178104
 10
70.04729200652559
 20
159.397323593742
 10
70.68031891135818
 20
157.8904248599577
 10
71.31972880406602
 20
156.3862031444624
 10
71.96443043792315
 20
154.8842425229671
 10
72.61365567677636
 20
153.3842477439939
 10
73.26712334497847
 20
151.8861054222687
 10
73.92459257682116
 20
150.3897172271597
 10
74.58587495173152
 20
148.8950084987356
 10
75.25098735312706
 20
147.4019972394114
 10
75.91999689506559
 20
145.9107241228075
 10
76.5929677526377
 20
144.4212290831972
 10
77.26992878215878
 20
142.9335431698151
 10
77.9508854937859
 20
141.4476915587723
 10
78.63584692160587
 20
139.9637009703187
 10
79.32514099587115
 20
138.4817315899423
 10
80.01964435546375
 20
137.002173250069
 10
80.72028782835657
 20
135.5254384624819
 10
81.42766450227947
 20
134.0518102822456
 10
82.85745374204223
 20
131.1121173717804
 10
82.85745374204223
 20
131.1121173717804
 10
82.85745374204223
 20
131.1121173717804
 10
82.85745374204223
 20
131.1121173717804
 10
82.85745374204223
 20
131.1121173717804
 42
-0.0975664693006195
 10
86.79997599999984
 20
111.4987781655874
 10
86.79997599999984
 20
78.3438425512574
 10
86.79997599999984
 20
77.3155283268861
 10
86.79997599999984
 20
76.28721410251481
 10
86.79997599999984
 20
75.25889987814348
 10
86.79997599999984
 20
74.23058565377219
 10
86.79997599999984
 20
73.20227142940092
 10
86.79997599999984
 20
72.17395720502962
 10
86.79997599999984
 20
71.14564298065833
 10
86.79997599999984
 20
70.11732875628706
 10
86.79997599999984
 20
69.08901453191575
 10
86.79997599999984
 20
68.06070030754447
 10
86.79997599999984
 20
67.03238608317315
 10
86.79997599999984
 20
66.00407185880186
 10
86.79997599999984
 20
64.97575763443058
 10
86.79997599999984
 20
63.94744341005929
 10
86.79997599999984
 20
62.91912918568801
 10
86.79997599999984
 20
61.89081496131669
 10
86.79997599999984
 20
60.86250073694539
 10
86.79997599999984
 20
59.83418651257409
 10
86.79997599999984
 20
58.80587228820282
 10
86.79997599999984
 20
57.77755806383152
 10
86.79997599999984
 20
56.74924383946024
 10
86.79997599999984
 20
55.72092961508892
 10
86.79997599999984
 20
54.69261539071762
 10
86.79997599999984
 20
53.66430116634631
 10
86.79997599999984
 20
52.63598694197503
 10
86.79997599999984
 20
51.60767271760374
 10
86.79997599999984
 20
50.57935849323246
 10
86.79997599999984
 20
49.55104426886117
 10
86.79997599999984
 20
48.52273004448986
 10
86.79997599999984
 20
47.49441582011857
 10
86.79997599999984
 20
46.46610159574726
 10
86.79997599999984
 20
45.43778737137595
 10
86.79997599999984
 20
44.40947314700468
 10
86.79997599999984
 20
43.38115892263338
 10
86.79997599999984
 20
42.3528446982621
 10
86.79997599999984
 20
41.32453047389083
 10
86.79997599999984
 20
40.29621624951949
 10
86.79997599999984
 20
39.26790202514821
 10
86.79997599999984
 20
38.23958780077692
 10
86.79997599999989
 20
37.21127357640564
 10
86.79997599999989
 20
36.18295935203434
 10
86.79997599999989
 20
35.15464512766306
 10
86.79997599999989
 20
34.12633090329177
 10
86.79997599999989
 20
33.09801667892043
 10
86.79997599999989
 20
32.06970245454915
 10
86.79997599999989
 20
31.04138823017786
 10
86.79997599999989
 20
30.01307400580657
 10
86.79997599999989
 20
28.98475978143529
 10
86.79997599999989
 20
28.86630785475768
 10
86.82875950773775
 20
28.2300168258958
 10
87.67757328467661
 20
23.89321135897683
 10
91.24112516534143
 20
19.55425657691899
 10
96.18727086325492
 20
16.66221688879562
 10
101.9095865182831
 20
14.83293419904163
 10
108.637631646782
 20
13.80071201320493
 10
116.6010235799012
 20
13.29986349664654
 10
126.0293796487907
 20
13.06470181472718
  0
LWPOLYLINE
  5
618
330
1F
100
AcDbEntity
  8
0
100
AcDbPolyline
 90
      140
 70
     0
 43
0.0
 10
46.09997599999984
 20
260.400471
 10
46.10145760963574
 20
258.7657885135818
 10
46.10682013994156
 20
257.1312010768933
 10
46.11744014301462
 20
255.4968037396639
 10
46.13469417095204
 20
253.8626915516233
 10
46.15995877585111
 20
252.2289595625012
 10
46.19461050980913
 20
250.595702822027
 10
46.24002592492326
 20
248.9630163799305
 10
46.29758157329074
 20
247.3309952859412
 10
46.36865400700883
 20
245.6997345897886
 10
46.45461977817478
 20
244.0693293412025
 10
46.55685543888575
 20
242.4398745899125
 10
46.67673754123904
 20
240.8114653856479
 10
46.81552857860245
 20
239.1842054067518
 10
46.97348999233711
 20
237.5582740617666
 10
47.15036424101156
 20
235.9338900206028
 10
47.34588938707751
 20
234.3112722857397
 10
47.5598034929867
 20
232.6906398596565
 10
47.79184462119069
 20
231.0722117448325
 10
48.04175083414127
 20
229.4562069437469
 10
48.30926019429
 20
227.8428444588792
 10
48.59411076408867
 20
226.2323432927083
 10
48.8960406059889
 20
224.6249224477138
 10
49.21478778244238
 20
223.0208009263748
 10
49.55009035590074
 20
221.4201977311706
 10
49.90168187150121
 20
219.823328930174
 10
50.2690729073369
 20
218.2302657540883
 10
50.65145356877684
 20
216.6408712574418
 10
51.04798913463461
 20
215.054992367658
 10
51.4578448837239
 20
213.4724760121601
 10
51.8801860948583
 20
211.8931691183714
 10
52.3141780468515
 20
210.3169186137153
 10
52.75898601851711
 20
208.7435714256149
 10
53.21377528866883
 20
207.1729744814938
 10
53.67771113612024
 20
205.604974708775
 10
54.14995883968502
 20
204.039419034882
 10
54.62968367817675
 20
202.4761543872379
 10
55.11605093040918
 20
200.9150276932663
 10
55.608259250314
 20
199.3558903359528
 10
56.10589046864708
 20
197.7986448522098
 10
56.6087713625485
 20
196.2432264791766
 10
57.11673269105618
 20
194.6895709855743
 10
57.62960521320819
 20
193.137614140124
 10
58.14721968804235
 20
191.5872917115466
 10
58.66940687459673
 20
190.0385394685631
 10
59.19599753190925
 20
188.4912931798945
 10
59.7268224190178
 20
186.945488614262
 10
60.26171229496046
 20
185.4010615403864
 10
60.80049791877512
 20
183.8579477269888
 10
61.34301004949968
 20
182.3160829427902
 10
61.88907944617227
 20
180.7754029565117
 10
62.4385758834815
 20
179.2358606741829
 10
62.99170141510825
 20
177.6975549526918
 10
63.54882613661043
 20
176.1606584599605
 10
64.11032144393202
 20
174.6253444350953
 10
64.67655873301707
 20
173.0917861172023
 10
65.24790939980954
 20
171.5601567453878
 10
65.82474484025346
 20
170.030629558758
 10
66.40743645029282
 20
168.5033777964195
 10
66.99635562587161
 20
166.978574697478
 10
67.5918737629339
 20
165.4563935010403
 10
68.19436225742366
 20
163.9370074462122
 10
68.8041925052849
 20
162.4205897721002
 10
69.42173590246158
 20
160.9073137178104
 10
70.04729200652559
 20
159.397323593742
 10
70.68031891135818
 20
157.8904248599577
 10
71.31972880406602
 20
156.3862031444624
 10
71.96443043792315
 20
154.8842425229671
 10
72.61365567677636
 20
153.3842477439939
 10
73.26712334497847
 20
151.8861054222687
 10
73.92459257682116
 20
150.3897172271597
 10
74.58587495173152
 20
148.8950084987356
 10
75.25098735312706
 20
147.4019972394114
 10
75.91999689506559
 20
145.9107241228075
 10
76.5929677526377
 20
144.4212290831972
 10
77.26992878215878
 20
142.9335431698151
 10
77.9508854937859
 20
141.4476915587723
 10
78.63584692160587
 20
139.9637009703187
 10
79.32514099587115
 20
138.4817315899423
 10
80.01964435546375
 20
137.002173250069
 10
80.01964435546375
 20
137.002173250069
 10
80.01964435546375
 20
137.002173250069
 42
-0.110358360500194
 10
84.79997599999984
 20
115.6474621682759
 10
84.79997599999984
 20
77.3155283268861
 10
84.79997599999984
 20
76.28721410251481
 10
84.79997599999984
 20
75.25889987814348
 10
84.79997599999984
 20
74.23058565377219
 10
84.79997599999984
 20
73.20227142940092
 10
84.79997599999984
 20
72.17395720502962
 10
84.79997599999984
 20
71.14564298065833
 10
84.79997599999984
 20
70.11732875628706
 10
84.79997599999984
 20
69.08901453191575
 10
84.79997599999984
 20
68.06070030754447
 10
84.79997599999984
 20
67.03238608317315
 10
84.79997599999984
 20
66.00407185880186
 10
84.79997599999984
 20
64.97575763443058
 10
84.79997599999984
 20
63.94744341005929
 10
84.79997599999984
 20
62.91912918568801
 10
84.79997599999984
 20
61.89081496131669
 10
84.79997599999984
 20
60.86250073694539
 10
84.79997599999984
 20
59.83418651257409
 10
84.79997599999984
 20
58.80587228820282
 10
84.79997599999984
 20
57.77755806383152
 10
84.79997599999986
 20
56.74924383946024
 10
84.79997599999986
 20
55.72092961508892
 10
84.79997599999986
 20
54.69261539071762
 10
84.79997599999986
 20
53.66430116634631
 10
84.79997599999986
 20
52.63598694197503
 10
84.79997599999986
 20
51.60767271760374
 10
84.79997599999986
 20
50.57935849323246
 10
84.79997599999986
 20
49.55104426886117
 10
84.79997599999986
 20
48.52273004448986
 10
84.79997599999986
 20
47.49441582011857
 10
84.79997599999986
 20
46.46610159574726
 10
84.79997599999986
 20
45.43778737137595
 10
84.79997599999986
 20
44.40947314700468
 10
84.79997599999986
 20
43.38115892263338
 10
84.79997599999986
 20
42.3528446982621
 10
84.79997599999986
 20
41.32453047389083
 10
84.79997599999986
 20
40.29621624951949
 10
84.79997599999986
 20
39.26790202514821
 10
84.79997599999986
 20
38.23958780077692
 10
84.79997599999988
 20
37.21127357640564
 10
84.79997599999988
 20
36.18295935203434
 10
84.79997599999988
 20
35.15464512766306
 10
84.79997599999988
 20
34.12633090329177
 10
84.79997599999988
 20
33.09801667892043
 10
84.79997599999988
 20
32.06970245454915
 10
84.79997599999988
 20
31.04138823017786
 10
84.79997599999988
 20
30.01307400580657
 10
84.79997599999988
 20
28.98475978143529
 10
84.79997599999988
 20
28.86630785475768
 10
84.82875950773777
 20
28.2300168258958
 10
85.67757328467662
 20
23.89321135897683
 10
89.24112516534142
 20
19.55425657691899
 10
94.20168566603043
 20
16.66221688879562
 10
100.0327274298881
 20
14.83293419904163
 10
107.0622907666888
 20
13.80071201320493
 10
115.6184750488502
 20
13.29986349664654
 10
126.0293796487907
 20
13.06470181472718
  0
LWPOLYLINE
  5
619
330
1F
100
AcDbEntity
  8
0
100
AcDbPolyline
 90
      136
 70
     0
 43
0.0
 10
46.09997599999984
 20
260.4004709999999
 10
46.10145760963574
 20
258.7657885135818
 10
46.10682013994156
 20
257.1312010768932
 10
46.11744014301462
 20
255.4968037396638
 10
46.13469417095204
 20
253.8626915516233
 10
46.15995877585111
 20
252.2289595625011
 10
46.19461050980913
 20
250.595702822027
 10
46.24002592492326
 20
248.9630163799304
 10
46.29758157329074
 20
247.3309952859411
 10
46.36865400700883
 20
245.6997345897886
 10
46.45461977817478
 20
244.0693293412024
 10
46.55685543888575
 20
242.4398745899124
 10
46.67673754123904
 20
240.8114653856479
 10
46.81552857860245
 20
239.1842054067517
 10
46.97348999233711
 20
237.5582740617665
 10
47.15036424101156
 20
235.9338900206028
 10
47.34588938707751
 20
234.3112722857397
 10
47.5598034929867
 20
232.6906398596565
 10
47.79184462119069
 20
231.0722117448325
 10
48.04175083414127
 20
229.4562069437469
 10
48.30926019429
 20
227.8428444588791
 10
48.59411076408867
 20
226.2323432927083
 10
48.8960406059889
 20
224.6249224477138
 10
49.21478778244238
 20
223.0208009263748
 10
49.55009035590074
 20
221.4201977311706
 10
49.90168187150121
 20
219.823328930174
 10
50.2690729073369
 20
218.2302657540882
 10
50.65145356877684
 20
216.6408712574416
 10
51.04798913463461
 20
215.0549923676579
 10
51.4578448837239
 20
213.47247601216
 10
51.8801860948583
 20
211.8931691183714
 10
52.3141780468515
 20
210.3169186137152
 10
52.75898601851711
 20
208.7435714256149
 10
53.21377528866883
 20
207.1729744814937
 10
53.67771113612024
 20
205.604974708775
 10
54.14995883968502
 20
204.0394190348819
 10
54.62968367817675
 20
202.4761543872379
 10
55.11605093040918
 20
200.9150276932663
 10
55.608259250314
 20
199.3558903359528
 10
56.10589046864708
 20
197.7986448522097
 10
56.6087713625485
 20
196.2432264791766
 10
57.11673269105618
 20
194.6895709855743
 10
57.62960521320819
 20
193.1376141401239
 10
58.14721968804235
 20
191.5872917115465
 10
58.66940687459673
 20
190.038539468563
 10
59.19599753190925
 20
188.4912931798945
 10
59.7268224190178
 20
186.9454886142619
 10
60.26171229496046
 20
185.4010615403864
 10
60.80049791877512
 20
183.8579477269886
 10
61.34301004949968
 20
182.3160829427902
 10
61.88907944617227
 20
180.7754029565116
 10
62.4385758834815
 20
179.2358606741829
 10
62.99170141510825
 20
177.6975549526918
 10
63.54882613661043
 20
176.1606584599605
 10
64.11032144393202
 20
174.6253444350952
 10
64.67655873301707
 20
173.0917861172022
 10
65.24790939980954
 20
171.5601567453878
 10
65.82474484025346
 20
170.030629558758
 10
66.40743645029282
 20
168.5033777964195
 10
66.99635562587161
 20
166.978574697478
 10
67.5918737629339
 20
165.4563935010402
 10
68.19436225742366
 20
163.9370074462122
 10
68.8041925052849
 20
162.4205897721
 10
69.42173590246158
 20
160.9073137178103
 10
70.04729200652559
 20
159.397323593742
 10
70.68031891135818
 20
157.8904248599577
 10
71.31972880406602
 20
156.3862031444623
 10
71.96443043792315
 20
154.884242522967
 10
72.61365567677636
 20
153.3842477439939
 10
73.26712334497847
 20
151.8861054222687
 10
73.92459257682116
 20
150.3897172271596
 10
74.58587495173152
 20
148.8950084987355
 10
75.25098735312706
 20
147.4019972394113
 10
75.91999689506559
 20
145.9107241228075
 10
76.5929677526377
 20
144.4212290831972
 10
77.26992878215878
 20
142.933543169815
 10
77.9508854937859
 20
141.4476915587723
 10
77.99744825949407
 20
141.3468118547819
 42
-0.1085310150505678
 10
82.59997599999984
 20
120.3928262566087
 10
82.59997599999984
 20
77.31552832688604
 10
82.59997599999984
 20
76.28721410251475
 10
82.59997599999984
 20
75.25889987814344
 10
82.59997599999984
 20
74.23058565377215
 10
82.59997599999984
 20
73.20227142940087
 10
82.59997599999984
 20
72.17395720502956
 10
82.59997599999984
 20
71.14564298065829
 10
82.59997599999984
 20
70.11732875628701
 10
82.59997599999984
 20
69.08901453191568
 10
82.59997599999984
 20
68.0607003075444
 10
82.59997599999984
 20
67.0323860831731
 10
82.59997599999984
 20
66.00407185880181
 10
82.59997599999984
 20
64.97575763443052
 10
82.59997599999984
 20
63.94744341005925
 10
82.59997599999984
 20
62.91912918568795
 10
82.59997599999984
 20
61.89081496131663
 10
82.59997599999984
 20
60.86250073694535
 10
82.59997599999984
 20
59.83418651257403
 10
82.59997599999984
 20
58.80587228820274
 10
82.59997599999984
 20
57.77755806383146
 10
82.59997599999987
 20
56.74924383946017
 10
82.59997599999987
 20
55.72092961508886
 10
82.59997599999987
 20
54.69261539071759
 10
82.59997599999987
 20
53.66430116634625
 10
82.59997599999987
 20
52.63598694197496
 10
82.59997599999987
 20
51.60767271760368
 10
82.59997599999987
 20
50.5793584932324
 10
82.59997599999987
 20
49.55104426886111
 10
82.59997599999987
 20
48.52273004448981
 10
82.59997599999987
 20
47.49441582011852
 10
82.59997599999987
 20
46.4661015957472
 10
82.59997599999987
 20
45.43778737137592
 10
82.59997599999987
 20
44.40947314700463
 10
82.59997599999987
 20
43.38115892263334
 10
82.59997599999987
 20
42.35284469826206
 10
82.59997599999987
 20
41.32453047389072
 10
82.59997599999987
 20
40.29621624951943
 10
82.59997599999987
 20
39.26790202514815
 10
82.59997599999987
 20
38.23958780077686
 10
82.59997599999989
 20
37.21127357640558
 10
82.59997599999989
 20
36.18295935203429
 10
82.59997599999989
 20
35.154645127663
 10
82.59997599999989
 20
34.12633090329166
 10
82.59997599999989
 20
33.09801667892037
 10
82.59997599999989
 20
32.06970245454909
 10
82.59997599999989
 20
31.0413882301778
 10
82.59997599999989
 20
30.01307400580652
 10
82.59997599999989
 20
28.98475978143523
 10
82.59997599999989
 20
28.86630785475762
 10
82.62875950773775
 20
28.23001682589575
 10
83.47757328467659
 20
23.89321135897677
 10
87.04112516534143
 20
19.55425657691893
 10
92.01754194908355
 20
16.66221688879557
 10
97.96818243265363
 20
14.83293419904157
 10
105.3294157985863
 20
13.80071201320487
 10
114.5376716646943
 20
13.29986349664648
 10
126.0293796487907
 20
13.06470181472713
  0
LWPOLYLINE
  5
61A
330
1F
100
AcDbEntity
  8
0
100
AcDbPolyline
 90
      133
 70
     0
 43
0.0
 10
46.09997599999984
 20
260.400471
 10
46.10145760963574
 20
258.7657885135818
 10
46.10682013994156
 20
257.1312010768933
 10
46.11744014301462
 20
255.4968037396639
 10
46.13469417095204
 20
253.8626915516233
 10
46.15995877585111
 20
252.2289595625012
 10
46.19461050980913
 20
250.595702822027
 10
46.24002592492326
 20
248.9630163799305
 10
46.29758157329074
 20
247.3309952859412
 10
46.36865400700883
 20
245.6997345897886
 10
46.45461977817478
 20
244.0693293412025
 10
46.55685543888575
 20
242.4398745899125
 10
46.67673754123904
 20
240.8114653856479
 10
46.81552857860245
 20
239.1842054067518
 10
46.97348999233711
 20
237.5582740617666
 10
47.15036424101156
 20
235.9338900206028
 10
47.34588938707751
 20
234.3112722857397
 10
47.5598034929867
 20
232.6906398596565
 10
47.79184462119069
 20
231.0722117448325
 10
48.04175083414127
 20
229.4562069437469
 10
48.30926019429
 20
227.8428444588792
 10
48.59411076408867
 20
226.2323432927083
 10
48.8960406059889
 20
224.6249224477138
 10
49.21478778244238
 20
223.0208009263748
 10
49.55009035590074
 20
221.4201977311706
 10
49.90168187150121
 20
219.823328930174
 10
50.2690729073369
 20
218.2302657540883
 10
50.65145356877684
 20
216.6408712574418
 10
51.04798913463461
 20
215.054992367658
 10
51.4578448837239
 20
213.4724760121601
 10
51.8801860948583
 20
211.8931691183714
 10
52.3141780468515
 20
210.3169186137153
 10
52.75898601851711
 20
208.7435714256149
 10
53.21377528866883
 20
207.1729744814938
 10
53.67771113612024
 20
205.604974708775
 10
54.14995883968502
 20
204.039419034882
 10
54.62968367817675
 20
202.4761543872379
 10
55.11605093040918
 20
200.9150276932663
 10
55.608259250314
 20
199.3558903359528
 10
56.10589046864708
 20
197.7986448522098
 10
56.6087713625485
 20
196.2432264791766
 10
57.11673269105618
 20
194.6895709855743
 10
57.62960521320819
 20
193.137614140124
 10
58.14721968804235
 20
191.5872917115466
 10
58.66940687459673
 20
190.0385394685631
 10
59.19599753190925
 20
188.4912931798945
 10
59.7268224190178
 20
186.945488614262
 10
60.26171229496046
 20
185.4010615403864
 10
60.80049791877512
 20
183.8579477269888
 10
61.34301004949968
 20
182.3160829427902
 10
61.88907944617227
 20
180.7754029565117
 10
62.4385758834815
 20
179.2358606741829
 10
62.99170141510825
 20
177.6975549526918
 10
63.54882613661043
 20
176.1606584599605
 10
64.11032144393202
 20
174.6253444350953
 10
64.67655873301707
 20
173.0917861172023
 10
65.24790939980954
 20
171.5601567453878
 10
65.82474484025346
 20
170.030629558758
 10
66.40743645029282
 20
168.5033777964195
 10
66.99635562587161
 20
166.978574697478
 10
67.5918737629339
 20
165.4563935010403
 10
68.19436225742366
 20
163.9370074462122
 10
68.8041925052849
 20
162.4205897721002
 10
69.42173590246158
 20
160.9073137178104
 10
70.04729200652559
 20
159.397323593742
 10
70.68031891135818
 20
157.8904248599577
 10
71.31972880406602
 20
156.3862031444624
 10
71.96443043792315
 20
154.8842425229671
 10
72.61365567677636
 20
153.3842477439939
 10
73.26712334497847
 20
151.8861054222687
 10
73.92459257682116
 20
150.3897172271597
 10
74.58587495173152
 20
148.8950084987356
 10
75.25098735312706
 20
147.4019972394114
 10
75.7196419999037
 20
146.3573304119632
 42
-0.1058180084991432
 10
80.09997599999984
 20
125.8916011540741
 10
80.09997599999984
 20
78.3438425512574
 10
80.09997599999984
 20
77.3155283268861
 10
80.09997599999984
 20
76.28721410251481
 10
80.09997599999984
 20
75.25889987814348
 10
80.09997599999984
 20
74.23058565377219
 10
80.09997599999984
 20
73.20227142940092
 10
80.09997599999984
 20
72.17395720502962
 10
80.09997599999984
 20
71.14564298065833
 10
80.09997599999984
 20
70.11732875628706
 10
80.09997599999984
 20
69.08901453191575
 10
80.09997599999984
 20
68.06070030754447
 10
80.09997599999984
 20
67.03238608317315
 10
80.09997599999984
 20
66.00407185880186
 10
80.09997599999984
 20
64.97575763443058
 10
80.09997599999984
 20
63.94744341005929
 10
80.09997599999984
 20
62.91912918568801
 10
80.09997599999984
 20
61.89081496131669
 10
80.09997599999984
 20
60.86250073694539
 10
80.09997599999984
 20
59.83418651257409
 10
80.09997599999984
 20
58.80587228820282
 10
80.09997599999984
 20
57.77755806383152
 10
80.09997599999987
 20
56.74924383946024
 10
80.09997599999987
 20
55.72092961508892
 10
80.09997599999987
 20
54.69261539071762
 10
80.09997599999987
 20
53.66430116634631
 10
80.09997599999987
 20
52.63598694197503
 10
80.09997599999987
 20
51.60767271760374
 10
80.09997599999987
 20
50.57935849323246
 10
80.09997599999987
 20
49.55104426886117
 10
80.09997599999987
 20
48.52273004448986
 10
80.09997599999987
 20
47.49441582011857
 10
80.09997599999987
 20
46.46610159574726
 10
80.09997599999987
 20
45.43778737137595
 10
80.09997599999987
 20
44.40947314700468
 10
80.09997599999987
 20
43.38115892263338
 10
80.09997599999987
 20
42.3528446982621
 10
80.09997599999987
 20
41.32453047389083
 10
80.09997599999987
 20
40.29621624951949
 10
80.09997599999987
 20
39.26790202514821
 10
80.09997599999987
 20
38.23958780077692
 10
80.09997599999989
 20
37.21127357640564
 10
80.09997599999989
 20
36.18295935203434
 10
80.09997599999989
 20
35.15464512766306
 10
80.09997599999989
 20
34.12633090329177
 10
80.09997599999989
 20
33.09801667892043
 10
80.09997599999989
 20
32.06970245454915
 10
80.09997599999989
 20
31.04138823017786
 10
80.09997599999989
 20
30.01307400580657
 10
80.09997599999989
 20
28.98475978143529
 10
80.09997599999989
 20
28.86630785475768
 10
80.12875950773775
 20
28.2300168258958
 10
80.97757328467659
 20
23.89321135897683
 10
84.54112516534143
 20
19.55425657691899
 10
89.53556045255297
 20
16.66221688879562
 10
95.6221085721599
 20
14.83293419904163
 10
103.3602396984698
 20
13.80071201320493
 10
113.3094860008807
 20
13.29986349664654
 10
126.0293796487907
 20
13.06470181472718
  0
LWPOLYLINE
  5
61B
330
1F
100
AcDbEntity
  8
0
100
AcDbPolyline
 90
      122
 70
     0
 43
0.0
 10
46.09997599999984
 20
260.400471
 10
46.10145760963574
 20
258.7657885135818
 10
46.10682013994156
 20
257.1312010768933
 10
46.11744014301462
 20
255.4968037396639
 10
46.13469417095204
 20
253.8626915516233
 10
46.15995877585111
 20
252.2289595625012
 10
46.19461050980913
 20
250.595702822027
 10
46.24002592492326
 20
248.9630163799305
 10
46.29758157329074
 20
247.3309952859412
 10
46.36865400700883
 20
245.6997345897886
 10
46.45461977817478
 20
244.0693293412025
 10
46.55685543888575
 20
242.4398745899125
 10
46.67673754123904
 20
240.8114653856479
 10
46.81552857860245
 20
239.1842054067518
 10
46.97348999233711
 20
237.5582740617666
 10
47.15036424101156
 20
235.9338900206028
 10
47.34588938707751
 20
234.3112722857397
 10
47.5598034929867
 20
232.6906398596565
 10
47.79184462119069
 20
231.0722117448325
 10
48.04175083414127
 20
229.4562069437469
 10
48.30926019429
 20
227.8428444588792
 10
48.59411076408867
 20
226.2323432927083
 10
48.8960406059889
 20
224.6249224477138
 10
49.21478778244238
 20
223.0208009263748
 10
49.55009035590074
 20
221.4201977311706
 10
49.90168187150121
 20
219.823328930174
 10
50.2690729073369
 20
218.2302657540883
 10
50.65145356877684
 20
216.6408712574418
 10
51.04798913463461
 20
215.054992367658
 10
51.4578448837239
 20
213.4724760121601
 10
51.8801860948583
 20
211.8931691183714
 10
52.3141780468515
 20
210.3169186137153
 10
52.75898601851711
 20
208.7435714256149
 10
53.21377528866883
 20
207.1729744814938
 10
53.67771113612024
 20
205.604974708775
 10
54.14995883968502
 20
204.039419034882
 10
54.62968367817675
 20
202.4761543872379
 10
55.11605093040918
 20
200.9150276932663
 10
55.608259250314
 20
199.3558903359528
 10
56.10589046864708
 20
197.7986448522098
 10
56.6087713625485
 20
196.2432264791766
 10
57.11673269105618
 20
194.6895709855743
 10
57.62960521320819
 20
193.137614140124
 10
58.14721968804235
 20
191.5872917115466
 10
58.66940687459673
 20
190.0385394685631
 10
59.19599753190925
 20
188.4912931798945
 10
59.7268224190178
 20
186.945488614262
 10
60.26171229496046
 20
185.4010615403864
 10
60.80049791877512
 20
183.8579477269888
 10
61.34301004949968
 20
182.3160829427902
 10
61.88907944617227
 20
180.7754029565117
 10
62.4385758834815
 20
179.2358606741829
 10
62.99170141510825
 20
177.6975549526918
 10
63.54882613661043
 20
176.1606584599605
 10
64.11032144393202
 20
174.6253444350953
 10
64.67655873301707
 20
173.0917861172023
 10
65.24790939980954
 20
171.5601567453878
 10
65.82474484025346
 20
170.030629558758
 10
66.40743645029282
 20
168.5033777964195
 10
66.99635562587161
 20
166.978574697478
 10
67.5918737629339
 20
165.4563935010403
 10
68.19436225742366
 20
163.9370074462122
 10
68.8041925052849
 20
162.4205897721002
 10
69.42173590246158
 20
160.9073137178104
 10
70.04729200652559
 20
159.397323593742
 10
70.68031891135818
 20
157.8904248599577
 10
71.31972880406602
 20
156.3862031444624
 10
71.96443043792315
 20
154.8842425229671
 10
73.08637437309879
 20
152.2920604198239
 42
-0.1024749986749986
 10
77.19997599999985
 20
132.4315859958516
 10
77.19997599999985
 20
72.17395720502962
 10
77.19997599999985
 20
71.14564298065833
 10
77.19997599999985
 20
70.11732875628706
 10
77.19997599999985
 20
69.08901453191575
 10
77.19997599999985
 20
68.06070030754447
 10
77.19997599999985
 20
67.03238608317315
 10
77.19997599999985
 20
66.00407185880186
 10
77.19997599999985
 20
64.97575763443058
 10
77.19997599999985
 20
63.94744341005929
 10
77.19997599999985
 20
62.91912918568801
 10
77.19997599999985
 20
61.89081496131669
 10
77.19997599999985
 20
60.86250073694539
 10
77.19997599999985
 20
59.83418651257409
 10
77.19997599999985
 20
58.80587228820282
 10
77.19997599999985
 20
57.77755806383152
 10
77.19997599999985
 20
56.74924383946024
 10
77.19997599999985
 20
55.72092961508892
 10
77.19997599999985
 20
54.69261539071762
 10
77.19997599999985
 20
53.66430116634631
 10
77.19997599999985
 20
52.63598694197503
 10
77.19997599999985
 20
51.60767271760374
 10
77.19997599999985
 20
50.57935849323246
 10
77.19997599999985
 20
49.55104426886117
 10
77.19997599999985
 20
48.52273004448986
 10
77.19997599999985
 20
47.49441582011857
 10
77.19997599999985
 20
46.46610159574726
 10
77.19997599999985
 20
45.43778737137595
 10
77.19997599999985
 20
44.40947314700468
 10
77.19997599999985
 20
43.38115892263338
 10
77.19997599999985
 20
42.3528446982621
 10
77.19997599999985
 20
41.32453047389083
 10
77.19997599999985
 20
40.29621624951949
 10
77.19997599999985
 20
39.26790202514821
 10
77.19997599999985
 20
38.23958780077692
 10
77.19997599999988
 20
37.21127357640564
 10
77.19997599999988
 20
36.18295935203434
 10
77.19997599999988
 20
35.15464512766306
 10
77.19997599999988
 20
34.12633090329177
 10
77.19997599999988
 20
33.09801667892043
 10
77.19997599999988
 20
32.06970245454915
 10
77.19997599999988
 20
31.04138823017786
 10
77.19997599999988
 20
30.01307400580657
 10
77.19997599999988
 20
28.98475978143529
 10
77.19997599999988
 20
28.86630785475768
 10
77.22875950773776
 20
28.2300168258958
 10
78.07757328467658
 20
23.89321135897683
 10
81.64112516534141
 20
19.55425657691899
 10
86.65646191657751
 20
16.66221688879562
 10
92.90066289398714
 20
14.83293419904163
 10
101.0759954223346
 20
13.80071201320493
 10
111.8847906308569
 20
13.29986349664654
 10
126.0293796487907
 20
13.06470181472718
  0
VIEWPORT
  5
71
102
{ACAD_XDICTIONARY
360
7D9
102
}
330
55
100
AcDbEntity
 67
     1
  8
0
100
AcDbViewport
 10
133.3499908447265
 20
101.5999970436096
 30
0.0
 40
381.3957395593833
 41
218.2856291881582
 68
     1
 69
     1
 12
133.3499908447265
 22
101.5999970436096
 13
0.0
 23
0.0
 14
10.0
 24
10.0
 15
10.0
 25
10.0
 16
0.0
 26
0.0
 36
1.0
 17
0.0
 27
0.0
 37
0.0
 42
50.0
 43
0.0
 44
0.0
 45
218.2856291881582
 50
0.0
 51
0.0
 72
   100
 90
    32800
  1

281
     0
 71
     1
 74
     0
110
0.0
120
0.0
130
0.0
111
1.0
121
0.0
131
0.0
112
0.0
122
1.0
132
0.0
 79
     0
146
0.0
  0
VIEWPORT
  5
73
102
{ACAD_XDICTIONARY
360
7DB
102
}
330
55
100
AcDbEntity
 67
     1
  8
0
100
AcDbViewport
 10
133.3499939441677
 20
101.5999939441678
 30
0.0
 40
213.3599903106689
 41
162.5599903106689
 68
     2
 69
     2
 12
210.0
 22
148.5
 13
0.0
 23
0.0
 14
10.0
 24
10.0
 15
10.0
 25
10.0
 16
0.0
 26
0.0
 36
1.0
 17
0.0
 27
0.0
 37
0.0
 42
50.0
 43
0.0
 44
0.0
 45
324.0677920111345
 50
0.0
 51
0.0
 72
   100
 90
    32864
  1

281
     0
 71
     1
 74
     0
110
0.0
120
0.0
130
0.0
111
1.0
121
0.0
131
0.0
112
0.0
122
1.0
132
0.0
 79
     0
146
0.0
  0
ENDSEC
  0
SECTION
  2
OBJECTS
  0
DICTIONARY
  5
C
330
0
100
AcDbDictionary
281
     1
  3
ACAD_COLOR
350
1CC
  3
ACAD_GROUP
350
D
  3
ACAD_LAYOUT
350
1A
  3
ACAD_MATERIAL
350
1CB
  3
ACAD_MLEADERSTYLE
350
600
  3
ACAD_MLINESTYLE
350
17
  3
ACAD_PLOTSETTINGS
350
19
  3
ACAD_PLOTSTYLENAME
350
E
  3
ACAD_SCALELIST
350
5EE
  3
ACAD_TABLESTYLE
350
1CD
  3
ACAD_VISUALSTYLE
350
5DA
  3
ACDB_RECOMPOSE_DATA
350
7CD
  3
AcDbVariableDictionary
350
5E
  3
DWGPROPS
350
7CE
  0
DICTIONARY
  5
623
330
10
100
AcDbDictionary
280
     1
281
     1
  3
ADSK_XREC_LAYER_RECONCILED
360
624
  0
DICTIONARY
  5
625
330
86
100
AcDbDictionary
280
     1
281
     1
  3
ADSK_XREC_LAYER_RECONCILED
360
626
  0
DICTIONARY
  5
627
330
87
100
AcDbDictionary
280
     1
281
     1
  3
ADSK_XREC_LAYER_RECONCILED
360
628
  0
DICTIONARY
  5
629
330
CE
100
AcDbDictionary
280
     1
281
     1
  3
ADSK_XREC_LAYER_RECONCILED
360
62A
  0
DICTIONARY
  5
62B
330
CF
100
AcDbDictionary
280
     1
281
     1
  3
ADSK_XREC_LAYER_RECONCILED
360
62C
  0
DICTIONARY
  5
62D
330
D0
100
AcDbDictionary
280
     1
281
     1
  3
ADSK_XREC_LAYER_RECONCILED
360
62E
  0
DICTIONARY
  5
206
330
1F
100
AcDbDictionary
280
     1
281
     1
  3
ACAD_SORTENTS
360
207
  0
DICTIONARY
  5
260
330
25E
100
AcDbDictionary
280
     1
281
     1
  3
ACAD_SORTENTS
360
261
  0
DICTIONARY
  5
3C5
330
3C3
100
AcDbDictionary
280
     1
281
     1
  3
ACAD_SORTENTS
360
3C6
  0
DICTIONARY
  5
7D5
330
6B
100
AcDbDictionary
280
     1
281
     1
  3
ACAD_XREC_ROUNDTRIP
360
7D6
  0
DICTIONARY
  5
7D7
330
6D
100
AcDbDictionary
280
     1
281
     1
  3
ACAD_XREC_ROUNDTRIP
360
7D8
  0
DICTIONARY
  5
7D9
330
71
100
AcDbDictionary
280
     1
281
     1
  3
ACAD_XREC_ROUNDTRIP
360
7DA
  0
DICTIONARY
  5
7DB
330
73
100
AcDbDictionary
280
     1
281
     1
  3
ACAD_XREC_ROUNDTRIP
360
7DC
  0
DICTIONARY
  5
1CC
102
{ACAD_REACTORS
330
C
102
}
330
C
100
AcDbDictionary
281
     1
  0
DICTIONARY
  5
D
102
{ACAD_REACTORS
330
C
102
}
330
C
100
AcDbDictionary
281
     1
  0
DICTIONARY
  5
1A
102
{ACAD_REACTORS
330
C
102
}
330
C
100
AcDbDictionary
281
     1
  3
Model
350
22
  3
ﾚｲｱｳﾄ1
350
51
  3
ﾚｲｱｳﾄ2
350
56
  0
DICTIONARY
  5
1CB
102
{ACAD_REACTORS
330
C
102
}
330
C
100
AcDbDictionary
281
     1
  3
ByBlock
350
5CA
  3
ByLayer
350
5C2
  3
Global
350
5D2
  0
DICTIONARY
  5
600
102
{ACAD_REACTORS
330
C
102
}
330
C
100
AcDbDictionary
281
     1
  3
Standard
350
601
  0
DICTIONARY
  5
17
102
{ACAD_REACTORS
330
C
102
}
330
C
100
AcDbDictionary
281
     1
  3
Standard
350
18
  0
DICTIONARY
  5
19
102
{ACAD_REACTORS
330
C
102
}
330
C
100
AcDbDictionary
281
     1
  0
ACDBDICTIONARYWDFLT
  5
E
102
{ACAD_REACTORS
330
C
102
}
330
C
100
AcDbDictionary
281
     1
  3
Normal
350
F
100
AcDbDictionaryWithDefault
340
F
  0
DICTIONARY
  5
5EE
102
{ACAD_REACTORS
330
C
102
}
330
C
100
AcDbDictionary
281
     1
  3
A0
350
5EF
  3
A1
350
5F0
  3
A2
350
5F1
  3
A3
350
5F2
  3
A4
350
5F3
  3
A5
350
5F4
  3
A6
350
5F5
  3
A7
350
5F6
  3
A8
350
5F7
  3
A9
350
5F8
  3
B0
350
5F9
  3
B1
350
5FA
  3
B2
350
5FB
  3
B3
350
5FC
  3
B4
350
5FD
  3
B5
350
5FE
  3
B6
350
5FF
  0
DICTIONARY
  5
1CD
102
{ACAD_REACTORS
330
C
102
}
330
C
100
AcDbDictionary
281
     1
  3
Standard
350
1CE
  0
DICTIONARY
  5
5DA
102
{ACAD_REACTORS
330
C
102
}
330
C
100
AcDbDictionary
281
     1
  3
2dWireframe
350
5E0
  3
3D Hidden
350
5E2
  3
3dWireframe
350
5E1
  3
Basic
350
5DF
  3
Brighten
350
5E6
  3
ColorChange
350
5EA
  3
Conceptual
350
5E3
  3
Dim
350
5E5
  3
EdgeColorOff
350
5ED
  3
Facepattern
350
5E9
  3
Flat
350
5DB
  3
FlatWithEdges
350
5DC
  3
Gouraud
350
5DD
  3
GouraudWithEdges
350
5DE
  3
JitterOff
350
5EB
  3
Linepattern
350
5E8
  3
OverhangOff
350
5EC
  3
Realistic
350
5E4
  3
Thicken
350
5E7
  0
XRECORD
  5
7CD
102
{ACAD_REACTORS
330
C
102
}
330
C
100
AcDbXrecord
280
     1
 90
        1
330
1CE
  0
DICTIONARY
  5
5E
102
{ACAD_REACTORS
330
C
102
}
330
C
100
AcDbDictionary
281
     1
  3
CANNOSCALE
350
674
  3
CMLEADERSTYLE
350
673
  3
CTABLESTYLE
350
1E0
  3
DIMASSOC
350
5F
  3
HIDETEXT
350
63
  3
INDEXCTL
350
676
  3
PROJECTNAME
350
1E1
  3
SORTENTS
350
675
  3
XCLIPFRAME
350
7CB
  0
XRECORD
  5
7CE
102
{ACAD_REACTORS
330
C
102
}
330
C
100
AcDbXrecord
280
     1
  1
DWGPROPS COOKIE
  2

  3

  4

  6

  7

  8
cadm
  9

300
=
301
=
302
=
303
=
304
=
305
=
306
=
307
=
308
=
309
=
 40
0.2010556018518518
 41
2453249.553566794
 42
2456722.502575046
  1

 90
        0
  0
XRECORD
  5
624
102
{ACAD_REACTORS
330
623
102
}
330
623
100
AcDbXrecord
280
     1
290
     1
  0
XRECORD
  5
626
102
{ACAD_REACTORS
330
625
102
}
330
625
100
AcDbXrecord
280
     1
290
     1
  0
XRECORD
  5
628
102
{ACAD_REACTORS
330
627
102
}
330
627
100
AcDbXrecord
280
     1
290
     1
  0
XRECORD
  5
62A
102
{ACAD_REACTORS
330
629
102
}
330
629
100
AcDbXrecord
280
     1
290
     1
  0
XRECORD
  5
62C
102
{ACAD_REACTORS
330
62B
102
}
330
62B
100
AcDbXrecord
280
     1
290
     1
  0
XRECORD
  5
62E
102
{ACAD_REACTORS
330
62D
102
}
330
62D
100
AcDbXrecord
280
     1
290
     1
  0
SORTENTSTABLE
  5
207
102
{ACAD_REACTORS
330
206
102
}
330
206
100
AcDbSortentsTable
330
1F
331
2AF
  5
2AF
331
2AD
  5
2AD
331
2B2
  5
2B2
331
9F
  5
9F
331
2B0
  5
2B0
331
2AE
  5
2AE
331
9D
  5
9D
331
2AC
  5
2AC
331
2B3
  5
2B3
331
A0
  5
A0
331
2B1
  5
2B1
  0
SORTENTSTABLE
  5
261
102
{ACAD_REACTORS
330
260
102
}
330
260
100
AcDbSortentsTable
330
25E
  0
SORTENTSTABLE
  5
3C6
102
{ACAD_REACTORS
330
3C5
102
}
330
3C5
100
AcDbSortentsTable
330
3C3
  0
XRECORD
  5
7D6
102
{ACAD_REACTORS
330
7D5
102
}
330
7D5
100
AcDbXrecord
280
     1
102
SHADEPLOT
 70
     0
  0
XRECORD
  5
7D8
102
{ACAD_REACTORS
330
7D7
102
}
330
7D7
100
AcDbXrecord
280
     1
102
SHADEPLOT
 70
     0
  0
XRECORD
  5
7DA
102
{ACAD_REACTORS
330
7D9
102
}
330
7D9
100
AcDbXrecord
280
     1
102
SHADEPLOT
 70
     0
  0
XRECORD
  5
7DC
102
{ACAD_REACTORS
330
7DB
102
}
330
7DB
100
AcDbXrecord
280
     1
102
SHADEPLOT
 70
     0
  0
LAYOUT
  5
22
102
{ACAD_XDICTIONARY
360
7CF
102
}
102
{ACAD_REACTORS
330
1A
102
}
330
1A
100
AcDbPlotSettings
  1

  2
none_device
  4
ANSI_A_(8.50_x_11.00_Inches)
  6

 40
6.349999904632567
 41
19.04999923706053
 42
6.350006103515625
 43
19.04998779296875
 44
215.8999938964841
 45
279.3999938964843
 46
0.0
 47
0.0
 48
0.0
 49
0.0
140
0.0
141
0.0
142
1.0
143
78.436453180766
 70
 11952
 72
     0
 73
     1
 74
     0
  7

 75
     0
147
0.0127491741332998
148
0.0
149
0.0
100
AcDbLayout
  1
Model
 70
     1
 71
     0
 10
0.0
 20
0.0
 11
12.0
 21
9.0
 12
0.0
 22
0.0
 32
0.0
 14
0.0
 24
0.0
 34
0.0
 15
0.0
 25
0.0
 35
0.0
146
0.0
 13
0.0
 23
0.0
 33
0.0
 16
1.0
 26
0.0
 36
0.0
 17
0.0
 27
1.0
 37
0.0
 76
     0
330
1F
331
5B1
  0
LAYOUT
  5
51
102
{ACAD_XDICTIONARY
360
7D1
102
}
102
{ACAD_REACTORS
330
1A
102
}
330
1A
100
AcDbPlotSettings
  1

  2
none_device
  4
Letter_(8.50_x_11.00_Inches)
  6

 40
6.349999904632567
 41
6.349999904632567
 42
6.350006103515625
 43
6.350006103515625
 44
215.8999938964841
 45
279.3999938964843
 46
0.0
 47
0.0
 48
0.0
 49
0.0
140
0.0
141
0.0
142
1.0
143
1.0
 70
   688
 72
     1
 73
     1
 74
     5
  7

 75
    16
147
1.0
148
0.0
149
0.0
100
AcDbLayout
  1
ﾚｲｱｳﾄ1
 70
     1
 71
     1
 10
-6.350006103515625
 20
-6.349999904632567
 11
273.0499877929687
 21
209.5499939918517
 12
0.0
 22
0.0
 32
0.0
 14
26.66076962115562
 24
20.31135699206657
 34
-0.0015258207003583
 15
240.039213369355
 25
182.8886381005154
 35
0.0000000349246037
146
0.0
 13
0.0
 23
0.0
 33
0.0
 16
1.0
 26
0.0
 36
0.0
 17
0.0
 27
1.0
 37
0.0
 76
     0
330
50
331
6B
  0
LAYOUT
  5
56
102
{ACAD_XDICTIONARY
360
7D3
102
}
102
{ACAD_REACTORS
330
1A
102
}
330
1A
100
AcDbPlotSettings
  1

  2
none_device
  4
Letter_(8.50_x_11.00_Inches)
  6

 40
6.349999904632567
 41
6.349999904632567
 42
6.350006103515625
 43
6.350006103515625
 44
215.8999938964841
 45
279.3999938964843
 46
0.0
 47
0.0
 48
0.0
 49
0.0
140
0.0
141
0.0
142
1.0
143
1.0
 70
   688
 72
     1
 73
     1
 74
     5
  7

 75
    16
147
1.0
148
0.0
149
0.0
100
AcDbLayout
  1
ﾚｲｱｳﾄ2
 70
     1
 71
     2
 10
-6.350006103515625
 20
-6.349999904632567
 11
273.0499877929687
 21
209.5499939918517
 12
0.0
 22
0.0
 32
0.0
 14
26.66076962115562
 24
20.31135699206657
 34
-0.0015258207003583
 15
240.039213369355
 25
182.8886381005154
 35
0.0000000349246037
146
0.0
 13
0.0
 23
0.0
 33
0.0
 16
1.0
 26
0.0
 36
0.0
 17
0.0
 27
1.0
 37
0.0
 76
     0
330
55
331
71
  0
MATERIAL
  5
5CA
102
{ACAD_XDICTIONARY
360
5CB
102
}
102
{ACAD_REACTORS
330
1CB
102
}
330
1CB
100
AcDbMaterial
  1
ByBlock
 72
     0
 43
0.0008202099737533
 43
0.0
 43
0.0
 43
0.0
 43
0.0
 43
0.0008202099737533
 43
0.0
 43
0.0
 43
0.0
 43
0.0
 43
1.0
 43
0.0
 43
0.0
 43
0.0
 43
0.0
 43
1.0
 77
     0
 47
0.0008202099737533
 47
0.0
 47
0.0
 47
0.0
 47
0.0
 47
0.0008202099737533
 47
0.0
 47
0.0
 47
0.0
 47
0.0
 47
1.0
 47
0.0
 47
0.0
 47
0.0
 47
0.0
 47
1.0
171
     0
 49
0.0008202099737533
 49
0.0
 49
0.0
 49
0.0
 49
0.0
 49
0.0008202099737533
 49
0.0
 49
0.0
 49
0.0
 49
0.0
 49
1.0
 49
0.0
 49
0.0
 49
0.0
 49
0.0
 49
1.0
175
     0
142
0.0008202099737533
142
0.0
142
0.0
142
0.0
142
0.0
142
0.0008202099737533
142
0.0
142
0.0
142
0.0
142
0.0
142
1.0
142
0.0
142
0.0
142
0.0
142
0.0
142
1.0
179
     0
144
0.0008202099737533
144
0.0
144
0.0
144
0.0
144
0.0
144
0.0008202099737533
144
0.0
144
0.0
144
0.0
144
0.0
144
1.0
144
0.0
144
0.0
144
0.0
144
0.0
144
1.0
147
0.0008202099737533
147
0.0
147
0.0
147
0.0
147
0.0
147
0.0008202099737533
147
0.0
147
0.0
147
0.0
147
0.0
147
1.0
147
0.0
147
0.0
147
0.0
147
0.0
147
1.0
  0
MATERIAL
  5
5C2
102
{ACAD_XDICTIONARY
360
5C3
102
}
102
{ACAD_REACTORS
330
1CB
102
}
330
1CB
100
AcDbMaterial
  1
ByLayer
 72
     0
 43
0.0008202099737533
 43
0.0
 43
0.0
 43
0.0
 43
0.0
 43
0.0008202099737533
 43
0.0
 43
0.0
 43
0.0
 43
0.0
 43
1.0
 43
0.0
 43
0.0
 43
0.0
 43
0.0
 43
1.0
 77
     0
 47
0.0008202099737533
 47
0.0
 47
0.0
 47
0.0
 47
0.0
 47
0.0008202099737533
 47
0.0
 47
0.0
 47
0.0
 47
0.0
 47
1.0
 47
0.0
 47
0.0
 47
0.0
 47
0.0
 47
1.0
171
     0
 49
0.0008202099737533
 49
0.0
 49
0.0
 49
0.0
 49
0.0
 49
0.0008202099737533
 49
0.0
 49
0.0
 49
0.0
 49
0.0
 49
1.0
 49
0.0
 49
0.0
 49
0.0
 49
0.0
 49
1.0
175
     0
142
0.0008202099737533
142
0.0
142
0.0
142
0.0
142
0.0
142
0.0008202099737533
142
0.0
142
0.0
142
0.0
142
0.0
142
1.0
142
0.0
142
0.0
142
0.0
142
0.0
142
1.0
179
     0
144
0.0008202099737533
144
0.0
144
0.0
144
0.0
144
0.0
144
0.0008202099737533
144
0.0
144
0.0
144
0.0
144
0.0
144
1.0
144
0.0
144
0.0
144
0.0
144
0.0
144
1.0
147
0.0008202099737533
147
0.0
147
0.0
147
0.0
147
0.0
147
0.0008202099737533
147
0.0
147
0.0
147
0.0
147
0.0
147
1.0
147
0.0
147
0.0
147
0.0
147
0.0
147
1.0
  0
MATERIAL
  5
5D2
102
{ACAD_XDICTIONARY
360
5D3
102
}
102
{ACAD_REACTORS
330
1CB
102
}
330
1CB
100
AcDbMaterial
  1
Global
 72
     0
 43
0.0008202099737533
 43
0.0
 43
0.0
 43
0.0
 43
0.0
 43
0.0008202099737533
 43
0.0
 43
0.0
 43
0.0
 43
0.0
 43
1.0
 43
0.0
 43
0.0
 43
0.0
 43
0.0
 43
1.0
 77
     0
 47
0.0008202099737533
 47
0.0
 47
0.0
 47
0.0
 47
0.0
 47
0.0008202099737533
 47
0.0
 47
0.0
 47
0.0
 47
0.0
 47
1.0
 47
0.0
 47
0.0
 47
0.0
 47
0.0
 47
1.0
171
     0
 49
0.0008202099737533
 49
0.0
 49
0.0
 49
0.0
 49
0.0
 49
0.0008202099737533
 49
0.0
 49
0.0
 49
0.0
 49
0.0
 49
1.0
 49
0.0
 49
0.0
 49
0.0
 49
0.0
 49
1.0
175
     0
142
0.0008202099737533
142
0.0
142
0.0
142
0.0
142
0.0
142
0.0008202099737533
142
0.0
142
0.0
142
0.0
142
0.0
142
1.0
142
0.0
142
0.0
142
0.0
142
0.0
142
1.0
179
     0
144
0.0008202099737533
144
0.0
144
0.0
144
0.0
144
0.0
144
0.0008202099737533
144
0.0
144
0.0
144
0.0
144
0.0
144
1.0
144
0.0
144
0.0
144
0.0
144
0.0
144
1.0
147
0.0008202099737533
147
0.0
147
0.0
147
0.0
147
0.0
147
0.0008202099737533
147
0.0
147
0.0
147
0.0
147
0.0
147
1.0
147
0.0
147
0.0
147
0.0
147
0.0
147
1.0
  0
MLEADERSTYLE
  5
601
102
{ACAD_REACTORS
330
600
102
}
330
600
100
AcDbMLeaderStyle
170
     2
171
     1
172
     0
 90
        2
 40
0.0
 41
0.0
173
     1
 91
-1056964608
340
14
 92
       -2
290
     1
 42
2.0
291
     1
 43
0.36
  3
Standard
 44
4.0
300

342
11
174
     1
178
     6
175
     1
176
     0
 93
-1056964608
 45
4.0
292
     0
297
     0
 46
4.0
 94
-1056964608
 47
1.0
 49
1.0
140
1.0
293
     1
141
0.0
294
     1
177
     0
142
1.0
295
     0
296
     0
143
0.125
1001
ACAD_MLEADERVER
1070
     2
  0
MLINESTYLE
  5
18
102
{ACAD_REACTORS
330
17
102
}
330
17
100
AcDbMlineStyle
  2
STANDARD
 70
     0
  3

 62
   256
 51
90.0
 52
90.0
 71
     2
 49
0.5
 62
   256
  6
BYLAYER
 49
-0.5
 62
   256
  6
BYLAYER
  0
ACDBPLACEHOLDER
  5
F
102
{ACAD_REACTORS
330
E
102
}
330
E
  0
SCALE
  5
5EF
102
{ACAD_REACTORS
330
5EE
102
}
330
5EE
100
AcDbScale
 70
     0
300
1:1
140
1.0
141
1.0
290
     1
  0
SCALE
  5
5F0
102
{ACAD_REACTORS
330
5EE
102
}
330
5EE
100
AcDbScale
 70
     0
300
1:2
140
1.0
141
2.0
290
     0
  0
SCALE
  5
5F1
102
{ACAD_REACTORS
330
5EE
102
}
330
5EE
100
AcDbScale
 70
     0
300
1:4
140
1.0
141
4.0
290
     0
  0
SCALE
  5
5F2
102
{ACAD_REACTORS
330
5EE
102
}
330
5EE
100
AcDbScale
 70
     0
300
1:5
140
1.0
141
5.0
290
     0
  0
SCALE
  5
5F3
102
{ACAD_REACTORS
330
5EE
102
}
330
5EE
100
AcDbScale
 70
     0
300
1:8
140
1.0
141
8.0
290
     0
  0
SCALE
  5
5F4
102
{ACAD_REACTORS
330
5EE
102
}
330
5EE
100
AcDbScale
 70
     0
300
1:10
140
1.0
141
10.0
290
     0
  0
SCALE
  5
5F5
102
{ACAD_REACTORS
330
5EE
102
}
330
5EE
100
AcDbScale
 70
     0
300
1:16
140
1.0
141
16.0
290
     0
  0
SCALE
  5
5F6
102
{ACAD_REACTORS
330
5EE
102
}
330
5EE
100
AcDbScale
 70
     0
300
1:20
140
1.0
141
20.0
290
     0
  0
SCALE
  5
5F7
102
{ACAD_REACTORS
330
5EE
102
}
330
5EE
100
AcDbScale
 70
     0
300
1:30
140
1.0
141
30.0
290
     0
  0
SCALE
  5
5F8
102
{ACAD_REACTORS
330
5EE
102
}
330
5EE
100
AcDbScale
 70
     0
300
1:40
140
1.0
141
40.0
290
     0
  0
SCALE
  5
5F9
102
{ACAD_REACTORS
330
5EE
102
}
330
5EE
100
AcDbScale
 70
     0
300
1:50
140
1.0
141
50.0
290
     0
  0
SCALE
  5
5FA
102
{ACAD_REACTORS
330
5EE
102
}
330
5EE
100
AcDbScale
 70
     0
300
1:100
140
1.0
141
100.0
290
     0
  0
SCALE
  5
5FB
102
{ACAD_REACTORS
330
5EE
102
}
330
5EE
100
AcDbScale
 70
     0
300
2:1
140
2.0
141
1.0
290
     0
  0
SCALE
  5
5FC
102
{ACAD_REACTORS
330
5EE
102
}
330
5EE
100
AcDbScale
 70
     0
300
4:1
140
4.0
141
1.0
290
     0
  0
SCALE
  5
5FD
102
{ACAD_REACTORS
330
5EE
102
}
330
5EE
100
AcDbScale
 70
     0
300
8:1
140
8.0
141
1.0
290
     0
  0
SCALE
  5
5FE
102
{ACAD_REACTORS
330
5EE
102
}
330
5EE
100
AcDbScale
 70
     0
300
10:1
140
10.0
141
1.0
290
     0
  0
SCALE
  5
5FF
102
{ACAD_REACTORS
330
5EE
102
}
330
5EE
100
AcDbScale
 70
     0
300
100:1
140
100.0
141
1.0
290
     0
  0
TABLESTYLE
  5
1CE
102
{ACAD_XDICTIONARY
360
6BB
102
}
102
{ACAD_REACTORS
330
1CD
102
}
330
1CD
100
AcDbTableStyle
  3
Standard
 70
     0
 71
     0
 40
1.5
 41
1.5
280
     0
281
     0
  7
Standard
140
4.5
170
     2
 62
     0
 63
     7
283
     0
274
    -2
284
     1
 64
     0
275
    -2
285
     1
 65
     0
276
    -2
286
     1
 66
     0
277
    -2
287
     1
 67
     0
278
    -2
288
     1
 68
     0
279
    -2
289
     1
 69
     0
  7
Standard
140
6.0
170
     5
 62
     0
 63
     7
283
     0
274
    -2
284
     1
 64
     0
275
    -2
285
     1
 65
     0
276
    -2
286
     1
 66
     0
277
    -2
287
     1
 67
     0
278
    -2
288
     1
 68
     0
279
    -2
289
     1
 69
     0
  7
Standard
140
4.5
170
     5
 62
     0
 63
     7
283
     0
274
    -2
284
     1
 64
     0
275
    -2
285
     1
 65
     0
276
    -2
286
     1
 66
     0
277
    -2
287
     1
 67
     0
278
    -2
288
     1
 68
     0
279
    -2
289
     1
 69
     0
  0
VISUALSTYLE
  5
5E0
102
{ACAD_XDICTIONARY
360
7E8
102
}
102
{ACAD_REACTORS
330
5DA
102
}
330
5DA
100
AcDbVisualStyle
  2

 70
     4
 71
     0
 72
     2
 73
     0
 90
        0
 40
-0.6
 41
-30.0
 62
     5
 63
     7
 74
     1
 91
        4
 64
     7
 65
   257
 75
     1
175
     1
 42
1.0
 92
        0
 66
   257
 43
1.0
 76
     1
 77
     6
 78
     2
 67
     7
 79
     5
170
     0
171
     0
290
     0
174
     0
 93
        1
 44
0.0
173
     0
291
     0
 45
0.0
1001
ACAD
1000
AcDbSavedByObjectVersion
1070
     0
  0
VISUALSTYLE
  5
5E2
102
{ACAD_XDICTIONARY
360
7EC
102
}
102
{ACAD_REACTORS
330
5DA
102
}
330
5DA
100
AcDbVisualStyle
  2

 70
     6
 71
     1
 72
     2
 73
     2
 90
        0
 40
-0.6
 41
-30.0
 62
     5
 63
     7
 74
     2
 91
        2
 64
     7
 65
   257
 75
     2
175
     1
 42
179.0
 92
        0
 66
   257
 43
1.0
 76
     1
 77
     6
 78
     2
 67
     7
 79
     3
170
     0
171
     0
290
     0
174
     0
 93
        1
 44
0.0
173
     0
291
     0
 45
0.0
1001
ACAD
1000
AcDbSavedByObjectVersion
1070
     0
  0
VISUALSTYLE
  5
5E1
102
{ACAD_XDICTIONARY
360
7EA
102
}
102
{ACAD_REACTORS
330
5DA
102
}
330
5DA
100
AcDbVisualStyle
  2

 70
     5
 71
     0
 72
     2
 73
     0
 90
        0
 40
-0.6
 41
-30.0
 62
     5
 63
     7
 74
     1
 91
        4
 64
     7
 65
   257
 75
     1
175
     1
 42
1.0
 92
        0
 66
   257
 43
1.0
 76
     1
 77
     6
 78
     2
 67
     7
 79
     5
170
     0
171
     0
290
     0
174
     0
 93
        1
 44
0.0
173
     0
291
     0
 45
0.0
1001
ACAD
1000
AcDbSavedByObjectVersion
1070
     0
  0
VISUALSTYLE
  5
5DF
102
{ACAD_XDICTIONARY
360
7E6
102
}
102
{ACAD_REACTORS
330
5DA
102
}
330
5DA
100
AcDbVisualStyle
  2

 70
     7
 71
     1
 72
     0
 73
     1
 90
        0
 40
-0.6
 41
-30.0
 62
     5
 63
     7
 74
     0
 91
        4
 64
     7
 65
   257
 75
     1
175
     1
 42
1.0
 92
        8
 66
     7
 43
1.0
 76
     1
 77
     6
 78
     2
 67
     7
 79
     5
170
     0
171
     0
290
     0
174
     0
 93
        1
 44
0.0
173
     0
291
     1
 45
0.0
1001
ACAD
1000
AcDbSavedByObjectVersion
1070
     0
  0
VISUALSTYLE
  5
5E6
102
{ACAD_XDICTIONARY
360
7F4
102
}
102
{ACAD_REACTORS
330
5DA
102
}
330
5DA
100
AcDbVisualStyle
  2

 70
    12
 71
     2
 72
     2
 73
     0
 90
        0
 40
-0.6
 41
-30.0
 62
     5
 63
     7
 74
     1
 91
        4
 64
     7
 65
   257
 75
     1
175
     1
 42
1.0
 92
        8
 66
     7
 43
1.0
 76
     1
 77
     6
 78
     2
 67
     7
 79
     5
170
     0
171
     0
290
     0
174
     0
 93
        1
 44
50.0
173
     0
291
     1
 45
0.0
1001
ACAD
1000
AcDbSavedByObjectVersion
1070
     0
  0
VISUALSTYLE
  5
5EA
102
{ACAD_XDICTIONARY
360
7FC
102
}
102
{ACAD_REACTORS
330
5DA
102
}
330
5DA
100
AcDbVisualStyle
  2

 70
    16
 71
     2
 72
     2
 73
     3
 90
        0
 40
-0.6
 41
-30.0
 62
     5
 63
     8
 74
     1
 91
        4
 64
     7
 65
   257
 75
     1
175
     1
 42
1.0
 92
        8
 66
     8
 43
1.0
 76
     1
 77
     6
 78
     2
 67
     7
 79
     5
170
     0
171
     0
290
     0
174
     0
 93
        1
 44
0.0
173
     0
291
     1
 45
0.0
1001
ACAD
1000
AcDbSavedByObjectVersion
1070
     0
  0
VISUALSTYLE
  5
5E3
102
{ACAD_XDICTIONARY
360
7EE
102
}
102
{ACAD_REACTORS
330
5DA
102
}
330
5DA
100
AcDbVisualStyle
  2

 70
     9
 71
     3
 72
     2
 73
     0
 90
        0
 40
-0.6
 41
-30.0
 62
     5
 63
     7
 74
     2
 91
        2
 64
     7
 65
   257
 75
     1
175
     1
 42
179.0
 92
        8
 66
     7
 43
1.0
 76
     1
 77
     6
 78
     2
 67
     7
 79
     3
170
     0
171
     0
290
     0
174
     0
 93
        1
 44
0.0
173
     0
291
     0
 45
0.0
1001
ACAD
1000
AcDbSavedByObjectVersion
1070
     0
  0
VISUALSTYLE
  5
5E5
102
{ACAD_XDICTIONARY
360
7F2
102
}
102
{ACAD_REACTORS
330
5DA
102
}
330
5DA
100
AcDbVisualStyle
  2

 70
    11
 71
     2
 72
     2
 73
     0
 90
        0
 40
-0.6
 41
-30.0
 62
     5
 63
     7
 74
     1
 91
        4
 64
     7
 65
   257
 75
     1
175
     1
 42
1.0
 92
        8
 66
     7
 43
1.0
 76
     1
 77
     6
 78
     2
 67
     7
 79
     5
170
     0
171
     0
290
     0
174
     0
 93
        1
 44
-50.0
173
     0
291
     1
 45
0.0
1001
ACAD
1000
AcDbSavedByObjectVersion
1070
     0
  0
VISUALSTYLE
  5
5ED
102
{ACAD_XDICTIONARY
360
802
102
}
102
{ACAD_REACTORS
330
5DA
102
}
330
5DA
100
AcDbVisualStyle
  2

 70
    22
 71
     2
 72
     2
 73
     0
 90
        0
 40
-0.6
 41
-30.0
 62
     5
 63
     7
 74
     1
 91
        4
 64
     7
 65
   257
 75
     1
175
     1
 42
1.0
 92
        8
 66
     7
 43
1.0
 76
     1
 77
     6
 78
     2
 67
     7
 79
     5
170
     0
171
     0
290
     0
174
     0
 93
        1
 44
0.0
173
     0
291
     1
 45
0.0
1001
ACAD
1000
AcDbSavedByObjectVersion
1070
     0
  0
VISUALSTYLE
  5
5E9
102
{ACAD_XDICTIONARY
360
7FA
102
}
102
{ACAD_REACTORS
330
5DA
102
}
330
5DA
100
AcDbVisualStyle
  2

 70
    15
 71
     2
 72
     2
 73
     0
 90
        0
 40
-0.6
 41
-30.0
 62
     5
 63
     7
 74
     1
 91
        4
 64
     7
 65
   257
 75
     1
175
     1
 42
1.0
 92
        8
 66
     7
 43
1.0
 76
     1
 77
     6
 78
     2
 67
     7
 79
     5
170
     0
171
     0
290
     0
174
     0
 93
        1
 44
0.0
173
     0
291
     1
 45
0.0
1001
ACAD
1000
AcDbSavedByObjectVersion
1070
     0
  0
VISUALSTYLE
  5
5DB
102
{ACAD_XDICTIONARY
360
7DE
102
}
102
{ACAD_REACTORS
330
5DA
102
}
330
5DA
100
AcDbVisualStyle
  2

 70
     0
 71
     2
 72
     1
 73
     1
 90
        2
 40
-0.6
 41
30.0
 62
     5
 63
     7
 74
     0
 91
        4
 64
     7
 65
   257
 75
     1
175
     1
 42
1.0
 92
        8
 66
     7
 43
1.0
 76
     1
 77
     6
 78
     2
 67
     7
 79
     5
170
     0
171
     0
290
     0
174
     0
 93
       13
 44
0.0
173
     0
291
     1
 45
0.0
1001
ACAD
1000
AcDbSavedByObjectVersion
1070
     0
  0
VISUALSTYLE
  5
5DC
102
{ACAD_XDICTIONARY
360
7E0
102
}
102
{ACAD_REACTORS
330
5DA
102
}
330
5DA
100
AcDbVisualStyle
  2

 70
     1
 71
     2
 72
     1
 73
     1
 90
        2
 40
-0.6
 41
30.0
 62
     5
 63
     7
 74
     1
 91
        4
 64
     7
 65
   257
 75
     1
175
     1
 42
1.0
 92
        0
 66
   257
 43
1.0
 76
     1
 77
     6
 78
     2
 67
     7
 79
     5
170
     0
171
     0
290
     0
174
     0
 93
       13
 44
0.0
173
     0
291
     1
 45
0.0
1001
ACAD
1000
AcDbSavedByObjectVersion
1070
     0
  0
VISUALSTYLE
  5
5DD
102
{ACAD_XDICTIONARY
360
7E2
102
}
102
{ACAD_REACTORS
330
5DA
102
}
330
5DA
100
AcDbVisualStyle
  2

 70
     2
 71
     2
 72
     2
 73
     1
 90
        2
 40
-0.6
 41
30.0
 62
     5
 63
     7
 74
     0
 91
        4
 64
     7
 65
   257
 75
     1
175
     1
 42
1.0
 92
        0
 66
     7
 43
1.0
 76
     1
 77
     6
 78
     2
 67
     7
 79
     5
170
     0
171
     0
290
     0
174
     0
 93
       13
 44
0.0
173
     0
291
     1
 45
0.0
1001
ACAD
1000
AcDbSavedByObjectVersion
1070
     0
  0
VISUALSTYLE
  5
5DE
102
{ACAD_XDICTIONARY
360
7E4
102
}
102
{ACAD_REACTORS
330
5DA
102
}
330
5DA
100
AcDbVisualStyle
  2

 70
     3
 71
     2
 72
     2
 73
     1
 90
        2
 40
-0.6
 41
30.0
 62
     5
 63
     7
 74
     1
 91
        4
 64
     7
 65
   257
 75
     1
175
     1
 42
1.0
 92
        0
 66
   257
 43
1.0
 76
     1
 77
     6
 78
     2
 67
     7
 79
     5
170
     0
171
     0
290
     0
174
     0
 93
       13
 44
0.0
173
     0
291
     1
 45
0.0
1001
ACAD
1000
AcDbSavedByObjectVersion
1070
     0
  0
VISUALSTYLE
  5
5EB
102
{ACAD_XDICTIONARY
360
7FE
102
}
102
{ACAD_REACTORS
330
5DA
102
}
330
5DA
100
AcDbVisualStyle
  2

 70
    20
 71
     2
 72
     2
 73
     0
 90
        0
 40
-0.6
 41
-30.0
 62
     5
 63
     7
 74
     1
 91
        4
 64
     7
 65
   257
 75
     1
175
     1
 42
1.0
 92
       10
 66
     7
 43
1.0
 76
     1
 77
     6
 78
     2
 67
     7
 79
     5
170
     0
171
     0
290
     0
174
     0
 93
        1
 44
0.0
173
     0
291
     1
 45
0.0
1001
ACAD
1000
AcDbSavedByObjectVersion
1070
     0
  0
VISUALSTYLE
  5
5E8
102
{ACAD_XDICTIONARY
360
7F8
102
}
102
{ACAD_REACTORS
330
5DA
102
}
330
5DA
100
AcDbVisualStyle
  2

 70
    14
 71
     2
 72
     2
 73
     0
 90
        0
 40
-0.6
 41
-30.0
 62
     5
 63
     7
 74
     1
 91
        4
 64
     7
 65
   257
 75
     7
175
     7
 42
1.0
 92
        8
 66
     7
 43
1.0
 76
     1
 77
     6
 78
     2
 67
     7
 79
     5
170
     0
171
     0
290
     0
174
     0
 93
        1
 44
0.0
173
     0
291
     1
 45
0.0
1001
ACAD
1000
AcDbSavedByObjectVersion
1070
     0
  0
VISUALSTYLE
  5
5EC
102
{ACAD_XDICTIONARY
360
800
102
}
102
{ACAD_REACTORS
330
5DA
102
}
330
5DA
100
AcDbVisualStyle
  2

 70
    21
 71
     2
 72
     2
 73
     0
 90
        0
 40
-0.6
 41
-30.0
 62
     5
 63
     7
 74
     1
 91
        4
 64
     7
 65
   257
 75
     1
175
     1
 42
1.0
 92
        9
 66
     7
 43
1.0
 76
     1
 77
     6
 78
     2
 67
     7
 79
     5
170
     0
171
     0
290
     0
174
     0
 93
        1
 44
0.0
173
     0
291
     1
 45
0.0
1001
ACAD
1000
AcDbSavedByObjectVersion
1070
     0
  0
VISUALSTYLE
  5
5E4
102
{ACAD_XDICTIONARY
360
7F0
102
}
102
{ACAD_REACTORS
330
5DA
102
}
330
5DA
100
AcDbVisualStyle
  2

 70
     8
 71
     2
 72
     2
 73
     0
 90
        0
 40
-0.6
 41
-30.0
 62
     5
 63
     7
 74
     1
 91
        0
 64
     7
 65
   257
 75
     1
175
     1
 42
1.0
 92
        8
 66
     8
 43
1.0
 76
     1
 77
     6
 78
     2
 67
     7
 79
     5
170
     0
171
     0
290
     0
174
     0
 93
       13
 44
0.0
173
     0
291
     0
 45
0.0
1001
ACAD
1000
AcDbSavedByObjectVersion
1070
     0
  0
VISUALSTYLE
  5
5E7
102
{ACAD_XDICTIONARY
360
7F6
102
}
102
{ACAD_REACTORS
330
5DA
102
}
330
5DA
100
AcDbVisualStyle
  2

 70
    13
 71
     2
 72
     2
 73
     0
 90
        0
 40
-0.6
 41
-30.0
 62
     5
 63
     7
 74
     1
 91
        4
 64
     7
 65
   257
 75
     1
175
     1
 42
1.0
 92
       12
 66
     7
 43
1.0
 76
     1
 77
     6
 78
     2
 67
     7
 79
     5
170
     0
171
     0
290
     0
174
     0
 93
        1
 44
0.0
173
     0
291
     1
 45
0.0
1001
ACAD
1000
AcDbSavedByObjectVersion
1070
     0
  0
DICTIONARYVAR
  5
674
102
{ACAD_REACTORS
330
5E
102
}
330
5E
100
DictionaryVariables
280
     0
  1
1:1
  0
DICTIONARYVAR
  5
673
102
{ACAD_REACTORS
330
5E
102
}
330
5E
100
DictionaryVariables
280
     0
  1
STANDARD
  0
DICTIONARYVAR
  5
1E0
102
{ACAD_REACTORS
330
5E
102
}
330
5E
100
DictionaryVariables
280
     0
  1
STANDARD
  0
DICTIONARYVAR
  5
5F
102
{ACAD_REACTORS
330
5E
102
}
330
5E
100
DictionaryVariables
280
     0
  1
2
  0
DICTIONARYVAR
  5
63
102
{ACAD_REACTORS
330
5E
102
}
330
5E
100
DictionaryVariables
280
     0
  1
1
  0
DICTIONARYVAR
  5
676
102
{ACAD_REACTORS
330
5E
102
}
330
5E
100
DictionaryVariables
280
     0
  1
0
  0
DICTIONARYVAR
  5
1E1
102
{ACAD_REACTORS
330
5E
102
}
330
5E
100
DictionaryVariables
280
     0
  1

  0
DICTIONARYVAR
  5
675
102
{ACAD_REACTORS
330
5E
102
}
330
5E
100
DictionaryVariables
280
     0
  1
127
  0
DICTIONARYVAR
  5
7CB
102
{ACAD_REACTORS
330
5E
102
}
330
5E
100
DictionaryVariables
280
     0
  1
2
  0
DICTIONARY
  5
7CF
330
22
100
AcDbDictionary
280
     1
281
     1
  3
ACAD_XREC_ROUNDTRIP
360
7D0
  0
DICTIONARY
  5
7D1
330
51
100
AcDbDictionary
280
     1
281
     1
  3
ACAD_XREC_ROUNDTRIP
360
7D2
  0
DICTIONARY
  5
7D3
330
56
100
AcDbDictionary
280
     1
281
     1
  3
ACAD_XREC_ROUNDTRIP
360
7D4
  0
DICTIONARY
  5
5CB
330
5CA
100
AcDbDictionary
280
     1
281
     1
  3
ACAD_XREC_ROUNDTRIP
360
6CF
  3
BUMPTILE
360
5CD
  3
DIFFUSETILE
360
5CC
  3
OPACITYTILE
360
5D0
  3
REFLECTIONTILE
360
5CF
  3
REFRACTIONTILE
360
5D1
  3
SPECULARTILE
360
5CE
  0
DICTIONARY
  5
5C3
330
5C2
100
AcDbDictionary
280
     1
281
     1
  3
ACAD_XREC_ROUNDTRIP
360
6CE
  3
BUMPTILE
360
5C5
  3
DIFFUSETILE
360
5C4
  3
OPACITYTILE
360
5C8
  3
REFLECTIONTILE
360
5C7
  3
REFRACTIONTILE
360
5C9
  3
SPECULARTILE
360
5C6
  0
DICTIONARY
  5
5D3
330
5D2
100
AcDbDictionary
280
     1
281
     1
  3
ACAD_XREC_ROUNDTRIP
360
6D0
  3
BUMPTILE
360
5D5
  3
DIFFUSETILE
360
5D4
  3
OPACITYTILE
360
5D8
  3
REFLECTIONTILE
360
5D7
  3
REFRACTIONTILE
360
5D9
  3
SPECULARTILE
360
5D6
  0
DICTIONARY
  5
6BB
330
1CE
100
AcDbDictionary
280
     1
281
     1
  3
ACAD_ROUNDTRIP_2008_TABLESTYLE_CELLSTYLEMAP
360
7CC
  3
ACAD_XREC_ROUNDTRIP
360
7DD
  0
DICTIONARY
  5
7E8
330
5E0
100
AcDbDictionary
280
     1
281
     1
  3
ACAD_XREC_ROUNDTRIP
360
7E9
  0
DICTIONARY
  5
7EC
330
5E2
100
AcDbDictionary
280
     1
281
     1
  3
ACAD_XREC_ROUNDTRIP
360
7ED
  0
DICTIONARY
  5
7EA
330
5E1
100
AcDbDictionary
280
     1
281
     1
  3
ACAD_XREC_ROUNDTRIP
360
7EB
  0
DICTIONARY
  5
7E6
330
5DF
100
AcDbDictionary
280
     1
281
     1
  3
ACAD_XREC_ROUNDTRIP
360
7E7
  0
DICTIONARY
  5
7F4
330
5E6
100
AcDbDictionary
280
     1
281
     1
  3
ACAD_XREC_ROUNDTRIP
360
7F5
  0
DICTIONARY
  5
7FC
330
5EA
100
AcDbDictionary
280
     1
281
     1
  3
ACAD_XREC_ROUNDTRIP
360
7FD
  0
DICTIONARY
  5
7EE
330
5E3
100
AcDbDictionary
280
     1
281
     1
  3
ACAD_XREC_ROUNDTRIP
360
7EF
  0
DICTIONARY
  5
7F2
330
5E5
100
AcDbDictionary
280
     1
281
     1
  3
ACAD_XREC_ROUNDTRIP
360
7F3
  0
DICTIONARY
  5
802
330
5ED
100
AcDbDictionary
280
     1
281
     1
  3
ACAD_XREC_ROUNDTRIP
360
803
  0
DICTIONARY
  5
7FA
330
5E9
100
AcDbDictionary
280
     1
281
     1
  3
ACAD_XREC_ROUNDTRIP
360
7FB
  0
DICTIONARY
  5
7DE
330
5DB
100
AcDbDictionary
280
     1
281
     1
  3
ACAD_XREC_ROUNDTRIP
360
7DF
  0
DICTIONARY
  5
7E0
330
5DC
100
AcDbDictionary
280
     1
281
     1
  3
ACAD_XREC_ROUNDTRIP
360
7E1
  0
DICTIONARY
  5
7E2
330
5DD
100
AcDbDictionary
280
     1
281
     1
  3
ACAD_XREC_ROUNDTRIP
360
7E3
  0
DICTIONARY
  5
7E4
330
5DE
100
AcDbDictionary
280
     1
281
     1
  3
ACAD_XREC_ROUNDTRIP
360
7E5
  0
DICTIONARY
  5
7FE
330
5EB
100
AcDbDictionary
280
     1
281
     1
  3
ACAD_XREC_ROUNDTRIP
360
7FF
  0
DICTIONARY
  5
7F8
330
5E8
100
AcDbDictionary
280
     1
281
     1
  3
ACAD_XREC_ROUNDTRIP
360
7F9
  0
DICTIONARY
  5
800
330
5EC
100
AcDbDictionary
280
     1
281
     1
  3
ACAD_XREC_ROUNDTRIP
360
801
  0
DICTIONARY
  5
7F0
330
5E4
100
AcDbDictionary
280
     1
281
     1
  3
ACAD_XREC_ROUNDTRIP
360
7F1
  0
DICTIONARY
  5
7F6
330
5E7
100
AcDbDictionary
280
     1
281
     1
  3
ACAD_XREC_ROUNDTRIP
360
7F7
  0
XRECORD
  5
7D0
102
{ACAD_REACTORS
330
7CF
102
}
330
7CF
100
AcDbXrecord
280
     1
102
SHADEPLOT
 70
     0
102
SHADEPLOTRESLEVEL
 70
     2
102
SHADEPLOTCUSTOMDPI
 70
   300
  0
XRECORD
  5
7D2
102
{ACAD_REACTORS
330
7D1
102
}
330
7D1
100
AcDbXrecord
280
     1
102
SHADEPLOT
 70
     0
102
SHADEPLOTRESLEVEL
 70
     2
102
SHADEPLOTCUSTOMDPI
 70
   300
  0
XRECORD
  5
7D4
102
{ACAD_REACTORS
330
7D3
102
}
330
7D3
100
AcDbXrecord
280
     1
102
SHADEPLOT
 70
     0
102
SHADEPLOTRESLEVEL
 70
     2
102
SHADEPLOTCUSTOMDPI
 70
   300
  0
XRECORD
  5
6CF
102
{ACAD_REACTORS
330
5CB
102
}
330
5CB
100
AcDbXrecord
280
     1
102
MATERIAL
148
0.0
149
0.0
149
0.0
 93
        0
 94
      127
282
     0
 72
     0
 77
     0
171
     0
175
     0
179
     0
273
     0
  0
XRECORD
  5
5CD
102
{ACAD_REACTORS
330
5CB
102
}
330
5CB
100
AcDbXrecord
280
     1
270
     1
271
     1
  0
XRECORD
  5
5CC
102
{ACAD_REACTORS
330
5CB
102
}
330
5CB
100
AcDbXrecord
280
     1
270
     1
271
     1
  0
XRECORD
  5
5D0
102
{ACAD_REACTORS
330
5CB
102
}
330
5CB
100
AcDbXrecord
280
     1
270
     1
271
     1
  0
XRECORD
  5
5CF
102
{ACAD_REACTORS
330
5CB
102
}
330
5CB
100
AcDbXrecord
280
     1
270
     1
271
     1
  0
XRECORD
  5
5D1
102
{ACAD_REACTORS
330
5CB
102
}
330
5CB
100
AcDbXrecord
280
     1
270
     1
271
     1
  0
XRECORD
  5
5CE
102
{ACAD_REACTORS
330
5CB
102
}
330
5CB
100
AcDbXrecord
280
     1
270
     1
271
     1
  0
XRECORD
  5
6CE
102
{ACAD_REACTORS
330
5C3
102
}
330
5C3
100
AcDbXrecord
280
     1
102
MATERIAL
148
0.0
149
0.0
149
0.0
 93
        0
 94
      127
282
     0
 72
     0
 77
     0
171
     0
175
     0
179
     0
273
     0
  0
XRECORD
  5
5C5
102
{ACAD_REACTORS
330
5C3
102
}
330
5C3
100
AcDbXrecord
280
     1
270
     1
271
     1
  0
XRECORD
  5
5C4
102
{ACAD_REACTORS
330
5C3
102
}
330
5C3
100
AcDbXrecord
280
     1
270
     1
271
     1
  0
XRECORD
  5
5C8
102
{ACAD_REACTORS
330
5C3
102
}
330
5C3
100
AcDbXrecord
280
     1
270
     1
271
     1
  0
XRECORD
  5
5C7
102
{ACAD_REACTORS
330
5C3
102
}
330
5C3
100
AcDbXrecord
280
     1
270
     1
271
     1
  0
XRECORD
  5
5C9
102
{ACAD_REACTORS
330
5C3
102
}
330
5C3
100
AcDbXrecord
280
     1
270
     1
271
     1
  0
XRECORD
  5
5C6
102
{ACAD_REACTORS
330
5C3
102
}
330
5C3
100
AcDbXrecord
280
     1
270
     1
271
     1
  0
XRECORD
  5
6D0
102
{ACAD_REACTORS
330
5D3
102
}
330
5D3
100
AcDbXrecord
280
     1
102
MATERIAL
148
0.0
149
0.0
149
0.0
 93
        0
 94
      127
282
     0
 72
     0
 77
     0
171
     0
175
     0
179
     0
273
     0
  0
XRECORD
  5
5D5
102
{ACAD_REACTORS
330
5D3
102
}
330
5D3
100
AcDbXrecord
280
     1
270
     1
271
     1
  0
XRECORD
  5
5D4
102
{ACAD_REACTORS
330
5D3
102
}
330
5D3
100
AcDbXrecord
280
     1
270
     1
271
     1
  0
XRECORD
  5
5D8
102
{ACAD_REACTORS
330
5D3
102
}
330
5D3
100
AcDbXrecord
280
     1
270
     1
271
     1
  0
XRECORD
  5
5D7
102
{ACAD_REACTORS
330
5D3
102
}
330
5D3
100
AcDbXrecord
280
     1
270
     1
271
     1
  0
XRECORD
  5
5D9
102
{ACAD_REACTORS
330
5D3
102
}
330
5D3
100
AcDbXrecord
280
     1
270
     1
271
     1
  0
XRECORD
  5
5D6
102
{ACAD_REACTORS
330
5D3
102
}
330
5D3
100
AcDbXrecord
280
     1
270
     1
271
     1
  0
CELLSTYLEMAP
  5
7CC
102
{ACAD_REACTORS
330
6BB
102
}
330
6BB
100
AcDbCellStyleMap
 90
        3
300
CELLSTYLE
  1
TABLEFORMAT_BEGIN
 90
        5
170
     1
 91
        0
 92
    32768
 62
   257
 93
        1
300
CONTENTFORMAT
  1
CONTENTFORMAT_BEGIN
 90
        0
 91
        0
 92
        4
 93
        0
300

 40
0.0
140
1.0
 94
        5
 62
     0
340
11
144
6.0
309
CONTENTFORMAT_END
171
     1
301
MARGIN
  1
CELLMARGIN_BEGIN
 40
1.5
 40
1.5
 40
1.5
 40
1.5
 40
0.18
 40
0.18
309
CELLMARGIN_END
 94
        6
 95
        1
302
GRIDFORMAT
  1
GRIDFORMAT_BEGIN
 90
        0
 91
        1
 62
     0
 92
       -2
340
0
 93
        0
 40
0.045
309
GRIDFORMAT_END
 95
        2
302
GRIDFORMAT
  1
GRIDFORMAT_BEGIN
 90
        0
 91
        1
 62
     0
 92
       -2
340
0
 93
        0
 40
0.045
309
GRIDFORMAT_END
 95
        4
302
GRIDFORMAT
  1
GRIDFORMAT_BEGIN
 90
        0
 91
        1
 62
     0
 92
       -2
340
0
 93
        0
 40
0.045
309
GRIDFORMAT_END
 95
        8
302
GRIDFORMAT
  1
GRIDFORMAT_BEGIN
 90
        0
 91
        1
 62
     0
 92
       -2
340
0
 93
        0
 40
0.045
309
GRIDFORMAT_END
 95
       16
302
GRIDFORMAT
  1
GRIDFORMAT_BEGIN
 90
        0
 91
        1
 62
     0
 92
       -2
340
0
 93
        0
 40
0.045
309
GRIDFORMAT_END
 95
       32
302
GRIDFORMAT
  1
GRIDFORMAT_BEGIN
 90
        0
 91
        1
 62
     0
 92
       -2
340
0
 93
        0
 40
0.045
309
GRIDFORMAT_END
309
TABLEFORMAT_END
  1
CELLSTYLE_BEGIN
 90
        1
 91
        1
300
_TITLE
309
CELLSTYLE_END
300
CELLSTYLE
  1
TABLEFORMAT_BEGIN
 90
        5
170
     1
 91
        0
 92
        0
 62
   257
 93
        1
300
CONTENTFORMAT
  1
CONTENTFORMAT_BEGIN
 90
        0
 91
        0
 92
        4
 93
        0
300

 40
0.0
140
1.0
 94
        5
 62
     0
340
11
144
4.5
309
CONTENTFORMAT_END
171
     1
301
MARGIN
  1
CELLMARGIN_BEGIN
 40
1.5
 40
1.5
 40
1.5
 40
1.5
 40
0.18
 40
0.18
309
CELLMARGIN_END
 94
        6
 95
        1
302
GRIDFORMAT
  1
GRIDFORMAT_BEGIN
 90
        0
 91
        1
 62
     0
 92
       -2
340
0
 93
        0
 40
0.045
309
GRIDFORMAT_END
 95
        2
302
GRIDFORMAT
  1
GRIDFORMAT_BEGIN
 90
        0
 91
        1
 62
     0
 92
       -2
340
0
 93
        0
 40
0.045
309
GRIDFORMAT_END
 95
        4
302
GRIDFORMAT
  1
GRIDFORMAT_BEGIN
 90
        0
 91
        1
 62
     0
 92
       -2
340
0
 93
        0
 40
0.045
309
GRIDFORMAT_END
 95
        8
302
GRIDFORMAT
  1
GRIDFORMAT_BEGIN
 90
        0
 91
        1
 62
     0
 92
       -2
340
0
 93
        0
 40
0.045
309
GRIDFORMAT_END
 95
       16
302
GRIDFORMAT
  1
GRIDFORMAT_BEGIN
 90
        0
 91
        1
 62
     0
 92
       -2
340
0
 93
        0
 40
0.045
309
GRIDFORMAT_END
 95
       32
302
GRIDFORMAT
  1
GRIDFORMAT_BEGIN
 90
        0
 91
        1
 62
     0
 92
       -2
340
0
 93
        0
 40
0.045
309
GRIDFORMAT_END
309
TABLEFORMAT_END
  1
CELLSTYLE_BEGIN
 90
        2
 91
        1
300
_HEADER
309
CELLSTYLE_END
300
CELLSTYLE
  1
TABLEFORMAT_BEGIN
 90
        5
170
     1
 91
        0
 92
        0
 62
   257
 93
        1
300
CONTENTFORMAT
  1
CONTENTFORMAT_BEGIN
 90
        0
 91
        0
 92
        4
 93
        0
300

 40
0.0
140
1.0
 94
        2
 62
     0
340
11
144
4.5
309
CONTENTFORMAT_END
171
     1
301
MARGIN
  1
CELLMARGIN_BEGIN
 40
1.5
 40
1.5
 40
1.5
 40
1.5
 40
0.18
 40
0.18
309
CELLMARGIN_END
 94
        6
 95
        1
302
GRIDFORMAT
  1
GRIDFORMAT_BEGIN
 90
        0
 91
        1
 62
     0
 92
       -2
340
0
 93
        0
 40
0.045
309
GRIDFORMAT_END
 95
        2
302
GRIDFORMAT
  1
GRIDFORMAT_BEGIN
 90
        0
 91
        1
 62
     0
 92
       -2
340
0
 93
        0
 40
0.045
309
GRIDFORMAT_END
 95
        4
302
GRIDFORMAT
  1
GRIDFORMAT_BEGIN
 90
        0
 91
        1
 62
     0
 92
       -2
340
0
 93
        0
 40
0.045
309
GRIDFORMAT_END
 95
        8
302
GRIDFORMAT
  1
GRIDFORMAT_BEGIN
 90
        0
 91
        1
 62
     0
 92
       -2
340
0
 93
        0
 40
0.045
309
GRIDFORMAT_END
 95
       16
302
GRIDFORMAT
  1
GRIDFORMAT_BEGIN
 90
        0
 91
        1
 62
     0
 92
       -2
340
0
 93
        0
 40
0.045
309
GRIDFORMAT_END
 95
       32
302
GRIDFORMAT
  1
GRIDFORMAT_BEGIN
 90
        0
 91
        1
 62
     0
 92
       -2
340
0
 93
        0
 40
0.045
309
GRIDFORMAT_END
309
TABLEFORMAT_END
  1
CELLSTYLE_BEGIN
 90
        3
 91
        2
300
_DATA
309
CELLSTYLE_END
  0
XRECORD
  5
7DD
102
{ACAD_REACTORS
330
6BB
102
}
330
6BB
100
AcDbXrecord
280
     1
102
ACAD_ROUNDTRIP_PRE2007_TABLESTYLE
 90
        4
 91
        0
  1

 92
        4
 93
        0
  2

 94
        4
 95
        0
  3

  0
XRECORD
  5
7E9
102
{ACAD_REACTORS
330
7E8
102
}
330
7E8
100
AcDbXrecord
280
     1
102
RTVSPropertyOp0
 70
     1
102
RTVSPropertyOp1
 70
     1
102
RTVSPropertyOp2
 70
     1
102
RTVSPropertyOp3
 70
     1
102
RTVSPropertyOp4
 70
     1
102
RTVSPropertyOp5
 70
     1
102
RTVSPropertyOp6
 70
     1
102
RTVSPropertyOp7
 70
     1
102
RTVSPropertyOp8
 70
     1
102
RTVSPropertyOp9
 70
     1
102
RTVSPropertyOp10
 70
     1
102
RTVSPropertyOp11
 70
     1
102
RTVSPropertyOp12
 70
     1
102
RTVSPropertyOp13
 70
     1
102
RTVSPropertyOp14
 70
     1
102
RTVSPropertyOp15
 70
     1
102
RTVSPropertyOp16
 70
     1
102
RTVSPropertyOp17
 70
     1
102
RTVSPropertyOp18
 70
     1
102
RTVSPropertyOp19
 70
     1
102
RTVSPropertyOp20
 70
     1
102
RTVSPropertyOp21
 70
     1
102
RTVSPropertyOp22
 70
     1
102
RTVSPropertyOp23
 70
     1
102
RTVSPropertyOp24
 70
     1
102
RTVSPropertyOp25
 70
     1
102
RTVSPropertyOp26
 70
     1
102
RTVSPropertyOp27
 70
     1
  0
XRECORD
  5
7ED
102
{ACAD_REACTORS
330
7EC
102
}
330
7EC
100
AcDbXrecord
280
     1
102
RTVSPropertyOp0
 70
     1
102
RTVSPropertyOp1
 70
     1
102
RTVSPropertyOp2
 70
     1
102
RTVSPropertyOp3
 70
     1
102
RTVSPropertyOp4
 70
     1
102
RTVSPropertyOp5
 70
     1
102
RTVSPropertyOp6
 70
     1
102
RTVSPropertyOp7
 70
     1
102
RTVSPropertyOp8
 70
     1
102
RTVSPropertyOp9
 70
     1
102
RTVSPropertyOp10
 70
     1
102
RTVSPropertyOp11
 70
     1
102
RTVSPropertyOp12
 70
     1
102
RTVSPropertyOp13
 70
     1
102
RTVSPropertyOp14
 70
     1
102
RTVSPropertyOp15
 70
     1
102
RTVSPropertyOp16
 70
     1
102
RTVSPropertyOp17
 70
     1
102
RTVSPropertyOp18
 70
     1
102
RTVSPropertyOp19
 70
     1
102
RTVSPropertyOp20
 70
     1
102
RTVSPropertyOp21
 70
     1
102
RTVSPropertyOp22
 70
     1
102
RTVSPropertyOp23
 70
     1
102
RTVSPropertyOp24
 70
     1
102
RTVSPropertyOp25
 70
     1
102
RTVSPropertyOp26
 70
     1
102
RTVSPropertyOp27
 70
     1
  0
XRECORD
  5
7EB
102
{ACAD_REACTORS
330
7EA
102
}
330
7EA
100
AcDbXrecord
280
     1
102
RTVSPropertyOp0
 70
     1
102
RTVSPropertyOp1
 70
     1
102
RTVSPropertyOp2
 70
     1
102
RTVSPropertyOp3
 70
     1
102
RTVSPropertyOp4
 70
     1
102
RTVSPropertyOp5
 70
     1
102
RTVSPropertyOp6
 70
     1
102
RTVSPropertyOp7
 70
     1
102
RTVSPropertyOp8
 70
     1
102
RTVSPropertyOp9
 70
     1
102
RTVSPropertyOp10
 70
     1
102
RTVSPropertyOp11
 70
     1
102
RTVSPropertyOp12
 70
     1
102
RTVSPropertyOp13
 70
     1
102
RTVSPropertyOp14
 70
     1
102
RTVSPropertyOp15
 70
     1
102
RTVSPropertyOp16
 70
     1
102
RTVSPropertyOp17
 70
     1
102
RTVSPropertyOp18
 70
     1
102
RTVSPropertyOp19
 70
     1
102
RTVSPropertyOp20
 70
     1
102
RTVSPropertyOp21
 70
     1
102
RTVSPropertyOp22
 70
     1
102
RTVSPropertyOp23
 70
     1
102
RTVSPropertyOp24
 70
     1
102
RTVSPropertyOp25
 70
     1
102
RTVSPropertyOp26
 70
     1
102
RTVSPropertyOp27
 70
     1
  0
XRECORD
  5
7E7
102
{ACAD_REACTORS
330
7E6
102
}
330
7E6
100
AcDbXrecord
280
     1
102
RTVSPropertyOp0
 70
     1
102
RTVSPropertyOp1
 70
     1
102
RTVSPropertyOp2
 70
     1
102
RTVSPropertyOp3
 70
     1
102
RTVSPropertyOp4
 70
     1
102
RTVSPropertyOp5
 70
     1
102
RTVSPropertyOp6
 70
     1
102
RTVSPropertyOp7
 70
     1
102
RTVSPropertyOp8
 70
     1
102
RTVSPropertyOp9
 70
     1
102
RTVSPropertyOp10
 70
     1
102
RTVSPropertyOp11
 70
     1
102
RTVSPropertyOp12
 70
     1
102
RTVSPropertyOp13
 70
     1
102
RTVSPropertyOp14
 70
     1
102
RTVSPropertyOp15
 70
     1
102
RTVSPropertyOp16
 70
     1
102
RTVSPropertyOp17
 70
     1
102
RTVSPropertyOp18
 70
     1
102
RTVSPropertyOp19
 70
     1
102
RTVSPropertyOp20
 70
     1
102
RTVSPropertyOp21
 70
     1
102
RTVSPropertyOp22
 70
     1
102
RTVSPropertyOp23
 70
     1
102
RTVSPropertyOp24
 70
     1
102
RTVSPropertyOp25
 70
     1
102
RTVSPropertyOp26
 70
     1
102
RTVSPropertyOp27
 70
     1
  0
XRECORD
  5
7F5
102
{ACAD_REACTORS
330
7F4
102
}
330
7F4
100
AcDbXrecord
280
     1
102
RTVSPropertyOp0
 70
     1
102
RTVSPropertyOp1
 70
     1
102
RTVSPropertyOp2
 70
     1
102
RTVSPropertyOp3
 70
     1
102
RTVSPropertyOp4
 70
     1
102
RTVSPropertyOp5
 70
     1
102
RTVSPropertyOp6
 70
     1
102
RTVSPropertyOp7
 70
     1
102
RTVSPropertyOp8
 70
     1
102
RTVSPropertyOp9
 70
     1
102
RTVSPropertyOp10
 70
     1
102
RTVSPropertyOp11
 70
     1
102
RTVSPropertyOp12
 70
     1
102
RTVSPropertyOp13
 70
     1
102
RTVSPropertyOp14
 70
     1
102
RTVSPropertyOp15
 70
     1
102
RTVSPropertyOp16
 70
     1
102
RTVSPropertyOp17
 70
     1
102
RTVSPropertyOp18
 70
     1
102
RTVSPropertyOp19
 70
     1
102
RTVSPropertyOp20
 70
     1
102
RTVSPropertyOp21
 70
     1
102
RTVSPropertyOp22
 70
     1
102
RTVSPropertyOp23
 70
     1
102
RTVSPropertyOp24
 70
     1
102
RTVSPropertyOp25
 70
     1
102
RTVSPropertyOp26
 70
     1
102
RTVSPropertyOp27
 70
     1
  0
XRECORD
  5
7FD
102
{ACAD_REACTORS
330
7FC
102
}
330
7FC
100
AcDbXrecord
280
     1
102
RTVSPropertyOp0
 70
     1
102
RTVSPropertyOp1
 70
     1
102
RTVSPropertyOp2
 70
     1
102
RTVSPropertyOp3
 70
     1
102
RTVSPropertyOp4
 70
     1
102
RTVSPropertyOp5
 70
     1
102
RTVSPropertyOp6
 70
     1
102
RTVSPropertyOp7
 70
     1
102
RTVSPropertyOp8
 70
     1
102
RTVSPropertyOp9
 70
     1
102
RTVSPropertyOp10
 70
     1
102
RTVSPropertyOp11
 70
     1
102
RTVSPropertyOp12
 70
     1
102
RTVSPropertyOp13
 70
     1
102
RTVSPropertyOp14
 70
     1
102
RTVSPropertyOp15
 70
     1
102
RTVSPropertyOp16
 70
     1
102
RTVSPropertyOp17
 70
     1
102
RTVSPropertyOp18
 70
     1
102
RTVSPropertyOp19
 70
     1
102
RTVSPropertyOp20
 70
     1
102
RTVSPropertyOp21
 70
     1
102
RTVSPropertyOp22
 70
     1
102
RTVSPropertyOp23
 70
     1
102
RTVSPropertyOp24
 70
     1
102
RTVSPropertyOp25
 70
     1
102
RTVSPropertyOp26
 70
     1
102
RTVSPropertyOp27
 70
     1
  0
XRECORD
  5
7EF
102
{ACAD_REACTORS
330
7EE
102
}
330
7EE
100
AcDbXrecord
280
     1
102
RTVSPropertyOp0
 70
     1
102
RTVSPropertyOp1
 70
     1
102
RTVSPropertyOp2
 70
     1
102
RTVSPropertyOp3
 70
     1
102
RTVSPropertyOp4
 70
     1
102
RTVSPropertyOp5
 70
     1
102
RTVSPropertyOp6
 70
     1
102
RTVSPropertyOp7
 70
     1
102
RTVSPropertyOp8
 70
     1
102
RTVSPropertyOp9
 70
     1
102
RTVSPropertyOp10
 70
     1
102
RTVSPropertyOp11
 70
     1
102
RTVSPropertyOp12
 70
     1
102
RTVSPropertyOp13
 70
     1
102
RTVSPropertyOp14
 70
     1
102
RTVSPropertyOp15
 70
     1
102
RTVSPropertyOp16
 70
     1
102
RTVSPropertyOp17
 70
     1
102
RTVSPropertyOp18
 70
     1
102
RTVSPropertyOp19
 70
     1
102
RTVSPropertyOp20
 70
     1
102
RTVSPropertyOp21
 70
     1
102
RTVSPropertyOp22
 70
     1
102
RTVSPropertyOp23
 70
     1
102
RTVSPropertyOp24
 70
     1
102
RTVSPropertyOp25
 70
     1
102
RTVSPropertyOp26
 70
     1
102
RTVSPropertyOp27
 70
     1
  0
XRECORD
  5
7F3
102
{ACAD_REACTORS
330
7F2
102
}
330
7F2
100
AcDbXrecord
280
     1
102
RTVSPropertyOp0
 70
     1
102
RTVSPropertyOp1
 70
     1
102
RTVSPropertyOp2
 70
     1
102
RTVSPropertyOp3
 70
     1
102
RTVSPropertyOp4
 70
     1
102
RTVSPropertyOp5
 70
     1
102
RTVSPropertyOp6
 70
     1
102
RTVSPropertyOp7
 70
     1
102
RTVSPropertyOp8
 70
     1
102
RTVSPropertyOp9
 70
     1
102
RTVSPropertyOp10
 70
     1
102
RTVSPropertyOp11
 70
     1
102
RTVSPropertyOp12
 70
     1
102
RTVSPropertyOp13
 70
     1
102
RTVSPropertyOp14
 70
     1
102
RTVSPropertyOp15
 70
     1
102
RTVSPropertyOp16
 70
     1
102
RTVSPropertyOp17
 70
     1
102
RTVSPropertyOp18
 70
     1
102
RTVSPropertyOp19
 70
     1
102
RTVSPropertyOp20
 70
     1
102
RTVSPropertyOp21
 70
     1
102
RTVSPropertyOp22
 70
     1
102
RTVSPropertyOp23
 70
     1
102
RTVSPropertyOp24
 70
     1
102
RTVSPropertyOp25
 70
     1
102
RTVSPropertyOp26
 70
     1
102
RTVSPropertyOp27
 70
     1
  0
XRECORD
  5
803
102
{ACAD_REACTORS
330
802
102
}
330
802
100
AcDbXrecord
280
     1
102
RTVSPropertyOp0
 70
     0
102
RTVSPropertyOp1
 70
     0
102
RTVSPropertyOp2
 70
     0
102
RTVSPropertyOp3
 70
     0
102
RTVSPropertyOp4
 70
     0
102
RTVSPropertyOp5
 70
     0
102
RTVSPropertyOp6
 70
     0
102
RTVSPropertyOp7
 70
     0
102
RTVSPropertyOp8
 70
     0
102
RTVSPropertyOp9
 70
     0
102
RTVSPropertyOp10
 70
     0
102
RTVSPropertyOp11
 70
     0
102
RTVSPropertyOp12
 70
     0
102
RTVSPropertyOp13
 70
     0
102
RTVSPropertyOp14
 70
     2
102
RTVSPropertyOp15
 70
     0
102
RTVSPropertyOp16
 70
     0
102
RTVSPropertyOp17
 70
     0
102
RTVSPropertyOp18
 70
     0
102
RTVSPropertyOp19
 70
     0
102
RTVSPropertyOp20
 70
     0
102
RTVSPropertyOp21
 70
     0
102
RTVSPropertyOp22
 70
     0
102
RTVSPropertyOp23
 70
     0
102
RTVSPropertyOp24
 70
     0
102
RTVSPropertyOp25
 70
     0
102
RTVSPropertyOp26
 70
     0
102
RTVSPropertyOp27
 70
     0
  0
XRECORD
  5
7FB
102
{ACAD_REACTORS
330
7FA
102
}
330
7FA
100
AcDbXrecord
280
     1
102
RTVSPropertyOp0
 70
     1
102
RTVSPropertyOp1
 70
     1
102
RTVSPropertyOp2
 70
     1
102
RTVSPropertyOp3
 70
     1
102
RTVSPropertyOp4
 70
     1
102
RTVSPropertyOp5
 70
     1
102
RTVSPropertyOp6
 70
     1
102
RTVSPropertyOp7
 70
     1
102
RTVSPropertyOp8
 70
     1
102
RTVSPropertyOp9
 70
     1
102
RTVSPropertyOp10
 70
     1
102
RTVSPropertyOp11
 70
     1
102
RTVSPropertyOp12
 70
     1
102
RTVSPropertyOp13
 70
     1
102
RTVSPropertyOp14
 70
     1
102
RTVSPropertyOp15
 70
     1
102
RTVSPropertyOp16
 70
     1
102
RTVSPropertyOp17
 70
     1
102
RTVSPropertyOp18
 70
     1
102
RTVSPropertyOp19
 70
     1
102
RTVSPropertyOp20
 70
     1
102
RTVSPropertyOp21
 70
     1
102
RTVSPropertyOp22
 70
     1
102
RTVSPropertyOp23
 70
     1
102
RTVSPropertyOp24
 70
     1
102
RTVSPropertyOp25
 70
     1
102
RTVSPropertyOp26
 70
     1
102
RTVSPropertyOp27
 70
     1
  0
XRECORD
  5
7DF
102
{ACAD_REACTORS
330
7DE
102
}
330
7DE
100
AcDbXrecord
280
     1
102
RTVSPropertyOp0
 70
     1
102
RTVSPropertyOp1
 70
     1
102
RTVSPropertyOp2
 70
     1
102
RTVSPropertyOp3
 70
     1
102
RTVSPropertyOp4
 70
     1
102
RTVSPropertyOp5
 70
     1
102
RTVSPropertyOp6
 70
     1
102
RTVSPropertyOp7
 70
     1
102
RTVSPropertyOp8
 70
     1
102
RTVSPropertyOp9
 70
     1
102
RTVSPropertyOp10
 70
     1
102
RTVSPropertyOp11
 70
     1
102
RTVSPropertyOp12
 70
     1
102
RTVSPropertyOp13
 70
     1
102
RTVSPropertyOp14
 70
     1
102
RTVSPropertyOp15
 70
     1
102
RTVSPropertyOp16
 70
     1
102
RTVSPropertyOp17
 70
     1
102
RTVSPropertyOp18
 70
     1
102
RTVSPropertyOp19
 70
     1
102
RTVSPropertyOp20
 70
     1
102
RTVSPropertyOp21
 70
     1
102
RTVSPropertyOp22
 70
     1
102
RTVSPropertyOp23
 70
     1
102
RTVSPropertyOp24
 70
     1
102
RTVSPropertyOp25
 70
     1
102
RTVSPropertyOp26
 70
     1
102
RTVSPropertyOp27
 70
     1
  0
XRECORD
  5
7E1
102
{ACAD_REACTORS
330
7E0
102
}
330
7E0
100
AcDbXrecord
280
     1
102
RTVSPropertyOp0
 70
     1
102
RTVSPropertyOp1
 70
     1
102
RTVSPropertyOp2
 70
     1
102
RTVSPropertyOp3
 70
     1
102
RTVSPropertyOp4
 70
     1
102
RTVSPropertyOp5
 70
     1
102
RTVSPropertyOp6
 70
     1
102
RTVSPropertyOp7
 70
     1
102
RTVSPropertyOp8
 70
     1
102
RTVSPropertyOp9
 70
     1
102
RTVSPropertyOp10
 70
     1
102
RTVSPropertyOp11
 70
     1
102
RTVSPropertyOp12
 70
     1
102
RTVSPropertyOp13
 70
     1
102
RTVSPropertyOp14
 70
     1
102
RTVSPropertyOp15
 70
     1
102
RTVSPropertyOp16
 70
     1
102
RTVSPropertyOp17
 70
     1
102
RTVSPropertyOp18
 70
     1
102
RTVSPropertyOp19
 70
     1
102
RTVSPropertyOp20
 70
     1
102
RTVSPropertyOp21
 70
     1
102
RTVSPropertyOp22
 70
     1
102
RTVSPropertyOp23
 70
     1
102
RTVSPropertyOp24
 70
     1
102
RTVSPropertyOp25
 70
     1
102
RTVSPropertyOp26
 70
     1
102
RTVSPropertyOp27
 70
     1
  0
XRECORD
  5
7E3
102
{ACAD_REACTORS
330
7E2
102
}
330
7E2
100
AcDbXrecord
280
     1
102
RTVSPropertyOp0
 70
     1
102
RTVSPropertyOp1
 70
     1
102
RTVSPropertyOp2
 70
     1
102
RTVSPropertyOp3
 70
     1
102
RTVSPropertyOp4
 70
     1
102
RTVSPropertyOp5
 70
     1
102
RTVSPropertyOp6
 70
     1
102
RTVSPropertyOp7
 70
     1
102
RTVSPropertyOp8
 70
     1
102
RTVSPropertyOp9
 70
     1
102
RTVSPropertyOp10
 70
     1
102
RTVSPropertyOp11
 70
     1
102
RTVSPropertyOp12
 70
     1
102
RTVSPropertyOp13
 70
     1
102
RTVSPropertyOp14
 70
     1
102
RTVSPropertyOp15
 70
     1
102
RTVSPropertyOp16
 70
     1
102
RTVSPropertyOp17
 70
     1
102
RTVSPropertyOp18
 70
     1
102
RTVSPropertyOp19
 70
     1
102
RTVSPropertyOp20
 70
     1
102
RTVSPropertyOp21
 70
     1
102
RTVSPropertyOp22
 70
     1
102
RTVSPropertyOp23
 70
     1
102
RTVSPropertyOp24
 70
     1
102
RTVSPropertyOp25
 70
     1
102
RTVSPropertyOp26
 70
     1
102
RTVSPropertyOp27
 70
     1
  0
XRECORD
  5
7E5
102
{ACAD_REACTORS
330
7E4
102
}
330
7E4
100
AcDbXrecord
280
     1
102
RTVSPropertyOp0
 70
     1
102
RTVSPropertyOp1
 70
     1
102
RTVSPropertyOp2
 70
     1
102
RTVSPropertyOp3
 70
     1
102
RTVSPropertyOp4
 70
     1
102
RTVSPropertyOp5
 70
     1
102
RTVSPropertyOp6
 70
     1
102
RTVSPropertyOp7
 70
     1
102
RTVSPropertyOp8
 70
     1
102
RTVSPropertyOp9
 70
     1
102
RTVSPropertyOp10
 70
     1
102
RTVSPropertyOp11
 70
     1
102
RTVSPropertyOp12
 70
     1
102
RTVSPropertyOp13
 70
     1
102
RTVSPropertyOp14
 70
     1
102
RTVSPropertyOp15
 70
     1
102
RTVSPropertyOp16
 70
     1
102
RTVSPropertyOp17
 70
     1
102
RTVSPropertyOp18
 70
     1
102
RTVSPropertyOp19
 70
     1
102
RTVSPropertyOp20
 70
     1
102
RTVSPropertyOp21
 70
     1
102
RTVSPropertyOp22
 70
     1
102
RTVSPropertyOp23
 70
     1
102
RTVSPropertyOp24
 70
     1
102
RTVSPropertyOp25
 70
     1
102
RTVSPropertyOp26
 70
     1
102
RTVSPropertyOp27
 70
     1
  0
XRECORD
  5
7FF
102
{ACAD_REACTORS
330
7FE
102
}
330
7FE
100
AcDbXrecord
280
     1
102
RTVSPropertyOp0
 70
     0
102
RTVSPropertyOp1
 70
     0
102
RTVSPropertyOp2
 70
     0
102
RTVSPropertyOp3
 70
     0
102
RTVSPropertyOp4
 70
     0
102
RTVSPropertyOp5
 70
     0
102
RTVSPropertyOp6
 70
     0
102
RTVSPropertyOp7
 70
     0
102
RTVSPropertyOp8
 70
     0
102
RTVSPropertyOp9
 70
     0
102
RTVSPropertyOp10
 70
     0
102
RTVSPropertyOp11
 70
     0
102
RTVSPropertyOp12
 70
     0
102
RTVSPropertyOp13
 70
     0
102
RTVSPropertyOp14
 70
     2
102
RTVSPropertyOp15
 70
     0
102
RTVSPropertyOp16
 70
     0
102
RTVSPropertyOp17
 70
     0
102
RTVSPropertyOp18
 70
     0
102
RTVSPropertyOp19
 70
     0
102
RTVSPropertyOp20
 70
     0
102
RTVSPropertyOp21
 70
     0
102
RTVSPropertyOp22
 70
     0
102
RTVSPropertyOp23
 70
     0
102
RTVSPropertyOp24
 70
     0
102
RTVSPropertyOp25
 70
     0
102
RTVSPropertyOp26
 70
     0
102
RTVSPropertyOp27
 70
     0
  0
XRECORD
  5
7F9
102
{ACAD_REACTORS
330
7F8
102
}
330
7F8
100
AcDbXrecord
280
     1
102
RTVSPropertyOp0
 70
     1
102
RTVSPropertyOp1
 70
     1
102
RTVSPropertyOp2
 70
     1
102
RTVSPropertyOp3
 70
     1
102
RTVSPropertyOp4
 70
     1
102
RTVSPropertyOp5
 70
     1
102
RTVSPropertyOp6
 70
     1
102
RTVSPropertyOp7
 70
     1
102
RTVSPropertyOp8
 70
     1
102
RTVSPropertyOp9
 70
     1
102
RTVSPropertyOp10
 70
     1
102
RTVSPropertyOp11
 70
     1
102
RTVSPropertyOp12
 70
     1
102
RTVSPropertyOp13
 70
     1
102
RTVSPropertyOp14
 70
     1
102
RTVSPropertyOp15
 70
     1
102
RTVSPropertyOp16
 70
     1
102
RTVSPropertyOp17
 70
     1
102
RTVSPropertyOp18
 70
     1
102
RTVSPropertyOp19
 70
     1
102
RTVSPropertyOp20
 70
     1
102
RTVSPropertyOp21
 70
     1
102
RTVSPropertyOp22
 70
     1
102
RTVSPropertyOp23
 70
     1
102
RTVSPropertyOp24
 70
     1
102
RTVSPropertyOp25
 70
     1
102
RTVSPropertyOp26
 70
     1
102
RTVSPropertyOp27
 70
     1
  0
XRECORD
  5
801
102
{ACAD_REACTORS
330
800
102
}
330
800
100
AcDbXrecord
280
     1
102
RTVSPropertyOp0
 70
     0
102
RTVSPropertyOp1
 70
     0
102
RTVSPropertyOp2
 70
     0
102
RTVSPropertyOp3
 70
     0
102
RTVSPropertyOp4
 70
     0
102
RTVSPropertyOp5
 70
     0
102
RTVSPropertyOp6
 70
     0
102
RTVSPropertyOp7
 70
     0
102
RTVSPropertyOp8
 70
     0
102
RTVSPropertyOp9
 70
     0
102
RTVSPropertyOp10
 70
     0
102
RTVSPropertyOp11
 70
     0
102
RTVSPropertyOp12
 70
     0
102
RTVSPropertyOp13
 70
     0
102
RTVSPropertyOp14
 70
     2
102
RTVSPropertyOp15
 70
     0
102
RTVSPropertyOp16
 70
     0
102
RTVSPropertyOp17
 70
     0
102
RTVSPropertyOp18
 70
     0
102
RTVSPropertyOp19
 70
     0
102
RTVSPropertyOp20
 70
     0
102
RTVSPropertyOp21
 70
     0
102
RTVSPropertyOp22
 70
     0
102
RTVSPropertyOp23
 70
     0
102
RTVSPropertyOp24
 70
     0
102
RTVSPropertyOp25
 70
     0
102
RTVSPropertyOp26
 70
     0
102
RTVSPropertyOp27
 70
     0
  0
XRECORD
  5
7F1
102
{ACAD_REACTORS
330
7F0
102
}
330
7F0
100
AcDbXrecord
280
     1
102
RTVSPropertyOp0
 70
     1
102
RTVSPropertyOp1
 70
     1
102
RTVSPropertyOp2
 70
     1
102
RTVSPropertyOp3
 70
     1
102
RTVSPropertyOp4
 70
     1
102
RTVSPropertyOp5
 70
     1
102
RTVSPropertyOp6
 70
     1
102
RTVSPropertyOp7
 70
     1
102
RTVSPropertyOp8
 70
     1
102
RTVSPropertyOp9
 70
     1
102
RTVSPropertyOp10
 70
     1
102
RTVSPropertyOp11
 70
     1
102
RTVSPropertyOp12
 70
     1
102
RTVSPropertyOp13
 70
     1
102
RTVSPropertyOp14
 70
     1
102
RTVSPropertyOp15
 70
     1
102
RTVSPropertyOp16
 70
     1
102
RTVSPropertyOp17
 70
     1
102
RTVSPropertyOp18
 70
     1
102
RTVSPropertyOp19
 70
     1
102
RTVSPropertyOp20
 70
     1
102
RTVSPropertyOp21
 70
     1
102
RTVSPropertyOp22
 70
     1
102
RTVSPropertyOp23
 70
     1
102
RTVSPropertyOp24
 70
     1
102
RTVSPropertyOp25
 70
     1
102
RTVSPropertyOp26
 70
     1
102
RTVSPropertyOp27
 70
     1
  0
XRECORD
  5
7F7
102
{ACAD_REACTORS
330
7F6
102
}
330
7F6
100
AcDbXrecord
280
     1
102
RTVSPropertyOp0
 70
     1
102
RTVSPropertyOp1
 70
     1
102
RTVSPropertyOp2
 70
     1
102
RTVSPropertyOp3
 70
     1
102
RTVSPropertyOp4
 70
     1
102
RTVSPropertyOp5
 70
     1
102
RTVSPropertyOp6
 70
     1
102
RTVSPropertyOp7
 70
     1
102
RTVSPropertyOp8
 70
     1
102
RTVSPropertyOp9
 70
     1
102
RTVSPropertyOp10
 70
     1
102
RTVSPropertyOp11
 70
     1
102
RTVSPropertyOp12
 70
     1
102
RTVSPropertyOp13
 70
     1
102
RTVSPropertyOp14
 70
     1
102
RTVSPropertyOp15
 70
     1
102
RTVSPropertyOp16
 70
     1
102
RTVSPropertyOp17
 70
     1
102
RTVSPropertyOp18
 70
     1
102
RTVSPropertyOp19
 70
     1
102
RTVSPropertyOp20
 70
     1
102
RTVSPropertyOp21
 70
     1
102
RTVSPropertyOp22
 70
     1
102
RTVSPropertyOp23
 70
     1
102
RTVSPropertyOp24
 70
     1
102
RTVSPropertyOp25
 70
     1
102
RTVSPropertyOp26
 70
     1
102
RTVSPropertyOp27
 70
     1
  0
ENDSEC
  0
EOF
