  0
SECTION
  2
HEADER
  9
$ACADVER
  1
AC1014
  9
$ACADMAINTVER
 70
     9
  9
$DWGCODEPAGE
  3
ANSI_932
  9
$INSBASE
 10
0.0
 20
0.0
 30
0.0
  9
$EXTMIN
 10
141.4423388210825
 20
18.95118973663261
 30
-0.0015258207003583
  9
$EXTMAX
 10
952.4142471098757
 20
501.219934594508
 30
0.0000000349246037
  9
$LIMMIN
 10
0.0
 20
0.0
  9
$LIMMAX
 10
554.0
 20
395.0
  9
$ORTHOMODE
 70
     1
  9
$REGENMODE
 70
     1
  9
$FILLMODE
 70
     1
  9
$QTEXTMODE
 70
     0
  9
$MIRRTEXT
 70
     0
  9
$DRAGMODE
 70
     2
  9
$LTSCALE
 40
12.0
  9
$OSMODE
 70
    37
  9
$ATTMODE
 70
     1
  9
$TEXTSIZE
 40
3.0
  9
$TRACEWID
 40
0.05
  9
$TEXTSTYLE
  7
KANJI
  9
$CLAYER
  8
10
  9
$CELTYPE
  6
BYLAYER
  9
$CECOLOR
 62
     4
  9
$CELTSCALE
 40
1.0
  9
$DELOBJ
 70
     1
  9
$DISPSILH
 70
     0
  9
$DIMSCALE
 40
1.0
  9
$DIMASZ
 40
2.2
  9
$DIMEXO
 40
0.0625
  9
$DIMDLI
 40
0.38
  9
$DIMRND
 40
0.05
  9
$DIMDLE
 40
0.0
  9
$DIMEXE
 40
2.5
  9
$DIMTP
 40
0.0
  9
$DIMTM
 40
0.0
  9
$DIMTXT
 40
5.0
  9
$DIMCEN
 40
0.09
  9
$DIMTSZ
 40
0.0
  9
$DIMTOL
 70
     0
  9
$DIMLIM
 70
     0
  9
$DIMTIH
 70
     0
  9
$DIMTOH
 70
     0
  9
$DIMSE1
 70
     0
  9
$DIMSE2
 70
     0
  9
$DIMTAD
 70
     1
  9
$DIMZIN
 70
     0
  9
$DIMBLK
  1
OPEN30
  9
$DIMASO
 70
     1
  9
$DIMSHO
 70
     1
  9
$DIMPOST
  1

  9
$DIMAPOST
  1

  9
$DIMALT
 70
     0
  9
$DIMALTD
 70
     2
  9
$DIMALTF
 40
25.4
  9
$DIMLFAC
 40
1.0
  9
$DIMTOFL
 70
     0
  9
$DIMTVP
 40
0.0
  9
$DIMTIX
 70
     0
  9
$DIMSOXD
 70
     0
  9
$DIMSAH
 70
     0
  9
$DIMBLK1
  1

  9
$DIMBLK2
  1

  9
$DIMSTYLE
  2
STANDARD
  9
$DIMCLRD
 70
     4
  9
$DIMCLRE
 70
     4
  9
$DIMCLRT
 70
     4
  9
$DIMTFAC
 40
1.0
  9
$DIMGAP
 40
2.0
  9
$DIMJUST
 70
     0
  9
$DIMSD1
 70
     0
  9
$DIMSD2
 70
     0
  9
$DIMTOLJ
 70
     1
  9
$DIMTZIN
 70
     0
  9
$DIMALTZ
 70
     0
  9
$DIMALTTZ
 70
     0
  9
$DIMFIT
 70
     3
  9
$DIMUPT
 70
     0
  9
$DIMUNIT
 70
     2
  9
$DIMDEC
 70
     0
  9
$DIMTDEC
 70
     0
  9
$DIMALTU
 70
     2
  9
$DIMALTTD
 70
     2
  9
$DIMTXSTY
  7
STANDARD
  9
$DIMAUNIT
 70
     0
  9
$LUNITS
 70
     2
  9
$LUPREC
 70
     4
  9
$SKETCHINC
 40
0.1
  9
$FILLETRAD
 40
0.0
  9
$AUNITS
 70
     0
  9
$AUPREC
 70
     0
  9
$MENU
  1
C:\Tcad\TCAD\tcad-s
  9
$ELEVATION
 40
0.0
  9
$PELEVATION
 40
0.0
  9
$THICKNESS
 40
0.0
  9
$LIMCHECK
 70
     0
  9
$BLIPMODE
 70
     0
  9
$CHAMFERA
 40
0.0
  9
$CHAMFERB
 40
0.0
  9
$CHAMFERC
 40
0.0
  9
$CHAMFERD
 40
0.0
  9
$SKPOLY
 70
     0
  9
$TDCREATE
 40
2450752.336623958
  9
$TDUPDATE
 40
2452145.686189120
  9
$TDINDWG
 40
0.4694686343
  9
$TDUSRTIMER
 40
0.4694686343
  9
$USRTIMER
 70
     1
  9
$ANGBASE
 50
0.0
  9
$ANGDIR
 70
     0
  9
$PDMODE
 70
    35
  9
$PDSIZE
 40
23.99999999999998
  9
$PLINEWID
 40
0.0
  9
$COORDS
 70
     1
  9
$SPLFRAME
 70
     0
  9
$SPLINETYPE
 70
     6
  9
$SPLINESEGS
 70
     8
  9
$ATTDIA
 70
     0
  9
$ATTREQ
 70
     1
  9
$HANDLING
 70
-16383
  9
$HANDSEED
  5
64CF
  9
$SURFTAB1
 70
     6
  9
$SURFTAB2
 70
     6
  9
$SURFTYPE
 70
     6
  9
$SURFU
 70
     6
  9
$SURFV
 70
     6
  9
$UCSNAME
  2

  9
$UCSORG
 10
0.0
 20
0.0
 30
0.0
  9
$UCSXDIR
 10
1.0
 20
0.0
 30
0.0
  9
$UCSYDIR
 10
0.0
 20
1.0
 30
0.0
  9
$PUCSNAME
  2

  9
$PUCSORG
 10
0.0
 20
0.0
 30
0.0
  9
$PUCSXDIR
 10
1.0
 20
0.0
 30
0.0
  9
$PUCSYDIR
 10
0.0
 20
1.0
 30
0.0
  9
$USERI1
 70
     0
  9
$USERI2
 70
     0
  9
$USERI3
 70
     0
  9
$USERI4
 70
     0
  9
$USERI5
 70
     0
  9
$USERR1
 40
0.0
  9
$USERR2
 40
0.0
  9
$USERR3
 40
0.0
  9
$USERR4
 40
0.0
  9
$USERR5
 40
0.0
  9
$WORLDVIEW
 70
     1
  9
$SHADEDGE
 70
     3
  9
$SHADEDIF
 70
    70
  9
$TILEMODE
 70
     1
  9
$MAXACTVP
 70
    16
  9
$PINSBASE
 10
0.0
 20
0.0
 30
0.0
  9
$PLIMCHECK
 70
     0
  9
$PEXTMIN
 10
1.000000000000000E+20
 20
1.000000000000000E+20
 30
1.000000000000000E+20
  9
$PEXTMAX
 10
-1.000000000000000E+20
 20
-1.000000000000000E+20
 30
-1.000000000000000E+20
  9
$PLIMMIN
 10
0.0
 20
0.0
  9
$PLIMMAX
 10
12.0
 20
9.0
  9
$UNITMODE
 70
     0
  9
$VISRETAIN
 70
     0
  9
$PLINEGEN
 70
     0
  9
$PSLTSCALE
 70
     1
  9
$TREEDEPTH
 70
  3020
  9
$PICKSTYLE
 70
     1
  9
$CMLSTYLE
  2
STANDARD
  9
$CMLJUST
 70
     0
  9
$CMLSCALE
 40
1.0
  9
$PROXYGRAPHICS
 70
     1
  9
$MEASUREMENT
 70
     0
  0
ENDSEC
  0
SECTION
  2
CLASSES
  0
CLASS
  1
LWPOLYLINE
  2
AcDbPolyline
  3
AutoCAD 2000
 90
        0
280
     0
281
     1
  0
CLASS
  1
DICTIONARYVAR
  2
AcDbDictionaryVar
  3
AutoCAD 2000
 90
        0
280
     0
281
     0
  0
CLASS
  1
HATCH
  2
AcDbHatch
  3
AutoCAD 2000
 90
        0
280
     0
281
     1
  0
CLASS
  1
ACDBDICTIONARYWDFLT
  2
AcDbDictionaryWithDefault
  3
AutoCAD 2000
 90
        0
280
     0
281
     0
  0
CLASS
  1
ACDBPLACEHOLDER
  2
AcDbPlaceHolder
  3
AutoCAD 2000
 90
        0
280
     0
281
     0
  0
CLASS
  1
LAYOUT
  2
AcDbLayout
  3
AutoCAD 2000
 90
        0
280
     0
281
     0
  0
CLASS
  1
LONG_TRANSACTION
  2
AcDbLongTransaction
  3
AutoCAD 2000
 90
        0
280
     0
281
     0
  0
CLASS
  1
LWPOLYLINE
  2
AcDbPolyline
  3
AutoCAD 2000
 90
        0
280
     0
281
     1
  0
CLASS
  1
HATCH
  2
AcDbHatch
  3
AutoCAD 2000
 90
        0
280
     0
281
     1
  0
CLASS
  1
XRECORD
  2
AcDbXrecord
  3
AutoCAD 2000
 90
        0
280
     0
281
     0
  0
CLASS
  1
LONG_TRANSACTION
  2
AcDbLongTransaction
  3
AutoCAD 2000
 90
        0
280
     0
281
     0
  0
CLASS
  1
LWPOLYLINE
  2
AcDbPolyline
  3
AutoCAD 2000
 90
        0
280
     0
281
     1
  0
CLASS
  1
HATCH
  2
AcDbHatch
  3
AutoCAD 2000
 90
        0
280
     0
281
     1
  0
CLASS
  1
XRECORD
  2
AcDbXrecord
  3
AutoCAD 2000
 90
        0
280
     0
281
     0
  0
CLASS
  1
LONG_TRANSACTION
  2
AcDbLongTransaction
  3
AutoCAD 2000
 90
        0
280
     0
281
     0
  0
CLASS
  1
LWPOLYLINE
  2
AcDbPolyline
  3
AutoCAD 2000
 90
        0
280
     0
281
     1
  0
CLASS
  1
HATCH
  2
AcDbHatch
  3
AutoCAD 2000
 90
        0
280
     0
281
     1
  0
CLASS
  1
XRECORD
  2
AcDbXrecord
  3
AutoCAD 2000
 90
        0
280
     0
281
     0
  0
CLASS
  1
LONG_TRANSACTION
  2
AcDbLongTransaction
  3
AutoCAD 2000
 90
        0
280
     0
281
     0
  0
CLASS
  1
LWPOLYLINE
  2
AcDbPolyline
  3
AutoCAD 2000
 90
        0
280
     0
281
     1
  0
CLASS
  1
HATCH
  2
AcDbHatch
  3
AutoCAD 2000
 90
        0
280
     0
281
     1
  0
CLASS
  1
XRECORD
  2
AcDbXrecord
  3
AutoCAD 2000
 90
        0
280
     0
281
     0
  0
CLASS
  1
LONG_TRANSACTION
  2
AcDbLongTransaction
  3
AutoCAD 2000
 90
        0
280
     0
281
     0
  0
CLASS
  1
LWPOLYLINE
  2
AcDbPolyline
  3
AutoCAD 2000
 90
        0
280
     0
281
     1
  0
CLASS
  1
HATCH
  2
AcDbHatch
  3
AutoCAD 2000
 90
        0
280
     0
281
     1
  0
CLASS
  1
XRECORD
  2
AcDbXrecord
  3
AutoCAD 2000
 90
        0
280
     0
281
     0
  0
ENDSEC
  0
SECTION
  2
TABLES
  0
TABLE
  2
VPORT
  5
8
330
0
100
AcDbSymbolTable
 70
     2
  0
VPORT
  5
64AB
330
8
100
AcDbSymbolTableRecord
100
AcDbViewportTableRecord
  2
*ACTIVE
 70
     0
 10
0.0
 20
0.0
 11
1.0
 21
1.0
 12
476.2071235549377
 22
250.609967297254
 13
0.0
 23
0.0
 14
1.0
 24
1.0
 15
0.0
 25
0.0
 16
0.0
 26
0.0
 36
1.0
 17
0.0
 27
0.0
 37
0.0
 40
546.3727876144944
 41
1.754158964879852
 42
50.0
 43
0.0
 44
0.0
 50
0.0
 51
0.0
 71
     0
 72
  1000
 73
     1
 74
     1
 75
     0
 76
     0
 77
     0
 78
     0
  0
ENDTAB
  0
TABLE
  2
LTYPE
  5
5
330
0
100
AcDbSymbolTable
 70
     5
  0
LTYPE
  5
14
330
5
100
AcDbSymbolTableRecord
100
AcDbLinetypeTableRecord
  2
BYBLOCK
 70
     0
  3

 72
    65
 73
     0
 40
0.0
  0
LTYPE
  5
15
330
5
100
AcDbSymbolTableRecord
100
AcDbLinetypeTableRecord
  2
BYLAYER
 70
     0
  3

 72
    65
 73
     0
 40
0.0
  0
LTYPE
  5
16
330
5
100
AcDbSymbolTableRecord
100
AcDbLinetypeTableRecord
  2
CONTINUOUS
 70
     0
  3
Solid line
 72
    65
 73
     0
 40
0.0
  0
LTYPE
  5
37
330
5
100
AcDbSymbolTableRecord
100
AcDbLinetypeTableRecord
  2
CENTER
 70
     0
  3
____ _ ____ _ ____ _ ____ _ ____ _ ____ _ ____ 
 72
    65
 73
     4
 40
2.0
 49
1.25
 74
     0
 49
-0.25
 74
     0
 49
0.25
 74
     0
 49
-0.25
 74
     0
  0
LTYPE
  5
1FC
330
5
100
AcDbSymbolTableRecord
100
AcDbLinetypeTableRecord
  2
HIDDEN2
 70
     0
  3
_ _ _ _ _ _ _ _ _ _ _ _ _ _ _ _ _ _ _ _ _ _ _ _
 72
    65
 73
     2
 40
0.1875
 49
0.125
 74
     0
 49
-0.0625
 74
     0
  0
LTYPE
  5
1FE
330
5
100
AcDbSymbolTableRecord
100
AcDbLinetypeTableRecord
  2
PHANTOM2
 70
     0
  3
___ _ _ ___ _ _ ___ _ _ ___ _ _ ___ _ _ ___ _ _
 72
    65
 73
     6
 40
1.25
 49
0.625
 74
     0
 49
-0.125
 74
     0
 49
0.125
 74
     0
 49
-0.125
 74
     0
 49
0.125
 74
     0
 49
-0.125
 74
     0
  0
LTYPE
  5
3E5
330
5
100
AcDbSymbolTableRecord
100
AcDbLinetypeTableRecord
  2
DASHED
 70
     0
  3
Dashed line
 72
    65
 73
     2
 40
0.75
 49
0.5
 74
     0
 49
-0.25
 74
     0
  0
ENDTAB
  0
TABLE
  2
LAYER
  5
2
330
0
100
AcDbSymbolTable
 70
     9
  0
LAYER
  5
F
330
2
100
AcDbSymbolTableRecord
100
AcDbLayerTableRecord
  2
0
 70
     0
 62
     2
  6
CONTINUOUS
  0
LAYER
  5
40
330
2
100
AcDbSymbolTableRecord
100
AcDbLayerTableRecord
  2
パターン
 70
     0
 62
     8
  6
CONTINUOUS
  0
LAYER
  5
3E7
330
2
100
AcDbSymbolTableRecord
100
AcDbLayerTableRecord
  2
210
 70
     0
 62
     4
  6
CONTINUOUS
  0
LAYER
  5
3E8
330
2
100
AcDbSymbolTableRecord
100
AcDbLayerTableRecord
  2
170
 70
     0
 62
     1
  6
CONTINUOUS
  0
LAYER
  5
3EA
330
2
100
AcDbSymbolTableRecord
100
AcDbLayerTableRecord
  2
150
 70
     0
 62
     7
  6
CONTINUOUS
  0
LAYER
  5
3EC
330
2
100
AcDbSymbolTableRecord
100
AcDbLayerTableRecord
  2
225
 70
     0
 62
     3
  6
CONTINUOUS
  0
LAYER
  5
3ED
330
2
100
AcDbSymbolTableRecord
100
AcDbLayerTableRecord
  2
230
 70
     0
 62
     6
  6
CONTINUOUS
  0
LAYER
  5
3EF
330
2
100
AcDbSymbolTableRecord
100
AcDbLayerTableRecord
  2
10
 70
     0
 62
     7
  6
CONTINUOUS
  0
LAYER
  5
3F0
330
2
100
AcDbSymbolTableRecord
100
AcDbLayerTableRecord
  2
DEFPOINTS
 70
     0
 62
     7
  6
CONTINUOUS
  0
ENDTAB
  0
TABLE
  2
STYLE
  5
3
330
0
100
AcDbSymbolTable
 70
     2
  0
STYLE
  5
10
330
3
100
AcDbSymbolTableRecord
100
AcDbTextStyleTableRecord
  2
STANDARD
 70
     0
 40
0.0
 41
1.0
 50
0.0
 71
     0
 42
30.0
  3
ROMANS
  4
BIGFONT
  0
STYLE
  5
108
330
3
100
AcDbSymbolTableRecord
100
AcDbTextStyleTableRecord
  2
KANJI
 70
     0
 40
0.0
 41
0.8
 50
0.0
 71
     0
 42
3.0
  3
romans
  4
bigfont
  0
ENDTAB
  0
TABLE
  2
VIEW
  5
6
330
0
100
AcDbSymbolTable
 70
     0
  0
ENDTAB
  0
TABLE
  2
UCS
  5
7
330
0
100
AcDbSymbolTable
 70
     0
  0
ENDTAB
  0
TABLE
  2
APPID
  5
9
330
0
100
AcDbSymbolTable
 70
     1
  0
APPID
  5
11
330
9
100
AcDbSymbolTableRecord
100
AcDbRegAppTableRecord
  2
ACAD
 70
     0
  0
ENDTAB
  0
TABLE
  2
DIMSTYLE
  5
A
330
0
100
AcDbSymbolTable
 70
     1
  0
DIMSTYLE
105
1D
330
A
100
AcDbSymbolTableRecord
100
AcDbDimStyleTableRecord
  2
STANDARD
 70
     0
  3

  4

  5
OPEN30
  6

  7

 40
1.0
 41
2.2
 42
0.0625
 43
0.38
 44
2.5
 45
0.05
 46
0.0
 47
0.0
 48
0.0
140
5.0
141
0.09
142
0.0
143
25.4
144
1.0
145
0.0
146
1.0
147
2.0
 71
     0
 72
     0
 73
     0
 74
     0
 75
     0
 76
     0
 77
     1
 78
     0
170
     0
171
     2
172
     0
173
     0
174
     0
175
     0
176
     4
177
     4
178
     4
270
     2
271
     0
272
     0
273
     2
274
     2
340
10
275
     0
280
     0
281
     0
282
     0
283
     1
284
     0
285
     0
286
     0
287
     3
288
     0
  0
ENDTAB
  0
TABLE
  2
BLOCK_RECORD
  5
1
330
0
100
AcDbSymbolTable
 70
     2
  0
BLOCK_RECORD
  5
1A
102
{ACAD_XDICTIONARY
360
1BF7
102
}
330
1
100
AcDbSymbolTableRecord
100
AcDbBlockTableRecord
  2
*MODEL_SPACE
  0
BLOCK_RECORD
  5
17
102
{ACAD_XDICTIONARY
360
1BF5
102
}
330
1
100
AcDbSymbolTableRecord
100
AcDbBlockTableRecord
  2
*PAPER_SPACE
  0
BLOCK_RECORD
  5
32
330
1
100
AcDbSymbolTableRecord
100
AcDbBlockTableRecord
  2
TCAD
  0
BLOCK_RECORD
  5
3A8D
330
1
100
AcDbSymbolTableRecord
100
AcDbBlockTableRecord
  2
_OPEN30
  0
ENDTAB
  0
ENDSEC
  0
SECTION
  2
BLOCKS
  0
BLOCK
  5
1B
330
1A
100
AcDbEntity
  8
0
100
AcDbBlockBegin
  2
*MODEL_SPACE
 70
     0
 10
0.0
 20
0.0
 30
0.0
  3
*MODEL_SPACE
  1

  0
ENDBLK
  5
1C
330
1A
100
AcDbEntity
  8
0
100
AcDbBlockEnd
  0
BLOCK
  5
18
330
17
100
AcDbEntity
 67
     1
  8
0
100
AcDbBlockBegin
  2
*PAPER_SPACE
 70
     0
 10
0.0
 20
0.0
 30
0.0
  3
*PAPER_SPACE
  1

  0
ENDBLK
  5
19
330
17
100
AcDbEntity
 67
     1
  8
0
100
AcDbBlockEnd
  0
BLOCK
  5
33
330
32
100
AcDbEntity
  8
0
100
AcDbBlockBegin
  2
TCAD
 70
     0
 10
0.0
 20
0.0
 30
0.0
  3
TCAD
  1

  0
ENDBLK
  5
34
330
32
100
AcDbEntity
  8
0
100
AcDbBlockEnd
  0
BLOCK
  5
3A91
330
3A8D
100
AcDbEntity
  8
0
 62
     2
100
AcDbBlockBegin
  2
_OPEN30
 70
     0
 10
0.0
 20
0.0
 30
0.0
  3
_OPEN30
  1

  0
LINE
  5
3A8E
330
3A8D
100
AcDbEntity
  8
0
  6
BYBLOCK
 62
     0
100
AcDbLine
 10
-1.0
 20
0.26794919
 30
0.0
 11
0.0
 21
0.0
 31
0.0
  0
LINE
  5
3A8F
330
3A8D
100
AcDbEntity
  8
0
  6
BYBLOCK
 62
     0
100
AcDbLine
 10
0.0
 20
0.0
 30
0.0
 11
-1.0
 21
-0.26794919
 31
0.0
  0
LINE
  5
3A90
330
3A8D
100
AcDbEntity
  8
0
  6
BYBLOCK
 62
     0
100
AcDbLine
 10
0.0
 20
0.0
 30
0.0
 11
-1.0
 21
0.0
 31
0.0
  0
ENDBLK
  5
3A92
330
3A8D
100
AcDbEntity
  8
0
 62
     2
100
AcDbBlockEnd
  0
ENDSEC
  0
SECTION
  2
ENTITIES
  0
INSERT
  5
109
330
1A
100
AcDbEntity
  8
パターン
100
AcDbBlockReference
  2
TCAD
 10
0.0
 20
0.0
 30
0.0
  0
INSERT
  5
10A
330
1A
100
AcDbEntity
  8
パターン
100
AcDbBlockReference
  2
TCAD
 10
0.0
 20
0.0
 30
0.0
  0
LINE
  5
58D5
330
1A
100
AcDbEntity
  8
210
  6
CONTINUOUS
 62
     4
100
AcDbLine
 10
434.346066996578
 20
408.079576875839
 30
0.0
 11
466.221401996578
 21
408.079576875839
 31
0.0
  0
LINE
  5
58D6
330
1A
100
AcDbEntity
  8
210
  6
CONTINUOUS
 62
     4
100
AcDbLine
 10
387.346066996578
 20
438.079576875839
 30
0.0
 11
466.221401996578
 21
438.079576875839
 31
0.0
  0
TEXT
  5
58D7
330
1A
100
AcDbEntity
  8
210
  6
CONTINUOUS
 62
     4
100
AcDbText
 10
459.033901996578
 20
418.3295768758389
 30
0.0
 40
5.0
  1
30
 50
90.00000299999932
100
AcDbText
  0
LINE
  5
58D8
330
1A
100
AcDbEntity
  8
210
  6
CONTINUOUS
 62
     4
100
AcDbLine
 10
387.346066996578
 20
378.079576875839
 30
0.0
 11
466.221401996578
 21
378.079576875839
 31
0.0
  0
LINE
  5
58D9
330
1A
100
AcDbEntity
  8
210
  6
CONTINUOUS
 62
     4
100
AcDbLine
 10
434.346066996578
 20
408.079576875839
 30
0.0
 11
466.221401996578
 21
408.079576875839
 31
0.0
  0
TEXT
  5
58DA
330
1A
100
AcDbEntity
  8
210
  6
CONTINUOUS
 62
     4
100
AcDbText
 10
459.033901996578
 20
388.329576875839
 30
0.0
 40
5.0
  1
30
 50
90.00000299999932
100
AcDbText
  0
LINE
  5
58DB
330
1A
100
AcDbEntity
  8
210
  6
CONTINUOUS
 62
     4
100
AcDbLine
 10
422.158871996578
 20
363.0795768758389
 30
0.0
 11
486.221401996578
 21
363.0795768758389
 31
0.0
  0
LINE
  5
58DC
330
1A
100
AcDbEntity
  8
210
  6
CONTINUOUS
 62
     4
100
AcDbLine
 10
422.158871996578
 20
453.0795768758389
 30
0.0
 11
486.221401996578
 21
453.0795768758389
 31
0.0
  0
LINE
  5
58DD
330
1A
100
AcDbEntity
  8
210
  6
CONTINUOUS
 62
     4
100
AcDbLine
 10
381.1588719965779
 20
117.9813718758389
 30
0.0
 11
466.221401996578
 21
117.9813718758389
 31
0.0
  0
LINE
  5
58DE
330
1A
100
AcDbEntity
  8
210
  6
CONTINUOUS
 62
     4
100
AcDbLine
 10
443.158932996578
 20
145.4813718758389
 30
0.0
 11
466.221401996578
 21
145.4813718758389
 31
0.0
  0
TEXT
  5
58DF
330
1A
100
AcDbEntity
  8
210
  6
CONTINUOUS
 62
     4
100
AcDbText
 10
459.033902996578
 20
123.6063718758389
 30
0.0
 40
5.0
  1
27.5
 50
90.00000299999932
100
AcDbText
  0
LINE
  5
58E0
330
1A
100
AcDbEntity
  8
210
  6
CONTINUOUS
 62
     4
100
AcDbLine
 10
388.158871996578
 20
207.481371875839
 30
0.0
 11
466.221401996578
 21
207.481371875839
 31
0.0
  0
LINE
  5
58E1
330
1A
100
AcDbEntity
  8
210
  6
CONTINUOUS
 62
     4
100
AcDbLine
 10
443.158932996578
 20
145.4813718758389
 30
0.0
 11
466.221401996578
 21
145.4813718758389
 31
0.0
  0
TEXT
  5
58E2
330
1A
100
AcDbEntity
  8
210
  6
CONTINUOUS
 62
     4
100
AcDbText
 10
459.033901996578
 20
171.9813718758389
 30
0.0
 40
5.0
  1
62
 50
90.00000299999932
100
AcDbText
  0
LINE
  5
58ED
330
1A
100
AcDbEntity
  8
170
  6
PHANTOM2
100
AcDbLine
 10
462.158855996578
 20
270.4813708758389
 30
0.0
 11
356.158855996578
 21
270.4813708758389
 31
0.0
  0
LINE
  5
58EE
330
1A
100
AcDbEntity
  8
170
  6
PHANTOM2
100
AcDbLine
 10
462.158855996578
 20
272.4813708758389
 30
0.0
 11
356.158855996578
 21
272.4813708758389
 31
0.0
  0
LINE
  5
58F7
330
1A
100
AcDbEntity
  8
225
  6
CENTER
 62
     3
100
AcDbLine
 10
310.158855996578
 20
290.4813708758389
 30
0.0
 11
310.158855996578
 21
43.981385875839
 31
0.0
  0
ARC
  5
58FF
330
1A
100
AcDbEntity
  8
150
  6
HIDDEN2
100
AcDbCircle
 10
196.1588259965781
 20
158.4813708758389
 30
0.0
 40
1.0
100
AcDbArc
 50
90.0
 51
180.0000029999976
  0
ARC
  5
5900
330
1A
100
AcDbEntity
  8
0
  6
CONTINUOUS
 62
     2
100
AcDbCircle
 10
197.1588259965781
 20
164.4813708758389
 30
0.0
 40
2.0
100
AcDbArc
 50
90.0
 51
180.0000029999976
  0
LINE
  5
5902
330
1A
100
AcDbEntity
  8
170
  6
PHANTOM2
100
AcDbLine
 10
178.158794996578
 20
272.4813708758389
 30
0.0
 11
264.158855996578
 21
272.4813708758389
 31
0.0
  0
LINE
  5
5903
330
1A
100
AcDbEntity
  8
170
  6
PHANTOM2
100
AcDbLine
 10
264.158855996578
 20
270.4813708758389
 30
0.0
 11
178.158794996578
 21
270.4813708758389
 31
0.0
  0
LINE
  5
5904
330
1A
100
AcDbEntity
  8
170
  6
PHANTOM2
100
AcDbLine
 10
187.6587949965781
 20
140.4813708758389
 30
0.0
 11
215.158794996578
 21
140.4813708758389
 31
0.0
  0
LINE
  5
5906
330
1A
100
AcDbEntity
  8
0
  6
CONTINUOUS
 62
     2
100
AcDbLine
 10
219.1588259965781
 20
145.4813708758389
 30
0.0
 11
195.1588259965781
 21
145.4813708758389
 31
0.0
  0
LINE
  5
590D
330
1A
100
AcDbEntity
  8
0
  6
CONTINUOUS
 62
     2
100
AcDbLine
 10
195.1588259965781
 20
145.4813708758389
 30
0.0
 11
195.1588259965781
 21
164.4813708758389
 31
0.0
  0
LINE
  5
5918
330
1A
100
AcDbEntity
  8
170
  6
PHANTOM2
100
AcDbLine
 10
178.158794996578
 20
145.4813708758389
 30
0.0
 11
178.158794996578
 21
105.481385875839
 31
0.0
  0
LINE
  5
5919
330
1A
100
AcDbEntity
  8
170
  6
PHANTOM2
100
AcDbLine
 10
183.158794996578
 20
135.9813708758389
 30
0.0
 11
183.158794996578
 21
108.4813708758389
 31
0.0
  0
LINE
  5
591A
330
1A
100
AcDbEntity
  8
170
  6
PHANTOM2
100
AcDbLine
 10
178.158794996578
 20
105.4813708758389
 30
0.0
 11
180.158794996578
 21
105.4813708758389
 31
0.0
  0
ARC
  5
591B
330
1A
100
AcDbEntity
  8
170
  6
PHANTOM2
100
AcDbCircle
 10
180.1588259965781
 20
110.4797078758389
 30
0.0
 40
3.0
100
AcDbArc
 50
359.9518440000022
 51
0.0000100000010064
  0
ARC
  5
591C
330
1A
100
AcDbEntity
  8
170
  6
PHANTOM2
100
AcDbCircle
 10
180.158794996578
 20
108.4813708758389
 30
0.0
 40
3.0
100
AcDbArc
 50
270.0
 51
0.000008999999603
  0
LINE
  5
591D
330
1A
100
AcDbEntity
  8
170
  6
PHANTOM2
100
AcDbLine
 10
178.158794996578
 20
145.4813708758389
 30
0.0
 11
218.1588259965781
 21
145.4813708758389
 31
0.0
  0
ARC
  5
591E
330
1A
100
AcDbEntity
  8
170
  6
PHANTOM2
100
AcDbCircle
 10
187.6587949965781
 20
135.9813708758389
 30
0.0
 40
4.5
100
AcDbArc
 50
90.0
 51
180.0000029999976
  0
LINE
  5
592A
330
1A
100
AcDbEntity
  8
0
  6
CONTINUOUS
 62
     2
100
AcDbLine
 10
385.955303996578
 20
117.5289778758389
 30
0.0
 11
386.4088259965781
 21
98.48137087583893
 31
0.0
  0
LINE
  5
592B
330
1A
100
AcDbEntity
  8
0
  6
CONTINUOUS
 62
     2
100
AcDbLine
 10
374.362347996578
 20
117.5289778758389
 30
0.0
 11
373.9088259965781
 21
98.48137087583893
 31
0.0
  0
LINE
  5
592C
330
1A
100
AcDbEntity
  8
0
  6
CONTINUOUS
 62
     2
100
AcDbLine
 10
359.1588259965781
 20
96.48137087583894
 30
0.0
 11
359.1588259965781
 21
120.4813708758389
 31
0.0
  0
LINE
  5
592D
330
1A
100
AcDbEntity
  8
0
  6
CONTINUOUS
 62
     2
100
AcDbLine
 10
331.1588259965781
 20
96.48137087583894
 30
0.0
 11
331.1588259965781
 21
120.4813708758389
 31
0.0
  0
LINE
  5
592E
330
1A
100
AcDbEntity
  8
0
  6
CONTINUOUS
 62
     2
100
AcDbLine
 10
315.9553039965781
 20
117.5289778758389
 30
0.0
 11
316.4088259965781
 21
98.48137087583893
 31
0.0
  0
LINE
  5
592F
330
1A
100
AcDbEntity
  8
0
  6
CONTINUOUS
 62
     2
100
AcDbLine
 10
304.362347996578
 20
117.5289778758389
 30
0.0
 11
303.9088259965781
 21
98.48137087583893
 31
0.0
  0
LINE
  5
5930
330
1A
100
AcDbEntity
  8
0
  6
CONTINUOUS
 62
     2
100
AcDbLine
 10
289.1588259965781
 20
96.48137087583894
 30
0.0
 11
289.1588259965781
 21
120.4813708758389
 31
0.0
  0
LINE
  5
5931
330
1A
100
AcDbEntity
  8
0
  6
CONTINUOUS
 62
     2
100
AcDbLine
 10
261.1588259965781
 20
96.48137087583894
 30
0.0
 11
261.1588259965781
 21
120.4813708758389
 31
0.0
  0
LINE
  5
5932
330
1A
100
AcDbEntity
  8
0
  6
CONTINUOUS
 62
     2
100
AcDbLine
 10
245.9553039965781
 20
117.5289778758389
 30
0.0
 11
246.4088259965781
 21
98.48137087583893
 31
0.0
  0
LINE
  5
5933
330
1A
100
AcDbEntity
  8
0
  6
CONTINUOUS
 62
     2
100
AcDbLine
 10
234.362347996578
 20
117.5289778758389
 30
0.0
 11
233.9088259965781
 21
98.48137087583893
 31
0.0
  0
LINE
  5
5934
330
1A
100
AcDbEntity
  8
0
  6
CONTINUOUS
 62
     2
100
AcDbLine
 10
219.1588259965781
 20
96.48137087583894
 30
0.0
 11
219.1588259965781
 21
145.4813708758389
 31
0.0
  0
LINE
  5
5935
330
1A
100
AcDbEntity
  8
0
  6
CONTINUOUS
 62
     2
100
AcDbLine
 10
401.158855996578
 20
96.48137087583894
 30
0.0
 11
401.158855996578
 21
145.4813708758389
 31
0.0
  0
LINE
  5
5936
330
1A
100
AcDbEntity
  8
225
  6
CENTER
 62
     3
100
AcDbLine
 10
380.158855996578
 20
130.9813708758389
 30
0.0
 11
380.158855996578
 21
43.981385875839
 31
0.0
  0
LINE
  5
5937
330
1A
100
AcDbEntity
  8
225
  6
CENTER
 62
     3
100
AcDbLine
 10
240.1588259965781
 20
130.9813708758389
 30
0.0
 11
240.1588259965781
 21
43.981385875839
 31
0.0
  0
LINE
  5
5938
330
1A
100
AcDbEntity
  8
170
  6
PHANTOM2
100
AcDbLine
 10
315.158855996578
 20
112.9813708758389
 30
0.0
 11
315.158855996578
 21
63.981385875839
 31
0.0
  0
LINE
  5
5939
330
1A
100
AcDbEntity
  8
170
  6
PHANTOM2
100
AcDbLine
 10
305.158855996578
 20
112.9813708758389
 30
0.0
 11
305.158855996578
 21
63.981385875839
 31
0.0
  0
LINE
  5
593A
330
1A
100
AcDbEntity
  8
170
  6
PHANTOM2
100
AcDbLine
 10
235.1588259965781
 20
112.9813708758389
 30
0.0
 11
235.1588259965781
 21
63.981385875839
 31
0.0
  0
LINE
  5
593B
330
1A
100
AcDbEntity
  8
170
  6
PHANTOM2
100
AcDbLine
 10
245.1588259965781
 20
112.9813708758389
 30
0.0
 11
245.1588259965781
 21
63.981385875839
 31
0.0
  0
LINE
  5
593C
330
1A
100
AcDbEntity
  8
170
  6
PHANTOM2
100
AcDbLine
 10
375.158855996578
 20
112.9813708758389
 30
0.0
 11
375.158855996578
 21
63.981385875839
 31
0.0
  0
LINE
  5
593D
330
1A
100
AcDbEntity
  8
170
  6
PHANTOM2
100
AcDbLine
 10
385.158855996578
 20
112.9813708758389
 30
0.0
 11
385.158855996578
 21
63.981385875839
 31
0.0
  0
LINE
  5
5941
330
1A
100
AcDbEntity
  8
0
  6
CONTINUOUS
 62
     2
100
AcDbLine
 10
318.1588259965781
 20
95.48137087583894
 30
0.0
 11
330.1588259965781
 21
95.48137087583894
 31
0.0
  0
LINE
  5
5942
330
1A
100
AcDbEntity
  8
0
  6
CONTINUOUS
 62
     2
100
AcDbLine
 10
318.1588259965781
 20
95.48137087583894
 30
0.0
 11
330.1588259965781
 21
95.48137087583894
 31
0.0
  0
LINE
  5
5949
330
1A
100
AcDbEntity
  8
0
  6
CONTINUOUS
 62
     2
100
AcDbLine
 10
232.1588259965781
 20
95.48137087583894
 30
0.0
 11
220.1588259965781
 21
95.48137087583894
 31
0.0
  0
ARC
  5
594A
330
1A
100
AcDbEntity
  8
0
  6
CONTINUOUS
 62
     2
100
AcDbCircle
 10
220.1588259965781
 20
96.48137087583894
 30
0.0
 40
1.0
100
AcDbArc
 50
180.0000050000005
 51
270.0000009999997
  0
LINE
  5
594B
330
1A
100
AcDbEntity
  8
0
  6
CONTINUOUS
 62
     2
100
AcDbLine
 10
232.1588259965781
 20
95.48137087583894
 30
0.0
 11
233.9088259965781
 21
98.48137087583893
 31
0.0
  0
LINE
  5
594C
330
1A
100
AcDbEntity
  8
0
  6
CONTINUOUS
 62
     2
100
AcDbLine
 10
248.1588259965781
 20
95.48137087583894
 30
0.0
 11
260.1588259965781
 21
95.48137087583894
 31
0.0
  0
LINE
  5
594D
330
1A
100
AcDbEntity
  8
0
  6
CONTINUOUS
 62
     2
100
AcDbLine
 10
248.1588259965781
 20
95.48137087583894
 30
0.0
 11
260.1588259965781
 21
95.48137087583894
 31
0.0
  0
LINE
  5
594E
330
1A
100
AcDbEntity
  8
0
  6
CONTINUOUS
 62
     2
100
AcDbLine
 10
248.1588259965781
 20
95.48137087583894
 30
0.0
 11
246.4088259965781
 21
98.48137087583893
 31
0.0
  0
ARC
  5
594F
330
1A
100
AcDbEntity
  8
0
  6
CONTINUOUS
 62
     2
100
AcDbCircle
 10
260.1588259965781
 20
96.48137087583894
 30
0.0
 40
1.0
100
AcDbArc
 50
270.0
 51
359.9999960000009
  0
LINE
  5
5956
330
1A
100
AcDbEntity
  8
0
  6
CONTINUOUS
 62
     2
100
AcDbLine
 10
302.1588259965781
 20
95.48137087583894
 30
0.0
 11
290.1588259965781
 21
95.48137087583894
 31
0.0
  0
ARC
  5
5957
330
1A
100
AcDbEntity
  8
0
  6
CONTINUOUS
 62
     2
100
AcDbCircle
 10
290.1588259965781
 20
96.48137087583894
 30
0.0
 40
1.0
100
AcDbArc
 50
180.0000050000005
 51
270.0000009999997
  0
LINE
  5
595E
330
1A
100
AcDbEntity
  8
0
  6
CONTINUOUS
 62
     2
100
AcDbLine
 10
302.1588259965781
 20
95.48137087583894
 30
0.0
 11
303.9088259965781
 21
98.48137087583893
 31
0.0
  0
LINE
  5
595F
330
1A
100
AcDbEntity
  8
0
  6
CONTINUOUS
 62
     2
100
AcDbLine
 10
318.1588259965781
 20
95.48137087583894
 30
0.0
 11
316.4088259965781
 21
98.48137087583893
 31
0.0
  0
LINE
  5
5960
330
1A
100
AcDbEntity
  8
0
  6
CONTINUOUS
 62
     2
100
AcDbLine
 10
388.1588259965781
 20
95.48137087583894
 30
0.0
 11
400.1588259965781
 21
95.48137087583894
 31
0.0
  0
ARC
  5
5964
330
1A
100
AcDbEntity
  8
0
  6
CONTINUOUS
 62
     2
100
AcDbCircle
 10
360.1588259965781
 20
96.48137087583894
 30
0.0
 40
1.0
100
AcDbArc
 50
180.0000050000005
 51
270.0000009999997
  0
ARC
  5
5965
330
1A
100
AcDbEntity
  8
0
  6
CONTINUOUS
 62
     2
100
AcDbCircle
 10
330.1588259965781
 20
96.48137087583894
 30
0.0
 40
1.0
100
AcDbArc
 50
270.0
 51
0.000008999999603
  0
LINE
  5
5966
330
1A
100
AcDbEntity
  8
0
  6
CONTINUOUS
 62
     2
100
AcDbLine
 10
372.1588259965781
 20
95.48137087583894
 30
0.0
 11
360.1588259965781
 21
95.48137087583894
 31
0.0
  0
LINE
  5
5967
330
1A
100
AcDbEntity
  8
0
  6
CONTINUOUS
 62
     2
100
AcDbLine
 10
372.1588259965781
 20
95.48137087583894
 30
0.0
 11
373.9088259965781
 21
98.48137087583893
 31
0.0
  0
LINE
  5
5968
330
1A
100
AcDbEntity
  8
0
  6
CONTINUOUS
 62
     2
100
AcDbLine
 10
388.1588259965781
 20
95.48137087583894
 30
0.0
 11
386.4088259965781
 21
98.48137087583893
 31
0.0
  0
ARC
  5
5969
330
1A
100
AcDbEntity
  8
0
  6
CONTINUOUS
 62
     2
100
AcDbCircle
 10
400.1588259965781
 20
96.48137087583894
 30
0.0
 40
1.0
100
AcDbArc
 50
270.0
 51
0.000008999999603
  0
LINE
  5
596C
330
1A
100
AcDbEntity
  8
150
  6
CONTINUOUS
100
AcDbLine
 10
364.158855996578
 20
148.4813708758389
 30
0.0
 11
235.1588259965781
 21
148.4813708758389
 31
0.0
  0
LINE
  5
596D
330
1A
100
AcDbEntity
  8
0
  6
CONTINUOUS
 62
     2
100
AcDbLine
 10
219.158825996578
 20
120.4813708758389
 30
0.0
 11
359.1588259965781
 21
120.4813708758389
 31
0.0
  0
LINE
  5
596E
330
1A
100
AcDbEntity
  8
0
  6
CONTINUOUS
 62
     2
100
AcDbLine
 10
260.158855996578
 20
265.481370875839
 30
0.0
 11
285.158855996578
 21
265.481370875839
 31
0.0
  0
LINE
  5
596F
330
1A
100
AcDbEntity
  8
150
  6
CONTINUOUS
100
AcDbLine
 10
230.1588259965781
 20
183.4813708758389
 30
0.0
 11
387.6588559965779
 21
183.4813708758389
 31
0.0
  0
LINE
  5
5970
330
1A
100
AcDbEntity
  8
150
  6
CONTINUOUS
 62
     7
100
AcDbLine
 10
286.158855996578
 20
269.481370875839
 30
0.0
 11
334.158855996578
 21
269.481370875839
 31
0.0
  0
LINE
  5
5971
330
1A
100
AcDbEntity
  8
0
  6
CONTINUOUS
 62
     2
100
AcDbLine
 10
286.158855996578
 20
273.481370875839
 30
0.0
 11
334.158855996578
 21
273.481370875839
 31
0.0
  0
LINE
  5
5974
330
1A
100
AcDbEntity
  8
150
  6
HIDDEN2
100
AcDbLine
 10
232.6588259965781
 20
220.4813708758389
 30
0.0
 11
232.6588259965781
 21
183.4813708758389
 31
0.0
  0
LINE
  5
5975
330
1A
100
AcDbEntity
  8
150
  6
CONTINUOUS
 62
     7
100
AcDbLine
 10
237.1588259965781
 20
261.481370875839
 30
0.0
 11
237.1588259965781
 21
183.4813708758389
 31
0.0
  0
LINE
  5
5976
330
1A
100
AcDbEntity
  8
0
  6
CONTINUOUS
 62
     2
100
AcDbLine
 10
227.6588259965781
 20
220.4813708758389
 30
0.0
 11
227.6588259965781
 21
186.4813708758389
 31
0.0
  0
LINE
  5
5977
330
1A
100
AcDbEntity
  8
150
  6
DASHED
100
AcDbLine
 10
200.7003299965781
 20
159.4813708758389
 30
0.0
 11
200.7003299965781
 21
136.9813708758389
 31
0.0
  0
LINE
  5
5978
330
1A
100
AcDbEntity
  8
150
  6
DASHED
100
AcDbLine
 10
205.617321996578
 20
159.4813708758389
 30
0.0
 11
205.617321996578
 21
136.9813708758389
 31
0.0
  0
LINE
  5
5979
330
1A
100
AcDbEntity
  8
225
  6
CENTER
 62
     3
100
AcDbLine
 10
203.1588259965781
 20
171.4813708758389
 30
0.0
 11
203.1588259965781
 21
132.4813708758389
 31
0.0
  0
LINE
  5
597A
330
1A
100
AcDbEntity
  8
150
  6
DASHED
100
AcDbLine
 10
206.1588259965781
 20
159.4813708758389
 30
0.0
 11
206.1588259965781
 21
137.5228748758389
 31
0.0
  0
LINE
  5
597B
330
1A
100
AcDbEntity
  8
150
  6
DASHED
100
AcDbLine
 10
200.1588259965781
 20
159.4813708758389
 30
0.0
 11
200.1588259965781
 21
137.5228748758389
 31
0.0
  0
LINE
  5
597C
330
1A
100
AcDbEntity
  8
150
  6
CONTINUOUS
100
AcDbLine
 10
235.1588259965781
 20
166.4813708758389
 30
0.0
 11
235.1588259965781
 21
148.4813708758389
 31
0.0
  0
LINE
  5
597D
330
1A
100
AcDbEntity
  8
150
  6
DASHED
100
AcDbLine
 10
200.1588259965781
 20
137.5228748758389
 30
0.0
 11
206.1588259965781
 21
137.5228748758389
 31
0.0
  0
LINE
  5
597E
330
1A
100
AcDbEntity
  8
150
  6
DASHED
100
AcDbLine
 10
200.7003299965781
 20
136.9813708758389
 30
0.0
 11
205.617321996578
 21
136.9813708758389
 31
0.0
  0
LINE
  5
597F
330
1A
100
AcDbEntity
  8
150
  6
DASHED
100
AcDbLine
 10
200.1588259965781
 20
137.5228748758389
 30
0.0
 11
200.7003299965781
 21
136.9813708758389
 31
0.0
  0
LINE
  5
5980
330
1A
100
AcDbEntity
  8
150
  6
DASHED
100
AcDbLine
 10
206.1588259965781
 20
137.5228748758389
 30
0.0
 11
205.617321996578
 21
136.9813708758389
 31
0.0
  0
ARC
  5
5981
330
1A
100
AcDbEntity
  8
170
  6
PHANTOM2
100
AcDbCircle
 10
215.158794996578
 20
143.4813708758389
 30
0.0
 40
3.0
100
AcDbArc
 50
270.0
 51
0.000008999999603
  0
LINE
  5
5982
330
1A
100
AcDbEntity
  8
170
  6
PHANTOM2
100
AcDbLine
 10
218.1588259965781
 20
145.4813708758389
 30
0.0
 11
218.1588259965781
 21
143.4813708758389
 31
0.0
  0
ARC
  5
5983
330
1A
100
AcDbEntity
  8
0
  6
CONTINUOUS
 62
     2
100
AcDbCircle
 10
243.9558839965779
 20
117.4813708758389
 30
0.0
 40
2.0
100
AcDbArc
 50
1.363928999999205
 51
89.99999700000067
  0
ARC
  5
5984
330
1A
100
AcDbEntity
  8
170
  6
PHANTOM2
100
AcDbCircle
 10
240.1588259965781
 20
112.9813708758389
 30
0.0
 40
5.0
100
AcDbArc
 50
0.0
 51
180.0000050000005
  0
LINE
  5
5985
330
1A
100
AcDbEntity
  8
0
  6
CONTINUOUS
 62
     2
100
AcDbLine
 10
243.9558839965779
 20
119.4813708758389
 30
0.0
 11
236.361767996578
 21
119.4813708758389
 31
0.0
  0
ARC
  5
5986
330
1A
100
AcDbEntity
  8
0
  6
CONTINUOUS
 62
     2
100
AcDbCircle
 10
236.361767996578
 20
117.4813708758389
 30
0.0
 40
2.0
100
AcDbArc
 50
90.0
 51
178.6360679999999
  0
LINE
  5
5987
330
1A
100
AcDbEntity
  8
150
  6
CONTINUOUS
100
AcDbLine
 10
226.1588259965781
 20
166.4813708758389
 30
0.0
 11
235.1588259965781
 21
166.4813708758389
 31
0.0
  0
LINE
  5
5988
330
1A
100
AcDbEntity
  8
0
  6
CONTINUOUS
 62
     2
100
AcDbLine
 10
230.1588259965781
 20
186.4813708758389
 30
0.0
 11
227.1588259965781
 21
186.4813708758389
 31
0.0
  0
LINE
  5
5989
330
1A
100
AcDbEntity
  8
0
  6
CONTINUOUS
 62
     2
100
AcDbLine
 10
226.1588259965781
 20
185.4813708758389
 30
0.0
 11
226.1588259965781
 21
166.4813708758389
 31
0.0
  0
LINE
  5
598A
330
1A
100
AcDbEntity
  8
0
  6
CONTINUOUS
 62
     2
100
AcDbLine
 10
197.1588259965781
 20
166.4813708758389
 30
0.0
 11
226.1588259965781
 21
166.4813708758389
 31
0.0
  0
LINE
  5
598B
330
1A
100
AcDbEntity
  8
150
  6
HIDDEN2
100
AcDbLine
 10
197.9088259965781
 20
161.9813708758389
 30
0.0
 11
198.069439996578
 21
163.8170638758389
 31
0.0
  0
LINE
  5
598C
330
1A
100
AcDbEntity
  8
150
  6
HIDDEN2
100
AcDbLine
 10
210.1588259965781
 20
165.4813708758389
 30
0.0
 11
210.1588259965781
 21
159.4813708758389
 31
0.0
  0
LINE
  5
598D
330
1A
100
AcDbEntity
  8
150
  6
HIDDEN2
100
AcDbLine
 10
208.4088259965781
 20
161.9813708758389
 30
0.0
 11
208.248241996578
 21
163.8170638758389
 31
0.0
  0
LINE
  5
598E
330
1A
100
AcDbEntity
  8
150
  6
HIDDEN2
100
AcDbLine
 10
196.6588259965781
 20
160.4813708758389
 30
0.0
 11
209.6588259965781
 21
160.4813708758389
 31
0.0
  0
LINE
  5
598F
330
1A
100
AcDbEntity
  8
150
  6
HIDDEN2
100
AcDbLine
 10
197.0588199965779
 20
161.9813708758389
 30
0.0
 11
209.258831996578
 21
161.9813708758389
 31
0.0
  0
LINE
  5
5990
330
1A
100
AcDbEntity
  8
150
  6
HIDDEN2
100
AcDbLine
 10
196.1588259965781
 20
159.4813708758389
 30
0.0
 11
210.1588259965781
 21
159.4813708758389
 31
0.0
  0
LINE
  5
5991
330
1A
100
AcDbEntity
  8
150
  6
HIDDEN2
100
AcDbLine
 10
196.6588259965781
 20
159.4813708758389
 30
0.0
 11
196.6588259965781
 21
160.4813708758389
 31
0.0
  0
LINE
  5
5992
330
1A
100
AcDbEntity
  8
150
  6
HIDDEN2
100
AcDbLine
 10
197.0588199965779
 20
160.4813708758389
 30
0.0
 11
197.0588199965779
 21
161.9813708758389
 31
0.0
  0
LINE
  5
5993
330
1A
100
AcDbEntity
  8
150
  6
HIDDEN2
100
AcDbLine
 10
203.9088259965781
 20
160.4813708758389
 30
0.0
 11
203.1588259965781
 21
161.9813708758389
 31
0.0
  0
LINE
  5
5994
330
1A
100
AcDbEntity
  8
150
  6
HIDDEN2
100
AcDbLine
 10
203.1588259965781
 20
160.4813708758389
 30
0.0
 11
202.4088259965781
 21
161.9813708758389
 31
0.0
  0
LINE
  5
5995
330
1A
100
AcDbEntity
  8
150
  6
HIDDEN2
100
AcDbLine
 10
209.258831996578
 20
160.4813708758389
 30
0.0
 11
209.258831996578
 21
161.9813708758389
 31
0.0
  0
LINE
  5
5996
330
1A
100
AcDbEntity
  8
150
  6
HIDDEN2
100
AcDbLine
 10
209.6588259965781
 20
159.4813708758389
 30
0.0
 11
209.6588259965781
 21
160.4813708758389
 31
0.0
  0
ARC
  5
5997
330
1A
100
AcDbEntity
  8
150
  6
HIDDEN2
100
AcDbCircle
 10
203.1588309965779
 20
151.9813638758389
 30
0.0
 40
14.0
100
AcDbArc
 50
74.68147499999915
 51
105.3184529999995
  0
ARC
  5
599A
330
1A
100
AcDbEntity
  8
150
  6
HIDDEN2
100
AcDbCircle
 10
199.962212996578
 20
163.6514708758389
 30
0.0
 40
1.9
100
AcDbArc
 50
105.3184499999991
 51
175.0000400000011
  0
ARC
  5
599B
330
1A
100
AcDbEntity
  8
150
  6
HIDDEN2
100
AcDbCircle
 10
206.355461996578
 20
163.651466875839
 30
0.0
 40
1.9
100
AcDbArc
 50
4.999913000002107
 51
74.68147499999915
  0
ARC
  5
599C
330
1A
100
AcDbEntity
  8
150
  6
HIDDEN2
100
AcDbCircle
 10
211.1588259965781
 20
165.4813708758389
 30
0.0
 40
1.0
100
AcDbArc
 50
90.0
 51
180.0000029999976
  0
ARC
  5
599D
330
1A
100
AcDbEntity
  8
0
  6
CONTINUOUS
 62
     2
100
AcDbCircle
 10
227.1588259965781
 20
185.4813708758389
 30
0.0
 40
1.0
100
AcDbArc
 50
90.0
 51
180.0000029999976
  0
LINE
  5
599E
330
1A
100
AcDbEntity
  8
150
  6
CONTINUOUS
100
AcDbLine
 10
231.1588259965781
 20
183.4813708758389
 30
0.0
 11
231.1588259965781
 21
166.4813708758389
 31
0.0
  0
LINE
  5
599F
330
1A
100
AcDbEntity
  8
0
  6
CONTINUOUS
 62
     2
100
AcDbLine
 10
230.1588259965781
 20
183.4813708758389
 30
0.0
 11
230.1588259965781
 21
186.4813708758389
 31
0.0
  0
LINE
  5
59A0
330
1A
100
AcDbEntity
  8
0
  6
CONTINUOUS
 62
     2
100
AcDbLine
 10
313.955883996578
 20
119.4813708758389
 30
0.0
 11
306.361767996578
 21
119.4813708758389
 31
0.0
  0
ARC
  5
59A1
330
1A
100
AcDbEntity
  8
170
  6
PHANTOM2
100
AcDbCircle
 10
310.158855996578
 20
112.9813708758389
 30
0.0
 40
5.0
100
AcDbArc
 50
0.0
 51
180.0000050000005
  0
ARC
  5
59A2
330
1A
100
AcDbEntity
  8
0
  6
CONTINUOUS
 62
     2
100
AcDbCircle
 10
306.361767996578
 20
117.4813708758389
 30
0.0
 40
2.0
100
AcDbArc
 50
90.0
 51
178.6360679999999
  0
ARC
  5
59A3
330
1A
100
AcDbEntity
  8
0
  6
CONTINUOUS
 62
     2
100
AcDbCircle
 10
313.955883996578
 20
117.4813708758389
 30
0.0
 40
2.0
100
AcDbArc
 50
1.363928999999205
 51
89.99999700000067
  0
LINE
  5
59AB
330
1A
100
AcDbEntity
  8
0
  6
CONTINUOUS
 62
     2
100
AcDbLine
 10
232.6588259965781
 20
260.4813708758389
 30
0.0
 11
232.6588259965781
 21
220.4813708758389
 31
0.0
  0
LINE
  5
59AD
330
1A
100
AcDbEntity
  8
0
  6
CONTINUOUS
 62
     2
100
AcDbLine
 10
227.6588259965781
 20
220.4813708758389
 30
0.0
 11
232.6588259965781
 21
220.4813708758389
 31
0.0
  0
LINE
  5
59B2
330
1A
100
AcDbEntity
  8
0
  6
CONTINUOUS
 62
     2
100
AcDbLine
 10
233.6588259965781
 20
261.481370875839
 30
0.0
 11
259.158855996578
 21
261.481370875839
 31
0.0
  0
ARC
  5
59B3
330
1A
100
AcDbEntity
  8
0
  6
CONTINUOUS
 62
     2
100
AcDbCircle
 10
233.6588259965781
 20
260.4813708758389
 30
0.0
 40
1.0
100
AcDbArc
 50
90.0
 51
180.0000029999976
  0
ARC
  5
59B4
330
1A
100
AcDbEntity
  8
0
  6
CONTINUOUS
 62
     2
100
AcDbCircle
 10
260.158855996578
 20
264.4813708758389
 30
0.0
 40
1.0
100
AcDbArc
 50
90.0
 51
180.0000029999976
  0
LINE
  5
59B5
330
1A
100
AcDbEntity
  8
0
  6
CONTINUOUS
 62
     2
100
AcDbLine
 10
259.158855996578
 20
264.4813708758389
 30
0.0
 11
259.158855996578
 21
261.481370875839
 31
0.0
  0
LINE
  5
59B8
330
1A
100
AcDbEntity
  8
0
  6
CONTINUOUS
 62
     2
100
AcDbLine
 10
298.349194996578
 20
285.795213875839
 30
0.0
 11
293.515270996578
 21
284.3173388758389
 31
0.0
  0
LINE
  5
59B9
330
1A
100
AcDbEntity
  8
0
  6
CONTINUOUS
 62
     2
100
AcDbLine
 10
295.493328996578
 20
273.481370875839
 30
0.0
 11
292.8435789965781
 21
283.0953228758389
 31
0.0
  0
LINE
  5
59BA
330
1A
100
AcDbEntity
  8
0
  6
CONTINUOUS
 62
     2
100
AcDbLine
 10
285.158855996578
 20
265.481370875839
 30
0.0
 11
285.158855996578
 21
272.4813708758389
 31
0.0
  0
LINE
  5
59BB
330
1A
100
AcDbEntity
  8
170
  6
PHANTOM2
100
AcDbLine
 10
264.158855996578
 20
272.4813708758389
 30
0.0
 11
264.158855996578
 21
270.4813708758389
 31
0.0
  0
ARC
  5
59BC
330
1A
100
AcDbEntity
  8
0
  6
CONTINUOUS
 62
     2
100
AcDbCircle
 10
286.158855996578
 20
272.4813708758389
 30
0.0
 40
1.0
100
AcDbArc
 50
90.0
 51
180.0000029999976
  0
ARC
  5
59BD
330
1A
100
AcDbEntity
  8
150
  6
CONTINUOUS
 62
     7
100
AcDbCircle
 10
286.158855996578
 20
268.4813708758389
 30
0.0
 40
1.0
100
AcDbArc
 50
90.0
 51
180.0000029999976
  0
ARC
  5
59BE
330
1A
100
AcDbEntity
  8
0
  6
CONTINUOUS
 62
     2
100
AcDbCircle
 10
293.807629996578
 20
283.3610398758389
 30
0.0
 40
1.0
100
AcDbArc
 50
106.9999400000007
 51
195.4089659999993
  0
LINE
  5
59BF
330
1A
100
AcDbEntity
  8
0
  6
CONTINUOUS
 62
     2
100
AcDbLine
 10
303.516888996578
 20
273.481370875839
 30
0.0
 11
299.5893979965781
 21
285.1577318758389
 31
0.0
  0
ARC
  5
59C2
330
1A
100
AcDbEntity
  8
0
  6
CONTINUOUS
 62
     2
100
AcDbCircle
 10
298.6415839965781
 20
284.8389148758389
 30
0.0
 40
1.0
100
AcDbArc
 50
18.59107099999786
 51
106.9999469999999
  0
LINE
  5
59C5
330
1A
100
AcDbEntity
  8
150
  6
PHANTOM2
100
AcDbLine
 10
382.658855996578
 20
261.481370875839
 30
0.0
 11
382.658855996578
 21
185.9813708758389
 31
0.0
  0
LINE
  5
59C6
330
1A
100
AcDbEntity
  8
150
  6
PHANTOM2
100
AcDbLine
 10
427.658855996578
 20
262.4813708758389
 30
0.0
 11
427.658855996578
 21
185.9813708758389
 31
0.0
  0
LINE
  5
59C7
330
1A
100
AcDbEntity
  8
0
  6
CONTINUOUS
 62
     2
100
AcDbLine
 10
387.658855996578
 20
260.4813708758389
 30
0.0
 11
387.6588559965779
 21
183.4813708758389
 31
0.0
  0
LINE
  5
59C8
330
1A
100
AcDbEntity
  8
225
  6
CENTER
 62
     3
100
AcDbLine
 10
377.658855996578
 20
228.9813708758389
 30
0.0
 11
377.658855996578
 21
189.5813768758389
 31
0.0
  0
LINE
  5
59C9
330
1A
100
AcDbEntity
  8
0
  6
CONTINUOUS
 62
     2
100
AcDbLine
 10
423.1589179965781
 20
166.4813708758389
 30
0.0
 11
389.158855996578
 21
166.4813708758389
 31
0.0
  0
LINE
  5
59CA
330
1A
100
AcDbEntity
  8
150
  6
PHANTOM2
100
AcDbLine
 10
382.658855996578
 20
185.9813708758389
 30
0.0
 11
427.658855996578
 21
185.9813708758389
 31
0.0
  0
LINE
  5
59CB
330
1A
100
AcDbEntity
  8
150
  6
CONTINUOUS
100
AcDbLine
 10
364.158855996578
 20
166.4813708758389
 30
0.0
 11
364.158855996578
 21
148.4813708758389
 31
0.0
  0
LINE
  5
59CC
330
1A
100
AcDbEntity
  8
0
  6
CONTINUOUS
 62
     2
100
AcDbLine
 10
383.9558839965779
 20
119.4813708758389
 30
0.0
 11
376.361767996578
 21
119.4813708758389
 31
0.0
  0
ARC
  5
59CD
330
1A
100
AcDbEntity
  8
170
  6
PHANTOM2
100
AcDbCircle
 10
380.158855996578
 20
112.9813708758389
 30
0.0
 40
5.0
100
AcDbArc
 50
0.0
 51
180.0000050000005
  0
ARC
  5
59CE
330
1A
100
AcDbEntity
  8
0
  6
CONTINUOUS
 62
     2
100
AcDbCircle
 10
376.361767996578
 20
117.4813708758389
 30
0.0
 40
2.0
100
AcDbArc
 50
90.0
 51
178.6360679999999
  0
ARC
  5
59CF
330
1A
100
AcDbEntity
  8
0
  6
CONTINUOUS
 62
     2
100
AcDbCircle
 10
383.9558839965779
 20
117.4813708758389
 30
0.0
 40
2.0
100
AcDbArc
 50
1.363928999999205
 51
89.99999700000067
  0
LINE
  5
59D0
330
1A
100
AcDbEntity
  8
0
  6
CONTINUOUS
 62
     2
100
AcDbLine
 10
389.158855996578
 20
183.4813708758389
 30
0.0
 11
389.158855996578
 21
166.4813708758389
 31
0.0
  0
LINE
  5
59D1
330
1A
100
AcDbEntity
  8
150
  6
CONTINUOUS
100
AcDbLine
 10
364.158855996578
 20
166.4813708758389
 30
0.0
 11
389.158855996578
 21
166.4813708758389
 31
0.0
  0
LINE
  5
59D8
330
1A
100
AcDbEntity
  8
170
  6
PHANTOM2
100
AcDbLine
 10
432.6589179965781
 20
140.4813708758389
 30
0.0
 11
405.158917996578
 21
140.4813708758389
 31
0.0
  0
LINE
  5
59D9
330
1A
100
AcDbEntity
  8
0
  6
CONTINUOUS
 62
     2
100
AcDbLine
 10
425.1589179965781
 20
145.4813708758389
 30
0.0
 11
401.158855996578
 21
145.4813708758389
 31
0.0
  0
LINE
  5
59DA
330
1A
100
AcDbEntity
  8
170
  6
PHANTOM2
100
AcDbLine
 10
402.158886996578
 20
145.4813708758389
 30
0.0
 11
402.158886996578
 21
143.4813708758389
 31
0.0
  0
ARC
  5
59DB
330
1A
100
AcDbEntity
  8
170
  6
PHANTOM2
100
AcDbCircle
 10
405.158917996578
 20
143.4813708758389
 30
0.0
 40
3.0
100
AcDbArc
 50
179.9999899999989
 51
269.9999990000002
  0
LINE
  5
59E0
330
1A
100
AcDbEntity
  8
170
  6
PHANTOM2
100
AcDbLine
 10
442.158917996578
 20
145.4813708758389
 30
0.0
 11
442.158917996578
 21
105.481385875839
 31
0.0
  0
LINE
  5
59E1
330
1A
100
AcDbEntity
  8
170
  6
PHANTOM2
100
AcDbLine
 10
437.1589179965781
 20
135.9813708758389
 30
0.0
 11
437.1589179965781
 21
108.4813708758389
 31
0.0
  0
ARC
  5
59E2
330
1A
100
AcDbEntity
  8
170
  6
PHANTOM2
100
AcDbCircle
 10
440.1589179965781
 20
108.4813708758389
 30
0.0
 40
3.0
100
AcDbArc
 50
179.9999899999989
 51
269.9999990000002
  0
LINE
  5
59E3
330
1A
100
AcDbEntity
  8
170
  6
PHANTOM2
100
AcDbLine
 10
442.158917996578
 20
105.4813708758389
 30
0.0
 11
440.1589179965781
 21
105.4813708758389
 31
0.0
  0
ARC
  5
59E4
330
1A
100
AcDbEntity
  8
170
  6
PHANTOM2
100
AcDbCircle
 10
432.6589179965781
 20
135.9813708758389
 30
0.0
 40
4.5
100
AcDbArc
 50
359.9999949999995
 51
89.99999700000067
  0
LINE
  5
59E5
330
1A
100
AcDbEntity
  8
170
  6
PHANTOM2
100
AcDbLine
 10
442.158917996578
 20
145.4813708758389
 30
0.0
 11
402.158886996578
 21
145.4813708758389
 31
0.0
  0
LINE
  5
59F8
330
1A
100
AcDbEntity
  8
150
  6
PHANTOM2
100
AcDbLine
 10
425.658855996578
 20
264.4813708758389
 30
0.0
 11
361.158855996578
 21
264.4813708758389
 31
0.0
  0
ARC
  5
59FB
330
1A
100
AcDbEntity
  8
150
  6
HIDDEN2
 62
     7
100
AcDbCircle
 10
377.658857996578
 20
200.9813728758389
 30
0.0
 40
18.0
100
AcDbArc
 50
74.18850000000031
 51
105.8114289999986
  0
LINE
  5
59FC
330
1A
100
AcDbEntity
  8
150
  6
HIDDEN2
 62
     7
100
AcDbLine
 10
387.158855996578
 20
207.4813708758389
 30
0.0
 11
362.658855996578
 21
207.4813708758389
 31
0.0
  0
LINE
  5
59FD
330
1A
100
AcDbEntity
  8
150
  6
HIDDEN2
 62
     7
100
AcDbLine
 10
387.158855996578
 20
204.8813648758389
 30
0.0
 11
362.658855996578
 21
204.8813648758389
 31
0.0
  0
LINE
  5
59FE
330
1A
100
AcDbEntity
  8
150
  6
HIDDEN2
 62
     7
100
AcDbLine
 10
386.658855996578
 20
209.9813708758389
 30
0.0
 11
368.658855996578
 21
209.9813708758389
 31
0.0
  0
LINE
  5
59FF
330
1A
100
AcDbEntity
  8
150
  6
HIDDEN2
 62
     7
100
AcDbLine
 10
368.658855996578
 20
211.5813768758389
 30
0.0
 11
386.658855996578
 21
211.5813768758389
 31
0.0
  0
LINE
  5
5A00
330
1A
100
AcDbEntity
  8
150
  6
HIDDEN2
 62
     7
100
AcDbLine
 10
369.958874996578
 20
213.5813768758389
 30
0.0
 11
385.358868996578
 21
213.5813768758389
 31
0.0
  0
LINE
  5
5A01
330
1A
100
AcDbEntity
  8
150
  6
HIDDEN2
 62
     7
100
AcDbLine
 10
373.658855996578
 20
200.257890875839
 30
0.0
 11
381.658855996578
 21
200.257890875839
 31
0.0
  0
LINE
  5
5A02
330
1A
100
AcDbEntity
  8
150
  6
HIDDEN2
 62
     7
100
AcDbLine
 10
374.3353399965781
 20
199.5813768758389
 30
0.0
 11
380.982342996578
 21
199.5813768758389
 31
0.0
  0
LINE
  5
5A03
330
1A
100
AcDbEntity
  8
150
  6
HIDDEN2
 62
     7
100
AcDbLine
 10
374.335369996578
 20
209.9813708758389
 30
0.0
 11
374.3353399965781
 21
199.5813768758389
 31
0.0
  0
LINE
  5
5A04
330
1A
100
AcDbEntity
  8
150
  6
HIDDEN2
 62
     7
100
AcDbLine
 10
373.658855996578
 20
209.9813708758389
 30
0.0
 11
373.658855996578
 21
200.257890875839
 31
0.0
  0
LINE
  5
5A05
330
1A
100
AcDbEntity
  8
150
  6
HIDDEN2
 62
     7
100
AcDbLine
 10
373.658855996578
 20
200.257890875839
 30
0.0
 11
374.3353399965781
 21
199.5813768758389
 31
0.0
  0
ARC
  5
5A06
330
1A
100
AcDbEntity
  8
150
  6
HIDDEN2
 62
     7
100
AcDbCircle
 10
373.4627909965779
 20
215.798696875839
 30
0.0
 40
2.6
100
AcDbArc
 50
105.8114240000005
 51
174.9999579999979
  0
LINE
  5
5A07
330
1A
100
AcDbEntity
  8
150
  6
HIDDEN2
 62
     7
100
AcDbLine
 10
370.658855996578
 20
213.5813768758389
 30
0.0
 11
370.872692996578
 21
216.0252858758389
 31
0.0
  0
LINE
  5
5A08
330
1A
100
AcDbEntity
  8
150
  6
HIDDEN2
 62
     7
100
AcDbLine
 10
368.658855996578
 20
209.9813708758389
 30
0.0
 11
368.658855996578
 21
211.5813768758389
 31
0.0
  0
LINE
  5
5A09
330
1A
100
AcDbEntity
  8
150
  6
HIDDEN2
 62
     7
100
AcDbLine
 10
369.958874996578
 20
211.5813768758389
 30
0.0
 11
369.958874996578
 21
213.5813768758389
 31
0.0
  0
LINE
  5
5A0A
330
1A
100
AcDbEntity
  8
150
  6
HIDDEN2
 62
     7
100
AcDbLine
 10
380.982342996578
 20
209.9813708758389
 30
0.0
 11
380.982342996578
 21
199.5813768758389
 31
0.0
  0
LINE
  5
5A0B
330
1A
100
AcDbEntity
  8
150
  6
HIDDEN2
 62
     7
100
AcDbLine
 10
381.658855996578
 20
209.9813708758389
 30
0.0
 11
381.658855996578
 21
200.257890875839
 31
0.0
  0
LINE
  5
5A0C
330
1A
100
AcDbEntity
  8
150
  6
HIDDEN2
 62
     7
100
AcDbLine
 10
381.658855996578
 20
200.257890875839
 30
0.0
 11
380.982342996578
 21
199.5813768758389
 31
0.0
  0
LINE
  5
5A0D
330
1A
100
AcDbEntity
  8
150
  6
HIDDEN2
 62
     7
100
AcDbLine
 10
387.158855996578
 20
207.4813708758389
 30
0.0
 11
387.158855996578
 21
204.8813648758389
 31
0.0
  0
ARC
  5
5A0E
330
1A
100
AcDbEntity
  8
150
  6
HIDDEN2
 62
     7
100
AcDbCircle
 10
381.854941996578
 20
215.7986918758389
 30
0.0
 40
2.6
100
AcDbArc
 50
4.999968000000138
 51
74.18850000000031
  0
LINE
  5
5A0F
330
1A
100
AcDbEntity
  8
150
  6
HIDDEN2
 62
     7
100
AcDbLine
 10
384.658855996578
 20
213.5813768758389
 30
0.0
 11
384.445049996578
 21
216.0252858758389
 31
0.0
  0
LINE
  5
5A10
330
1A
100
AcDbEntity
  8
150
  6
HIDDEN2
 62
     7
100
AcDbLine
 10
377.658855996578
 20
211.5813768758389
 30
0.0
 11
376.658855996578
 21
213.5813768758389
 31
0.0
  0
LINE
  5
5A11
330
1A
100
AcDbEntity
  8
150
  6
HIDDEN2
 62
     7
100
AcDbLine
 10
378.658855996578
 20
211.5813768758389
 30
0.0
 11
377.658855996578
 21
213.5813768758389
 31
0.0
  0
LINE
  5
5A12
330
1A
100
AcDbEntity
  8
150
  6
HIDDEN2
 62
     7
100
AcDbLine
 10
386.658855996578
 20
209.9813708758389
 30
0.0
 11
386.658855996578
 21
211.5813768758389
 31
0.0
  0
LINE
  5
5A13
330
1A
100
AcDbEntity
  8
150
  6
HIDDEN2
 62
     7
100
AcDbLine
 10
385.358868996578
 20
211.5813768758389
 30
0.0
 11
385.358868996578
 21
213.5813768758389
 31
0.0
  0
LINE
  5
5A14
330
1A
100
AcDbEntity
  8
0
  6
CONTINUOUS
 62
     2
100
AcDbLine
 10
335.158855996578
 20
272.4813708758389
 30
0.0
 11
335.158855996578
 21
265.481370875839
 31
0.0
  0
ARC
  5
5A15
330
1A
100
AcDbEntity
  8
150
  6
CONTINUOUS
 62
     7
100
AcDbCircle
 10
334.158855996578
 20
268.4813708758389
 30
0.0
 40
1.0
100
AcDbArc
 50
0.0
 51
90.00000299999932
  0
ARC
  5
5A16
330
1A
100
AcDbEntity
  8
0
  6
CONTINUOUS
 62
     2
100
AcDbCircle
 10
334.158855996578
 20
272.4813708758389
 30
0.0
 40
1.0
100
AcDbArc
 50
0.0
 51
90.00000299999932
  0
LINE
  5
5A17
330
1A
100
AcDbEntity
  8
170
  6
PHANTOM2
100
AcDbLine
 10
356.158855996578
 20
272.4813708758389
 30
0.0
 11
356.158855996578
 21
270.4813708758389
 31
0.0
  0
ARC
  5
5A18
330
1A
100
AcDbEntity
  8
150
  6
PHANTOM2
100
AcDbCircle
 10
387.208843996578
 20
265.2813588758389
 30
0.0
 40
1.199999999999999
100
AcDbArc
 50
0.0
 51
90.00000299999932
  0
ARC
  5
5A19
330
1A
100
AcDbEntity
  8
150
  6
PHANTOM2
100
AcDbCircle
 10
378.108868996578
 20
265.2813588758389
 30
0.0
 40
1.199999999999999
100
AcDbArc
 50
90.0
 51
180.0000029999976
  0
LINE
  5
5A1A
330
1A
100
AcDbEntity
  8
0
  6
CONTINUOUS
 62
     2
100
AcDbLine
 10
386.658855996578
 20
261.481370875839
 30
0.0
 11
361.158855996578
 21
261.481370875839
 31
0.0
  0
LINE
  5
5A1B
330
1A
100
AcDbEntity
  8
0
  6
CONTINUOUS
 62
     2
100
AcDbLine
 10
361.158855996578
 20
264.4813708758389
 30
0.0
 11
361.158855996578
 21
261.481370875839
 31
0.0
  0
ARC
  5
5A1C
330
1A
100
AcDbEntity
  8
0
  6
CONTINUOUS
 62
     2
100
AcDbCircle
 10
360.158855996578
 20
264.4813708758389
 30
0.0
 40
1.0
100
AcDbArc
 50
0.0
 51
90.00000299999932
  0
LINE
  5
5A1D
330
1A
100
AcDbEntity
  8
150
  6
PHANTOM2
100
AcDbLine
 10
387.208843996578
 20
266.4813708758389
 30
0.0
 11
378.108868996578
 21
266.4813708758389
 31
0.0
  0
LINE
  5
5A1E
330
1A
100
AcDbEntity
  8
150
  6
PHANTOM2
100
AcDbLine
 10
386.908855996578
 20
265.2813588758389
 30
0.0
 11
378.408855996578
 21
265.2813588758389
 31
0.0
  0
LINE
  5
5A1F
330
1A
100
AcDbEntity
  8
150
  6
PHANTOM2
100
AcDbLine
 10
376.908855996578
 20
264.4813708758389
 30
0.0
 11
376.908855996578
 21
265.2813588758389
 31
0.0
  0
LINE
  5
5A20
330
1A
100
AcDbEntity
  8
150
  6
PHANTOM2
100
AcDbLine
 10
378.408855996578
 20
264.4813708758389
 30
0.0
 11
378.408855996578
 21
265.2813588758389
 31
0.0
  0
LINE
  5
5A21
330
1A
100
AcDbEntity
  8
150
  6
PHANTOM2
100
AcDbLine
 10
388.408855996578
 20
264.4813708758389
 30
0.0
 11
388.408855996578
 21
265.2813588758389
 31
0.0
  0
LINE
  5
5A22
330
1A
100
AcDbEntity
  8
150
  6
PHANTOM2
100
AcDbLine
 10
386.908855996578
 20
264.4813708758389
 30
0.0
 11
386.908855996578
 21
265.2813588758389
 31
0.0
  0
ARC
  5
5A23
330
1A
100
AcDbEntity
  8
0
  6
CONTINUOUS
 62
     2
100
AcDbCircle
 10
386.658855996578
 20
260.4813708758389
 30
0.0
 40
1.0
100
AcDbArc
 50
0.0
 51
90.00000299999932
  0
ARC
  5
5A25
330
1A
100
AcDbEntity
  8
150
  6
PHANTOM2
100
AcDbCircle
 10
425.658855996578
 20
262.4813708758389
 30
0.0
 40
2.0
100
AcDbArc
 50
0.0
 51
90.00000299999932
  0
LINE
  5
5A28
330
1A
100
AcDbEntity
  8
210
  6
CONTINUOUS
 62
     4
100
AcDbLine
 10
407.971706996578
 20
385.579546875839
 30
0.0
 11
154.096294996578
 21
385.579546875839
 31
0.0
  0
LINE
  5
5A29
330
1A
100
AcDbEntity
  8
210
  6
CONTINUOUS
 62
     4
100
AcDbLine
 10
195.1588259965781
 20
493.0796378758389
 30
0.0
 11
197.1308529965781
 21
492.7463048758389
 31
0.0
  0
LINE
  5
5A2A
330
1A
100
AcDbEntity
  8
210
  6
CONTINUOUS
 62
     4
100
AcDbLine
 10
195.1588259965781
 20
493.0796378758389
 30
0.0
 11
197.1308529965781
 21
493.4129718758389
 31
0.0
  0
LINE
  5
5A2B
330
1A
100
AcDbEntity
  8
210
  6
CONTINUOUS
 62
     4
100
AcDbLine
 10
195.1588259965781
 20
493.0796378758389
 30
0.0
 11
425.1588719965781
 21
493.0796378758389
 31
0.0
  0
ARC
  5
5A2C
330
1A
100
AcDbEntity
  8
0
  6
CONTINUOUS
 62
     2
100
AcDbCircle
 10
199.1588259965781
 20
367.0795758758389
 30
0.0
 40
4.0
100
AcDbArc
 50
180.0000050000005
 51
270.0000009999997
  0
LINE
  5
5A2E
330
1A
100
AcDbEntity
  8
225
  6
CENTER
 62
     3
100
AcDbLine
 10
186.1588259965781
 20
408.0795758758389
 30
0.0
 11
434.158855996578
 21
408.0795758758389
 31
0.0
  0
ARC
  5
5A31
330
1A
100
AcDbEntity
  8
0
  6
CONTINUOUS
100
AcDbCircle
 10
199.1588259965781
 20
449.0795758758389
 30
0.0
 40
4.0
100
AcDbArc
 50
90.0
 51
180.0000029999976
  0
LINE
  5
5A32
330
1A
100
AcDbEntity
  8
210
  6
CONTINUOUS
 62
     4
100
AcDbLine
 10
195.1588259965781
 20
450.079576875839
 30
0.0
 11
195.1588259965781
 21
497.142137875839
 31
0.0
  0
LINE
  5
5A33
330
1A
100
AcDbEntity
  8
0
  6
CONTINUOUS
 62
     2
100
AcDbLine
 10
195.1588259965781
 20
367.0795758758389
 30
0.0
 11
195.1588259965781
 21
449.0795758758389
 31
0.0
  0
LINE
  5
5A34
330
1A
100
AcDbEntity
  8
210
  6
CONTINUOUS
 62
     4
100
AcDbLine
 10
158.158794996578
 20
430.579576875839
 30
0.0
 11
157.825461996578
 21
428.6075508758389
 31
0.0
  0
LINE
  5
5A35
330
1A
100
AcDbEntity
  8
210
  6
CONTINUOUS
 62
     4
100
AcDbLine
 10
158.158794996578
 20
430.579576875839
 30
0.0
 11
158.492128996578
 21
428.6075508758389
 31
0.0
  0
LINE
  5
5A36
330
1A
100
AcDbEntity
  8
210
  6
CONTINUOUS
 62
     4
100
AcDbLine
 10
158.158794996578
 20
430.579576875839
 30
0.0
 11
158.158794996578
 21
385.579546875839
 31
0.0
  0
TEXT
  5
5A37
330
1A
100
AcDbEntity
  8
210
  6
CONTINUOUS
 62
     4
100
AcDbText
 10
155.0337959965779
 20
403.4545468758389
 30
0.0
 40
5.0
  1
45
 50
90.00000299999932
100
AcDbText
  0
LINE
  5
5A38
330
1A
100
AcDbEntity
  8
210
  6
CONTINUOUS
 62
     4
100
AcDbLine
 10
158.158794996578
 20
385.579546875839
 30
0.0
 11
157.825461996578
 21
387.551572875839
 31
0.0
  0
LINE
  5
5A39
330
1A
100
AcDbEntity
  8
210
  6
CONTINUOUS
 62
     4
100
AcDbLine
 10
158.158794996578
 20
385.579546875839
 30
0.0
 11
158.492128996578
 21
387.551572875839
 31
0.0
  0
TEXT
  5
5A3A
330
1A
100
AcDbEntity
  8
230
 62
     6
100
AcDbText
 10
181.871975996578
 20
404.7652158758389
 30
0.0
 40
5.0
  1
L
100
AcDbText
  0
TEXT
  5
5A3B
330
1A
100
AcDbEntity
  8
230
 62
     6
100
AcDbText
 10
180.307797996578
 20
406.069445875839
 30
0.0
 40
5.0
  1
H
100
AcDbText
  0
LINE
  5
5A3C
330
1A
100
AcDbEntity
  8
210
  6
CONTINUOUS
 62
     4
100
AcDbLine
 10
193.971630996578
 20
430.579576875839
 30
0.0
 11
154.096294996578
 21
430.579576875839
 31
0.0
  0
LINE
  5
5A3E
330
1A
100
AcDbEntity
  8
210
  6
CONTINUOUS
 62
     4
100
AcDbLine
 10
417.158932996578
 20
394.7667418758389
 30
0.0
 11
417.158932996578
 21
477.142107875839
 31
0.0
  0
LINE
  5
5A3F
330
1A
100
AcDbEntity
  8
210
  6
CONTINUOUS
 62
     4
100
AcDbLine
 10
203.1588259965781
 20
439.7667418758389
 30
0.0
 11
203.1588259965781
 21
477.142107875839
 31
0.0
  0
LINE
  5
5A40
330
1A
100
AcDbEntity
  8
210
  6
CONTINUOUS
 62
     4
100
AcDbLine
 10
425.1588719965781
 20
450.079576875839
 30
0.0
 11
425.1588719965781
 21
497.142137875839
 31
0.0
  0
LINE
  5
5A41
330
1A
100
AcDbEntity
  8
210
  6
CONTINUOUS
 62
     4
100
AcDbLine
 10
310.1588719965779
 20
343.0796078758389
 30
0.0
 11
377.658871996578
 21
343.0796078758389
 31
0.0
  0
LINE
  5
5A42
330
1A
100
AcDbEntity
  8
210
  6
CONTINUOUS
 62
     4
100
AcDbLine
 10
203.1588259965781
 20
473.0796078758389
 30
0.0
 11
417.158932996578
 21
473.0796078758389
 31
0.0
  0
LINE
  5
5A44
330
1A
100
AcDbEntity
  8
0
  6
CONTINUOUS
 62
     2
100
AcDbLine
 10
286.158855996578
 20
450.5795758758389
 30
0.0
 11
334.158855996578
 21
450.5795758758389
 31
0.0
  0
LINE
  5
5A45
330
1A
100
AcDbEntity
  8
0
  6
CONTINUOUS
 62
     2
100
AcDbLine
 10
286.158855996578
 20
365.579575875839
 30
0.0
 11
334.158855996578
 21
365.579575875839
 31
0.0
  0
LINE
  5
5A46
330
1A
100
AcDbEntity
  8
0
  6
CONTINUOUS
 62
     2
100
AcDbLine
 10
199.1588259965781
 20
363.0795758758389
 30
0.0
 11
421.158855996578
 21
363.0795758758389
 31
0.0
  0
LINE
  5
5A47
330
1A
100
AcDbEntity
  8
0
  6
CONTINUOUS
100
AcDbLine
 10
199.1588259965781
 20
453.0795758758389
 30
0.0
 11
421.158855996578
 21
453.0795758758389
 31
0.0
  0
LINE
  5
5A48
330
1A
100
AcDbEntity
  8
0
  6
CONTINUOUS
 62
     2
100
AcDbLine
 10
286.158855996578
 20
397.079575875839
 30
0.0
 11
334.158855996578
 21
397.079575875839
 31
0.0
  0
LINE
  5
5A49
330
1A
100
AcDbEntity
  8
0
  6
CONTINUOUS
 62
     2
100
AcDbLine
 10
286.158855996578
 20
419.0795758758389
 30
0.0
 11
334.158855996578
 21
419.0795758758389
 31
0.0
  0
LINE
  5
5A4A
330
1A
100
AcDbEntity
  8
150
  6
HIDDEN2
 62
     7
100
AcDbLine
 10
232.6588259965781
 20
386.579575875839
 30
0.0
 11
232.6588259965781
 21
369.5795758758389
 31
0.0
  0
LINE
  5
5A4B
330
1A
100
AcDbEntity
  8
150
  6
CONTINUOUS
100
AcDbLine
 10
251.1588259965781
 20
370.579575875839
 30
0.0
 11
251.1588259965781
 21
385.5795758758389
 31
0.0
  0
LINE
  5
5A4C
330
1A
100
AcDbEntity
  8
225
  6
CENTER
 62
     3
100
AcDbLine
 10
310.158855996578
 20
353.079575875839
 30
0.0
 11
310.158855996578
 21
463.0795758758389
 31
0.0
  0
LINE
  5
5A4D
330
1A
100
AcDbEntity
  8
225
  6
CENTER
 62
     3
100
AcDbLine
 10
242.6588259965781
 20
368.579575875839
 30
0.0
 11
242.6588259965781
 21
387.5795758758389
 31
0.0
  0
LINE
  5
5A4E
330
1A
100
AcDbEntity
  8
0
  6
CONTINUOUS
100
AcDbLine
 10
227.6588259965781
 20
363.0795758758389
 30
0.0
 11
227.6588259965781
 21
453.0795758758389
 31
0.0
  0
LINE
  5
5A4F
330
1A
100
AcDbEntity
  8
0
  6
CONTINUOUS
 62
     2
100
AcDbLine
 10
285.158855996578
 20
449.5795758758389
 30
0.0
 11
285.158855996578
 21
366.579575875839
 31
0.0
  0
CIRCLE
  5
5A50
330
1A
100
AcDbEntity
  8
150
  6
HIDDEN2
 62
     7
100
AcDbCircle
 10
242.658758996578
 20
378.0794838758389
 30
0.0
 40
5.25
  0
CIRCLE
  5
5A51
330
1A
100
AcDbEntity
  8
150
  6
HIDDEN2
 62
     7
100
AcDbCircle
 10
242.658758996578
 20
378.0794838758389
 30
0.0
 40
6.5
  0
LINE
  5
5A52
330
1A
100
AcDbEntity
  8
0
  6
CONTINUOUS
 62
     2
100
AcDbLine
 10
259.158855996578
 20
363.0795758758389
 30
0.0
 11
259.158855996578
 21
453.0795758758389
 31
0.0
  0
LINE
  5
5A5A
330
1A
100
AcDbEntity
  8
0
  6
CONTINUOUS
 62
     2
100
AcDbLine
 10
226.1588259965781
 20
370.079575875839
 30
0.0
 11
226.1588259965781
 21
373.0795758758389
 31
0.0
  0
LINE
  5
5A5B
330
1A
100
AcDbEntity
  8
0
  6
CONTINUOUS
 62
     2
100
AcDbLine
 10
226.1588259965781
 20
370.079575875839
 30
0.0
 11
227.6588259965781
 21
370.079575875839
 31
0.0
  0
LINE
  5
5A5C
330
1A
100
AcDbEntity
  8
0
  6
CONTINUOUS
 62
     2
100
AcDbLine
 10
226.1588259965781
 20
373.0795758758389
 30
0.0
 11
227.6588259965781
 21
373.0795758758389
 31
0.0
  0
LINE
  5
5A5D
330
1A
100
AcDbEntity
  8
150
  6
CONTINUOUS
100
AcDbLine
 10
232.6588259965781
 20
369.5795758758389
 30
0.0
 11
250.1588259965781
 21
369.5795758758389
 31
0.0
  0
LINE
  5
5A5E
330
1A
100
AcDbEntity
  8
225
  6
CENTER
 62
     3
100
AcDbLine
 10
233.158855996578
 20
378.079575875839
 30
0.0
 11
252.1588259965781
 21
378.079575875839
 31
0.0
  0
LINE
  5
5A5F
330
1A
100
AcDbEntity
  8
150
  6
HIDDEN2
 62
     7
100
AcDbLine
 10
244.2498289965781
 20
378.6099108758389
 30
0.0
 11
245.416546996578
 21
379.7766278758389
 31
0.0
  0
LINE
  5
5A60
330
1A
100
AcDbEntity
  8
150
  6
HIDDEN2
 62
     7
100
AcDbLine
 10
245.416546996578
 20
376.382523875839
 30
0.0
 11
244.2498289965781
 21
377.5492418758389
 31
0.0
  0
LINE
  5
5A61
330
1A
100
AcDbEntity
  8
150
  6
HIDDEN2
 62
     7
100
AcDbLine
 10
244.3558779965781
 20
375.321854875839
 30
0.0
 11
245.416546996578
 21
376.382523875839
 31
0.0
  0
LINE
  5
5A62
330
1A
100
AcDbEntity
  8
150
  6
HIDDEN2
 62
     7
100
AcDbLine
 10
245.416546996578
 20
379.7766278758389
 30
0.0
 11
244.3558779965781
 21
380.837296875839
 31
0.0
  0
LINE
  5
5A63
330
1A
100
AcDbEntity
  8
150
  6
CONTINUOUS
100
AcDbLine
 10
233.658855996578
 20
364.079575875839
 30
0.0
 11
237.658855996578
 21
364.079575875839
 31
0.0
  0
LINE
  5
5A64
330
1A
100
AcDbEntity
  8
150
  6
CONTINUOUS
100
AcDbLine
 10
232.6588259965781
 20
369.5795758758389
 30
0.0
 11
232.6588259965781
 21
365.0795758758389
 31
0.0
  0
ARC
  5
5A65
330
1A
100
AcDbEntity
  8
150
  6
CONTINUOUS
100
AcDbCircle
 10
233.658855996578
 20
365.0795758758389
 30
0.0
 40
1.0
100
AcDbArc
 50
180.0
 51
270.0000029999993
  0
LINE
  5
5A66
330
1A
100
AcDbEntity
  8
150
  6
CONTINUOUS
100
AcDbLine
 10
237.658855996578
 20
364.079575875839
 30
0.0
 11
237.658855996578
 21
363.0795758758389
 31
0.0
  0
ARC
  5
5A67
330
1A
100
AcDbEntity
  8
150
  6
HIDDEN2
 62
     7
100
AcDbCircle
 10
244.780081996578
 20
378.0794808758389
 30
0.0
 40
0.75
100
AcDbArc
 50
134.9999859999998
 51
224.999988000001
  0
ARC
  5
5A68
330
1A
100
AcDbEntity
  8
150
  6
HIDDEN2
 62
     7
100
AcDbCircle
 10
242.6587609965781
 20
375.9581608758389
 30
0.0
 40
0.75
100
AcDbArc
 50
44.99998300000108
 51
134.9999859999998
  0
ARC
  5
5A69
330
1A
100
AcDbEntity
  8
150
  6
HIDDEN2
 62
     7
100
AcDbCircle
 10
240.5374379965781
 20
378.0794838758389
 30
0.0
 40
0.75
100
AcDbArc
 50
314.9999840000002
 51
44.99999300000106
  0
ARC
  5
5A6A
330
1A
100
AcDbEntity
  8
150
  6
HIDDEN2
 62
     7
100
AcDbCircle
 10
242.658758996578
 20
380.2008038758389
 30
0.0
 40
0.75
100
AcDbArc
 50
224.999988000001
 51
314.9999840000002
  0
LINE
  5
5A6B
330
1A
100
AcDbEntity
  8
150
  6
HIDDEN2
 62
     7
100
AcDbLine
 10
243.189159996578
 20
376.488572875839
 30
0.0
 11
244.3558779965781
 21
375.321854875839
 31
0.0
  0
LINE
  5
5A6C
330
1A
100
AcDbEntity
  8
150
  6
HIDDEN2
 62
     7
100
AcDbLine
 10
240.9617739965781
 20
375.321854875839
 30
0.0
 11
242.128490996578
 21
376.488572875839
 31
0.0
  0
LINE
  5
5A6D
330
1A
100
AcDbEntity
  8
150
  6
HIDDEN2
 62
     7
100
AcDbLine
 10
239.901135996578
 20
376.382523875839
 30
0.0
 11
240.9617739965781
 21
375.321854875839
 31
0.0
  0
LINE
  5
5A6E
330
1A
100
AcDbEntity
  8
150
  6
HIDDEN2
 62
     7
100
AcDbLine
 10
241.067852996578
 20
377.5492418758389
 30
0.0
 11
239.901135996578
 21
376.382523875839
 31
0.0
  0
LINE
  5
5A6F
330
1A
100
AcDbEntity
  8
150
  6
HIDDEN2
 62
     7
100
AcDbLine
 10
239.901135996578
 20
379.7766278758389
 30
0.0
 11
241.067852996578
 21
378.6099108758389
 31
0.0
  0
LINE
  5
5A70
330
1A
100
AcDbEntity
  8
150
  6
HIDDEN2
 62
     7
100
AcDbLine
 10
240.9617739965781
 20
380.837296875839
 30
0.0
 11
239.901135996578
 21
379.7766278758389
 31
0.0
  0
LINE
  5
5A71
330
1A
100
AcDbEntity
  8
150
  6
HIDDEN2
 62
     7
100
AcDbLine
 10
242.128490996578
 20
379.6705798758389
 30
0.0
 11
240.9617739965781
 21
380.837296875839
 31
0.0
  0
LINE
  5
5A72
330
1A
100
AcDbEntity
  8
150
  6
HIDDEN2
 62
     7
100
AcDbLine
 10
244.3558779965781
 20
380.837296875839
 30
0.0
 11
243.189159996578
 21
379.6705798758389
 31
0.0
  0
ARC
  5
5A73
330
1A
100
AcDbEntity
  8
150
  6
CONTINUOUS
100
AcDbCircle
 10
250.1588259965781
 20
370.579575875839
 30
0.0
 40
1.0
100
AcDbArc
 50
270.0
 51
0.000008999999603
  0
TEXT
  5
5A75
330
1A
100
AcDbEntity
  8
210
 62
     4
100
AcDbText
 10
302.825283996578
 20
291.743242875839
 30
0.0
 40
5.0
  1
ASL
100
AcDbText
  0
ARC
  5
5A76
330
1A
100
AcDbEntity
  8
0
  6
CONTINUOUS
 62
     2
100
AcDbCircle
 10
286.158855996578
 20
366.579575875839
 30
0.0
 40
1.0
100
AcDbArc
 50
180.0000050000005
 51
270.0000009999997
  0
LINE
  5
5A77
330
1A
100
AcDbEntity
  8
210
  6
CONTINUOUS
 62
     4
100
AcDbLine
 10
310.1588719965779
 20
343.0796078758389
 30
0.0
 11
312.130897996578
 21
342.746274875839
 31
0.0
  0
LINE
  5
5A78
330
1A
100
AcDbEntity
  8
210
  6
CONTINUOUS
 62
     4
100
AcDbLine
 10
310.1588719965779
 20
343.0796078758389
 30
0.0
 11
312.130897996578
 21
343.412940875839
 31
0.0
  0
LINE
  5
5A79
330
1A
100
AcDbEntity
  8
210
  6
CONTINUOUS
 62
     4
100
AcDbLine
 10
310.1588719965779
 20
352.8923828758389
 30
0.0
 11
310.1588719965779
 21
339.0171078758389
 31
0.0
  0
LINE
  5
5A7A
330
1A
100
AcDbEntity
  8
150
  6
CONTINUOUS
100
AcDbLine
 10
232.6588259965781
 20
429.5795758758389
 30
0.0
 11
232.6588259965781
 21
416.5795758758389
 31
0.0
  0
LINE
  5
5A83
330
1A
100
AcDbEntity
  8
225
  6
CENTER
 62
     3
100
AcDbLine
 10
242.6588259965781
 20
428.5795758758389
 30
0.0
 11
242.6588259965781
 21
447.5795758758389
 31
0.0
  0
LINE
  5
5A87
330
1A
100
AcDbEntity
  8
150
  6
HIDDEN2
 62
     7
100
AcDbLine
 10
232.6588259965781
 20
416.5795758758389
 30
0.0
 11
232.6588259965781
 21
399.579575875839
 31
0.0
  0
LINE
  5
5A88
330
1A
100
AcDbEntity
  8
150
  6
CONTINUOUS
100
AcDbLine
 10
251.1588259965781
 20
400.5795758758389
 30
0.0
 11
251.1588259965781
 21
415.5795758758389
 31
0.0
  0
LINE
  5
5A89
330
1A
100
AcDbEntity
  8
225
  6
CENTER
 62
     3
100
AcDbLine
 10
242.6588259965781
 20
398.5795758758389
 30
0.0
 11
242.6588259965781
 21
417.5795758758389
 31
0.0
  0
LINE
  5
5A8A
330
1A
100
AcDbEntity
  8
150
  6
HIDDEN2
 62
     7
100
AcDbLine
 10
239.901135996578
 20
406.382523875839
 30
0.0
 11
240.9617739965781
 21
405.3218548758389
 31
0.0
  0
LINE
  5
5A8B
330
1A
100
AcDbEntity
  8
150
  6
HIDDEN2
 62
     7
100
AcDbLine
 10
240.9617739965781
 20
405.3218548758389
 30
0.0
 11
242.128490996578
 21
406.4885728758389
 31
0.0
  0
LINE
  5
5A8C
330
1A
100
AcDbEntity
  8
150
  6
HIDDEN2
 62
     7
100
AcDbLine
 10
243.189159996578
 20
406.4885728758389
 30
0.0
 11
244.3558779965781
 21
405.3218548758389
 31
0.0
  0
LINE
  5
5A8D
330
1A
100
AcDbEntity
  8
150
  6
HIDDEN2
 62
     7
100
AcDbLine
 10
244.3558779965781
 20
405.3218548758389
 30
0.0
 11
245.416546996578
 21
406.382523875839
 31
0.0
  0
CIRCLE
  5
5A8E
330
1A
100
AcDbEntity
  8
150
  6
HIDDEN2
 62
     7
100
AcDbCircle
 10
242.658753996578
 20
408.0794868758389
 30
0.0
 40
6.5
  0
CIRCLE
  5
5A8F
330
1A
100
AcDbEntity
  8
150
  6
HIDDEN2
 62
     7
100
AcDbCircle
 10
242.658753996578
 20
408.0794868758389
 30
0.0
 40
5.25
  0
LINE
  5
5A90
330
1A
100
AcDbEntity
  8
150
  6
CONTINUOUS
100
AcDbLine
 10
232.6588259965781
 20
386.579575875839
 30
0.0
 11
250.1588259965781
 21
386.579575875839
 31
0.0
  0
LINE
  5
5A91
330
1A
100
AcDbEntity
  8
150
  6
CONTINUOUS
100
AcDbLine
 10
250.1588259965781
 20
399.579575875839
 30
0.0
 11
232.6588259965781
 21
399.579575875839
 31
0.0
  0
LINE
  5
5A92
330
1A
100
AcDbEntity
  8
225
  6
CENTER
 62
     3
100
AcDbLine
 10
237.658855996578
 20
393.079575875839
 30
0.0
 11
250.658855996578
 21
393.079575875839
 31
0.0
  0
CIRCLE
  5
5A93
330
1A
100
AcDbEntity
  8
150
  6
CONTINUOUS
100
AcDbCircle
 10
244.158855996578
 20
393.079575875839
 30
0.0
 40
4.5
  0
LINE
  5
5A94
330
1A
100
AcDbEntity
  8
150
  6
CONTINUOUS
100
AcDbLine
 10
232.6588259965781
 20
399.579575875839
 30
0.0
 11
232.6588259965781
 21
386.579575875839
 31
0.0
  0
LINE
  5
5A95
330
1A
100
AcDbEntity
  8
225
  6
CENTER
 62
     3
100
AcDbLine
 10
244.1588259965781
 20
386.579575875839
 30
0.0
 11
244.1588259965781
 21
399.579575875839
 31
0.0
  0
ARC
  5
5A96
330
1A
100
AcDbEntity
  8
150
  6
CONTINUOUS
100
AcDbCircle
 10
250.1588259965781
 20
385.5795758758389
 30
0.0
 40
1.0
100
AcDbArc
 50
0.0
 51
90.00000299999932
  0
ARC
  5
5A97
330
1A
100
AcDbEntity
  8
150
  6
CONTINUOUS
100
AcDbCircle
 10
250.1588259965781
 20
400.5795758758389
 30
0.0
 40
1.0
100
AcDbArc
 50
270.0
 51
0.000008999999603
  0
LINE
  5
5A98
330
1A
100
AcDbEntity
  8
150
  6
CONTINUOUS
100
AcDbLine
 10
250.1588259965781
 20
416.5795758758389
 30
0.0
 11
232.6588259965781
 21
416.5795758758389
 31
0.0
  0
LINE
  5
5A99
330
1A
100
AcDbEntity
  8
225
  6
CONTINUOUS
 62
     3
100
AcDbLine
 10
233.658855996578
 20
408.0795758758389
 30
0.0
 11
252.6588259965781
 21
408.0795758758389
 31
0.0
  0
LINE
  5
5A9A
330
1A
100
AcDbEntity
  8
150
  6
HIDDEN2
 62
     7
100
AcDbLine
 10
245.416546996578
 20
409.7766278758389
 30
0.0
 11
244.3558779965781
 21
410.8372968758389
 31
0.0
  0
LINE
  5
5A9B
330
1A
100
AcDbEntity
  8
150
  6
HIDDEN2
 62
     7
100
AcDbLine
 10
245.416546996578
 20
406.382523875839
 30
0.0
 11
244.2498289965781
 21
407.5492418758389
 31
0.0
  0
LINE
  5
5A9C
330
1A
100
AcDbEntity
  8
150
  6
HIDDEN2
 62
     7
100
AcDbLine
 10
244.2498289965781
 20
408.6099108758389
 30
0.0
 11
245.416546996578
 21
409.7766278758389
 31
0.0
  0
LINE
  5
5A9D
330
1A
100
AcDbEntity
  8
150
  6
HIDDEN2
 62
     7
100
AcDbLine
 10
244.3558779965781
 20
410.8372968758389
 30
0.0
 11
243.189159996578
 21
409.6705798758389
 31
0.0
  0
LINE
  5
5A9E
330
1A
100
AcDbEntity
  8
150
  6
HIDDEN2
 62
     7
100
AcDbLine
 10
242.128490996578
 20
409.6705798758389
 30
0.0
 11
240.9617739965781
 21
410.8372968758389
 31
0.0
  0
LINE
  5
5A9F
330
1A
100
AcDbEntity
  8
150
  6
HIDDEN2
 62
     7
100
AcDbLine
 10
240.9617739965781
 20
410.8372968758389
 30
0.0
 11
239.901135996578
 21
409.7766278758389
 31
0.0
  0
LINE
  5
5AA0
330
1A
100
AcDbEntity
  8
150
  6
HIDDEN2
 62
     7
100
AcDbLine
 10
239.901135996578
 20
409.7766278758389
 30
0.0
 11
241.067852996578
 21
408.6099108758389
 31
0.0
  0
LINE
  5
5AA1
330
1A
100
AcDbEntity
  8
150
  6
HIDDEN2
 62
     7
100
AcDbLine
 10
241.067852996578
 20
407.5492418758389
 30
0.0
 11
239.901135996578
 21
406.382523875839
 31
0.0
  0
ARC
  5
5AA2
330
1A
100
AcDbEntity
  8
150
  6
HIDDEN2
 62
     7
100
AcDbCircle
 10
242.658754996578
 20
410.2008078758389
 30
0.0
 40
0.75
100
AcDbArc
 50
224.999988000001
 51
314.9999840000002
  0
ARC
  5
5AA3
330
1A
100
AcDbEntity
  8
150
  6
HIDDEN2
 62
     7
100
AcDbCircle
 10
240.537433996578
 20
408.0794878758389
 30
0.0
 40
0.75
100
AcDbArc
 50
314.9999840000002
 51
44.99999300000106
  0
ARC
  5
5AA4
330
1A
100
AcDbEntity
  8
150
  6
HIDDEN2
 62
     7
100
AcDbCircle
 10
242.658753996578
 20
405.9581668758389
 30
0.0
 40
0.75
100
AcDbArc
 50
44.99998300000108
 51
134.9999859999998
  0
ARC
  5
5AA5
330
1A
100
AcDbEntity
  8
150
  6
HIDDEN2
 62
     7
100
AcDbCircle
 10
244.780074996578
 20
408.0794868758389
 30
0.0
 40
0.75
100
AcDbArc
 50
134.9999859999998
 51
224.999988000001
  0
ARC
  5
5AA6
330
1A
100
AcDbEntity
  8
150
  6
CONTINUOUS
100
AcDbCircle
 10
250.1588259965781
 20
415.5795758758389
 30
0.0
 40
1.0
100
AcDbArc
 50
0.0
 51
90.00000299999932
  0
LINE
  5
5AB2
330
1A
100
AcDbEntity
  8
0
  6
CONTINUOUS
100
AcDbLine
 10
226.1588259965781
 20
446.0795758758389
 30
0.0
 11
226.1588259965781
 21
443.0795758758389
 31
0.0
  0
LINE
  5
5AB3
330
1A
100
AcDbEntity
  8
0
  6
CONTINUOUS
100
AcDbLine
 10
226.1588259965781
 20
443.0795758758389
 30
0.0
 11
227.6588259965781
 21
443.0795758758389
 31
0.0
  0
LINE
  5
5AB4
330
1A
100
AcDbEntity
  8
0
  6
CONTINUOUS
100
AcDbLine
 10
226.1588259965781
 20
446.0795758758389
 30
0.0
 11
227.6588259965781
 21
446.0795758758389
 31
0.0
  0
LINE
  5
5AB5
330
1A
100
AcDbEntity
  8
210
  6
CONTINUOUS
 62
     4
100
AcDbLine
 10
203.1588259965781
 20
473.0796078758389
 30
0.0
 11
205.1308529965781
 21
472.746274875839
 31
0.0
  0
LINE
  5
5AB6
330
1A
100
AcDbEntity
  8
210
  6
CONTINUOUS
 62
     4
100
AcDbLine
 10
203.1588259965781
 20
473.0796078758389
 30
0.0
 11
205.1308529965781
 21
473.412940875839
 31
0.0
  0
ARC
  5
5AB7
330
1A
100
AcDbEntity
  8
150
  6
CONTINUOUS
100
AcDbCircle
 10
233.658855996578
 20
451.0795758758389
 30
0.0
 40
1.0
100
AcDbArc
 50
90.0
 51
180.0000029999976
  0
LINE
  5
5AB8
330
1A
100
AcDbEntity
  8
150
  6
CONTINUOUS
100
AcDbLine
 10
237.658855996578
 20
452.0795758758389
 30
0.0
 11
237.658855996578
 21
453.0795758758389
 31
0.0
  0
LINE
  5
5AB9
330
1A
100
AcDbEntity
  8
150
  6
CONTINUOUS
100
AcDbLine
 10
232.6588259965781
 20
446.5795758758389
 30
0.0
 11
250.1588259965781
 21
446.5795758758389
 31
0.0
  0
LINE
  5
5ABA
330
1A
100
AcDbEntity
  8
150
  6
CONTINUOUS
100
AcDbLine
 10
232.6588259965781
 20
429.5795758758389
 30
0.0
 11
250.1588259965781
 21
429.5795758758389
 31
0.0
  0
LINE
  5
5ABB
330
1A
100
AcDbEntity
  8
225
  6
CENTER
 62
     3
100
AcDbLine
 10
233.158855996578
 20
438.0795758758389
 30
0.0
 11
252.1588259965781
 21
438.0795758758389
 31
0.0
  0
LINE
  5
5ABC
330
1A
100
AcDbEntity
  8
150
  6
HIDDEN2
 62
     7
100
AcDbLine
 10
245.416546996578
 20
439.7766278758389
 30
0.0
 11
244.3558779965781
 21
440.8372968758389
 31
0.0
  0
LINE
  5
5ABD
330
1A
100
AcDbEntity
  8
150
  6
HIDDEN2
 62
     7
100
AcDbLine
 10
244.3558779965781
 20
435.3218548758389
 30
0.0
 11
245.416546996578
 21
436.382523875839
 31
0.0
  0
LINE
  5
5ABE
330
1A
100
AcDbEntity
  8
150
  6
HIDDEN2
 62
     7
100
AcDbLine
 10
245.416546996578
 20
436.382523875839
 30
0.0
 11
244.2498289965781
 21
437.549241875839
 31
0.0
  0
LINE
  5
5ABF
330
1A
100
AcDbEntity
  8
150
  6
HIDDEN2
 62
     7
100
AcDbLine
 10
244.2498289965781
 20
438.6099108758389
 30
0.0
 11
245.416546996578
 21
439.7766278758389
 31
0.0
  0
CIRCLE
  5
5AC0
330
1A
100
AcDbEntity
  8
150
  6
HIDDEN2
 62
     7
100
AcDbCircle
 10
242.658759996578
 20
438.0794798758389
 30
0.0
 40
6.5
  0
CIRCLE
  5
5AC1
330
1A
100
AcDbEntity
  8
150
  6
HIDDEN2
 62
     7
100
AcDbCircle
 10
242.658759996578
 20
438.0794798758389
 30
0.0
 40
5.25
  0
LINE
  5
5AC2
330
1A
100
AcDbEntity
  8
150
  6
HIDDEN2
 62
     7
100
AcDbLine
 10
232.6588259965781
 20
446.5795758758389
 30
0.0
 11
232.6588259965781
 21
429.5795758758389
 31
0.0
  0
LINE
  5
5AC3
330
1A
100
AcDbEntity
  8
150
  6
HIDDEN2
 62
     7
100
AcDbLine
 10
244.3558779965781
 20
440.8372968758389
 30
0.0
 11
243.189159996578
 21
439.6705798758389
 31
0.0
  0
LINE
  5
5AC4
330
1A
100
AcDbEntity
  8
150
  6
HIDDEN2
 62
     7
100
AcDbLine
 10
242.128490996578
 20
439.6705798758389
 30
0.0
 11
240.9617739965781
 21
440.8372968758389
 31
0.0
  0
LINE
  5
5AC5
330
1A
100
AcDbEntity
  8
150
  6
HIDDEN2
 62
     7
100
AcDbLine
 10
240.9617739965781
 20
440.8372968758389
 30
0.0
 11
239.901135996578
 21
439.7766278758389
 31
0.0
  0
LINE
  5
5AC6
330
1A
100
AcDbEntity
  8
150
  6
HIDDEN2
 62
     7
100
AcDbLine
 10
239.901135996578
 20
439.7766278758389
 30
0.0
 11
241.067852996578
 21
438.6099108758389
 31
0.0
  0
LINE
  5
5AC7
330
1A
100
AcDbEntity
  8
150
  6
HIDDEN2
 62
     7
100
AcDbLine
 10
241.067852996578
 20
437.549241875839
 30
0.0
 11
239.901135996578
 21
436.382523875839
 31
0.0
  0
LINE
  5
5AC8
330
1A
100
AcDbEntity
  8
150
  6
HIDDEN2
 62
     7
100
AcDbLine
 10
239.901135996578
 20
436.382523875839
 30
0.0
 11
240.9617739965781
 21
435.3218548758389
 31
0.0
  0
LINE
  5
5AC9
330
1A
100
AcDbEntity
  8
150
  6
HIDDEN2
 62
     7
100
AcDbLine
 10
240.9617739965781
 20
435.3218548758389
 30
0.0
 11
242.128490996578
 21
436.4885728758389
 31
0.0
  0
LINE
  5
5ACA
330
1A
100
AcDbEntity
  8
150
  6
HIDDEN2
 62
     7
100
AcDbLine
 10
243.189159996578
 20
436.4885728758389
 30
0.0
 11
244.3558779965781
 21
435.3218548758389
 31
0.0
  0
ARC
  5
5ACB
330
1A
100
AcDbEntity
  8
150
  6
HIDDEN2
 62
     7
100
AcDbCircle
 10
242.6587609965781
 20
440.2007998758389
 30
0.0
 40
0.75
100
AcDbArc
 50
224.999988000001
 51
314.9999840000002
  0
ARC
  5
5ACC
330
1A
100
AcDbEntity
  8
150
  6
HIDDEN2
 62
     7
100
AcDbCircle
 10
240.5374399965781
 20
438.0794808758389
 30
0.0
 40
0.75
100
AcDbArc
 50
314.9999840000002
 51
44.99999300000106
  0
ARC
  5
5ACD
330
1A
100
AcDbEntity
  8
150
  6
HIDDEN2
 62
     7
100
AcDbCircle
 10
242.658759996578
 20
435.9581598758389
 30
0.0
 40
0.75
100
AcDbArc
 50
44.99998300000108
 51
134.9999859999998
  0
ARC
  5
5ACE
330
1A
100
AcDbEntity
  8
150
  6
HIDDEN2
 62
     7
100
AcDbCircle
 10
244.7800809965781
 20
438.079478875839
 30
0.0
 40
0.75
100
AcDbArc
 50
134.9999859999998
 51
224.999988000001
  0
LINE
  5
5ACF
330
1A
100
AcDbEntity
  8
150
  6
CONTINUOUS
100
AcDbLine
 10
233.658855996578
 20
452.0795758758389
 30
0.0
 11
237.658855996578
 21
452.0795758758389
 31
0.0
  0
LINE
  5
5AD0
330
1A
100
AcDbEntity
  8
150
  6
CONTINUOUS
100
AcDbLine
 10
232.6588259965781
 20
451.0795758758389
 30
0.0
 11
232.6588259965781
 21
446.5795758758389
 31
0.0
  0
LINE
  5
5AD1
330
1A
100
AcDbEntity
  8
150
  6
CONTINUOUS
100
AcDbLine
 10
251.1588259965781
 20
430.5795758758389
 30
0.0
 11
251.1588259965781
 21
445.5795758758389
 31
0.0
  0
ARC
  5
5AD2
330
1A
100
AcDbEntity
  8
150
  6
CONTINUOUS
100
AcDbCircle
 10
250.1588259965781
 20
430.5795758758389
 30
0.0
 40
1.0
100
AcDbArc
 50
270.0
 51
0.000008999999603
  0
ARC
  5
5AD3
330
1A
100
AcDbEntity
  8
150
  6
CONTINUOUS
100
AcDbCircle
 10
250.1588259965781
 20
445.5795758758389
 30
0.0
 40
1.0
100
AcDbArc
 50
0.0
 51
90.00000299999932
  0
LINE
  5
5AD4
330
1A
100
AcDbEntity
  8
0
  6
CONTINUOUS
 62
     2
100
AcDbLine
 10
293.585156996578
 20
402.8295758758389
 30
0.0
 11
305.0201239965781
 21
402.8295758758389
 31
0.0
  0
LINE
  5
5AD5
330
1A
100
AcDbEntity
  8
0
  6
CONTINUOUS
 62
     2
100
AcDbLine
 10
293.585156996578
 20
413.3295758758389
 30
0.0
 11
305.0201239965781
 21
413.3295758758388
 31
0.0
  0
LINE
  5
5AD6
330
1A
100
AcDbEntity
  8
0
  6
CONTINUOUS
 62
     2
100
AcDbLine
 10
292.585156996578
 20
403.8295758758389
 30
0.0
 11
292.585156996578
 21
412.3295758758389
 31
0.0
  0
ARC
  5
5AD7
330
1A
100
AcDbEntity
  8
0
  6
CONTINUOUS
 62
     2
100
AcDbCircle
 10
286.158855996578
 20
398.0795758758389
 30
0.0
 40
1.0
100
AcDbArc
 50
180.0000050000005
 51
270.0000009999997
  0
ARC
  5
5AD8
330
1A
100
AcDbEntity
  8
0
  6
CONTINUOUS
 62
     2
100
AcDbCircle
 10
293.585156996578
 20
403.8295758758389
 30
0.0
 40
1.0
100
AcDbArc
 50
180.0000050000005
 51
270.0000009999997
  0
ARC
  5
5AD9
330
1A
100
AcDbEntity
  8
0
  6
CONTINUOUS
 62
     2
100
AcDbCircle
 10
293.585156996578
 20
412.3295758758389
 30
0.0
 40
1.0
100
AcDbArc
 50
90.0
 51
180.0000029999976
  0
ARC
  5
5ADA
330
1A
100
AcDbEntity
  8
0
  6
CONTINUOUS
 62
     2
100
AcDbCircle
 10
286.158855996578
 20
418.0795758758389
 30
0.0
 40
1.0
100
AcDbArc
 50
90.0
 51
180.0000029999976
  0
LINE
  5
5ADB
330
1A
100
AcDbEntity
  8
0
  6
CONTINUOUS
 62
     2
100
AcDbLine
 10
299.279308996578
 20
412.3295758758389
 30
0.0
 11
299.279308996578
 21
403.8295758758389
 31
0.0
  0
LINE
  5
5ADC
330
1A
100
AcDbEntity
  8
0
  6
CONTINUOUS
 62
     2
100
AcDbLine
 10
305.0201239965781
 20
402.8295758758389
 30
0.0
 11
305.0201239965781
 21
413.3295758758388
 31
0.0
  0
LINE
  5
5ADD
330
1A
100
AcDbEntity
  8
150
  6
CONTINUOUS
100
AcDbLine
 10
324.158855996578
 20
402.0795758758389
 30
0.0
 11
324.158855996578
 21
414.0795758758389
 31
0.0
  0
LINE
  5
5ADE
330
1A
100
AcDbEntity
  8
150
  6
CONTINUOUS
100
AcDbLine
 10
295.158855996578
 20
402.0795758758389
 30
0.0
 11
324.158855996578
 21
402.0795758758389
 31
0.0
  0
ARC
  5
5ADF
330
1A
100
AcDbEntity
  8
0
  6
CONTINUOUS
 62
     2
100
AcDbCircle
 10
298.279308996578
 20
403.8295758758389
 30
0.0
 40
1.0
100
AcDbArc
 50
270.0
 51
0.000008999999603
  0
LINE
  5
5AE0
330
1A
100
AcDbEntity
  8
150
  6
CONTINUOUS
100
AcDbLine
 10
295.158855996578
 20
402.0795758758389
 30
0.0
 11
295.158855996578
 21
402.8295758758389
 31
0.0
  0
LINE
  5
5AE1
330
1A
100
AcDbEntity
  8
150
  6
CONTINUOUS
100
AcDbLine
 10
295.158855996578
 20
414.0795758758389
 30
0.0
 11
324.158855996578
 21
414.0795758758389
 31
0.0
  0
ARC
  5
5AE2
330
1A
100
AcDbEntity
  8
0
  6
CONTINUOUS
 62
     2
100
AcDbCircle
 10
298.279308996578
 20
412.3295758758389
 30
0.0
 40
1.0
100
AcDbArc
 50
0.0
 51
90.00000299999932
  0
LINE
  5
5AE3
330
1A
100
AcDbEntity
  8
150
  6
CONTINUOUS
100
AcDbLine
 10
295.158855996578
 20
413.3295758758389
 30
0.0
 11
295.158855996578
 21
414.0795758758389
 31
0.0
  0
ARC
  5
5AE4
330
1A
100
AcDbEntity
  8
0
  6
CONTINUOUS
 62
     2
100
AcDbCircle
 10
286.158855996578
 20
449.5795758758389
 30
0.0
 40
1.0
100
AcDbArc
 50
90.0
 51
180.0000029999976
  0
TEXT
  5
5AE5
330
1A
100
AcDbEntity
  8
230
 62
     6
100
AcDbText
 10
302.825283996578
 20
464.341448875839
 30
0.0
 40
5.0
  1
ASL
100
AcDbText
  0
LINE
  5
5AE7
330
1A
100
AcDbEntity
  8
150
  6
CONTINUOUS
100
AcDbLine
 10
369.158886996578
 20
370.579575875839
 30
0.0
 11
369.158886996578
 21
385.5795758758389
 31
0.0
  0
LINE
  5
5AEA
330
1A
100
AcDbEntity
  8
150
  6
PHANTOM2
 62
     7
100
AcDbLine
 10
427.658855996578
 20
450.5795758758389
 30
0.0
 11
427.658855996578
 21
365.579575875839
 31
0.0
  0
LINE
  5
5AEB
330
1A
100
AcDbEntity
  8
225
  6
CENTER
 62
     3
100
AcDbLine
 10
377.658855996578
 20
368.579575875839
 30
0.0
 11
377.658855996578
 21
387.5795758758389
 31
0.0
  0
LINE
  5
5AEC
330
1A
100
AcDbEntity
  8
0
  6
CONTINUOUS
 62
     2
100
AcDbLine
 10
425.158855996578
 20
367.0795758758389
 30
0.0
 11
425.158855996578
 21
449.0795758758389
 31
0.0
  0
LINE
  5
5AEE
330
1A
100
AcDbEntity
  8
0
  6
CONTINUOUS
 62
     2
100
AcDbLine
 10
389.158855996578
 20
452.0795758758389
 30
0.0
 11
389.158855996578
 21
364.079575875839
 31
0.0
  0
LINE
  5
5AEF
330
1A
100
AcDbEntity
  8
0
  6
CONTINUOUS
 62
     2
100
AcDbLine
 10
335.158855996578
 20
449.5795758758389
 30
0.0
 11
335.158855996578
 21
366.579575875839
 31
0.0
  0
LINE
  5
5AF0
330
1A
100
AcDbEntity
  8
0
  6
CONTINUOUS
 62
     2
100
AcDbLine
 10
361.158855996578
 20
453.0795758758389
 30
0.0
 11
361.158855996578
 21
363.0795758758389
 31
0.0
  0
LINE
  5
5AF1
330
1A
100
AcDbEntity
  8
150
  6
CONTINUOUS
100
AcDbLine
 10
387.658855996578
 20
451.0795758758389
 30
0.0
 11
387.658855996578
 21
365.0795758758389
 31
0.0
  0
CIRCLE
  5
5AF2
330
1A
100
AcDbEntity
  8
150
  6
CONTINUOUS
100
AcDbCircle
 10
377.6588349965779
 20
378.0795378758389
 30
0.0
 40
7.0
  0
LINE
  5
5AF4
330
1A
100
AcDbEntity
  8
150
  6
PHANTOM2
 62
     7
100
AcDbLine
 10
373.958874996578
 20
363.579575875839
 30
0.0
 11
425.658855996578
 21
363.579575875839
 31
0.0
  0
TEXT
  5
5AF7
330
1A
100
AcDbEntity
  8
210
  6
CONTINUOUS
 62
     4
100
AcDbText
 10
335.367204996578
 20
346.2046078758389
 30
0.0
 40
5.0
  1
67.5
100
AcDbText
  0
ARC
  5
5AF8
330
1A
100
AcDbEntity
  8
0
  6
CONTINUOUS
 62
     2
100
AcDbCircle
 10
334.158855996578
 20
366.579575875839
 30
0.0
 40
1.0
100
AcDbArc
 50
270.0
 51
0.000008999999603
  0
LINE
  5
5AF9
330
1A
100
AcDbEntity
  8
210
  6
CONTINUOUS
 62
     4
100
AcDbLine
 10
377.658871996578
 20
368.3923828758389
 30
0.0
 11
377.658871996578
 21
339.0171078758389
 31
0.0
  0
LINE
  5
5AFA
330
1A
100
AcDbEntity
  8
210
  6
CONTINUOUS
 62
     4
100
AcDbLine
 10
377.658871996578
 20
343.0796078758389
 30
0.0
 11
375.6868449965779
 21
342.746274875839
 31
0.0
  0
LINE
  5
5AFB
330
1A
100
AcDbEntity
  8
210
  6
CONTINUOUS
 62
     4
100
AcDbLine
 10
377.658871996578
 20
343.0796078758389
 30
0.0
 11
375.6868449965779
 21
343.412940875839
 31
0.0
  0
LINE
  5
5AFC
330
1A
100
AcDbEntity
  8
150
  6
CONTINUOUS
100
AcDbLine
 10
387.658886996578
 20
369.5795758758389
 30
0.0
 11
370.158886996578
 21
369.5795758758389
 31
0.0
  0
LINE
  5
5AFD
330
1A
100
AcDbEntity
  8
225
  6
CENTER
 62
     3
100
AcDbLine
 10
387.158855996578
 20
378.079575875839
 30
0.0
 11
368.158855996578
 21
378.079575875839
 31
0.0
  0
LINE
  5
5AFE
330
1A
100
AcDbEntity
  8
150
  6
CONTINUOUS
100
AcDbLine
 10
375.6082579965781
 20
374.6147628758389
 30
0.0
 11
376.951763996578
 21
375.9582688758389
 31
0.0
  0
LINE
  5
5AFF
330
1A
100
AcDbEntity
  8
150
  6
CONTINUOUS
100
AcDbLine
 10
376.951763996578
 20
380.2008838758389
 30
0.0
 11
375.6082579965781
 21
381.544389875839
 31
0.0
  0
ARC
  5
5B00
330
1A
100
AcDbEntity
  8
150
  6
CONTINUOUS
100
AcDbCircle
 10
370.158886996578
 20
370.579575875839
 30
0.0
 40
1.0
100
AcDbArc
 50
179.9999899999989
 51
269.9999990000002
  0
LINE
  5
5B01
330
1A
100
AcDbEntity
  8
150
  6
CONTINUOUS
100
AcDbLine
 10
374.1940429965779
 20
376.028977875839
 30
0.0
 11
375.6082579965781
 21
374.6147628758389
 31
0.0
  0
LINE
  5
5B02
330
1A
100
AcDbEntity
  8
150
  6
CONTINUOUS
100
AcDbLine
 10
375.537548996578
 20
377.3724838758389
 30
0.0
 11
374.1940429965779
 21
376.028977875839
 31
0.0
  0
LINE
  5
5B03
330
1A
100
AcDbEntity
  8
150
  6
CONTINUOUS
100
AcDbLine
 10
374.1940429965779
 20
380.1301748758389
 30
0.0
 11
375.537548996578
 21
378.786668875839
 31
0.0
  0
LINE
  5
5B04
330
1A
100
AcDbEntity
  8
150
  6
CONTINUOUS
100
AcDbLine
 10
375.6082579965781
 20
381.544389875839
 30
0.0
 11
374.1940429965779
 21
380.1301748758389
 31
0.0
  0
ARC
  5
5B05
330
1A
100
AcDbEntity
  8
150
  6
CONTINUOUS
100
AcDbCircle
 10
374.830407996578
 20
378.0795388758389
 30
0.0
 40
1.0
100
AcDbArc
 50
314.9999840000002
 51
44.99999300000106
  0
LINE
  5
5B06
330
1A
100
AcDbEntity
  8
150
  6
CONTINUOUS
100
AcDbLine
 10
386.658855996578
 20
364.079575875839
 30
0.0
 11
382.658855996578
 21
364.079575875839
 31
0.0
  0
LINE
  5
5B07
330
1A
100
AcDbEntity
  8
150
  6
CONTINUOUS
100
AcDbLine
 10
382.658855996578
 20
364.079575875839
 30
0.0
 11
382.658855996578
 21
363.0795758758389
 31
0.0
  0
ARC
  5
5B08
330
1A
100
AcDbEntity
  8
150
  6
CONTINUOUS
100
AcDbCircle
 10
386.658855996578
 20
365.0795758758389
 30
0.0
 40
1.0
100
AcDbArc
 50
270.0
 51
0.0000029999976964
  0
ARC
  5
5B09
330
1A
100
AcDbEntity
  8
150
  6
CONTINUOUS
100
AcDbCircle
 10
377.6588359965781
 20
380.907965875839
 30
0.0
 40
1.0
100
AcDbArc
 50
224.999988000001
 51
314.9999840000002
  0
LINE
  5
5B0A
330
1A
100
AcDbEntity
  8
150
  6
CONTINUOUS
100
AcDbLine
 10
379.780163996578
 20
378.786668875839
 30
0.0
 11
381.1236699965779
 21
380.1301748758389
 31
0.0
  0
LINE
  5
5B0B
330
1A
100
AcDbEntity
  8
150
  6
CONTINUOUS
100
AcDbLine
 10
381.1236699965779
 20
376.028977875839
 30
0.0
 11
379.780163996578
 21
377.3724838758389
 31
0.0
  0
LINE
  5
5B0C
330
1A
100
AcDbEntity
  8
150
  6
CONTINUOUS
100
AcDbLine
 10
379.709454996578
 20
374.6147628758389
 30
0.0
 11
381.1236699965779
 21
376.028977875839
 31
0.0
  0
LINE
  5
5B0D
330
1A
100
AcDbEntity
  8
150
  6
CONTINUOUS
100
AcDbLine
 10
378.365948996578
 20
375.9582688758389
 30
0.0
 11
379.709454996578
 21
374.6147628758389
 31
0.0
  0
LINE
  5
5B0E
330
1A
100
AcDbEntity
  8
150
  6
CONTINUOUS
100
AcDbLine
 10
379.709454996578
 20
381.544389875839
 30
0.0
 11
378.365948996578
 21
380.2008838758389
 31
0.0
  0
LINE
  5
5B0F
330
1A
100
AcDbEntity
  8
150
  6
CONTINUOUS
100
AcDbLine
 10
381.1236699965779
 20
380.1301748758389
 30
0.0
 11
379.709454996578
 21
381.544389875839
 31
0.0
  0
ARC
  5
5B10
330
1A
100
AcDbEntity
  8
150
  6
CONTINUOUS
100
AcDbCircle
 10
380.4872619965781
 20
378.0795378758389
 30
0.0
 40
1.0
100
AcDbArc
 50
134.9999859999998
 51
224.999988000001
  0
ARC
  5
5B11
330
1A
100
AcDbEntity
  8
150
  6
CONTINUOUS
100
AcDbCircle
 10
377.6588339965781
 20
375.2511108758389
 30
0.0
 40
1.0
100
AcDbArc
 50
44.99998300000108
 51
134.9999859999998
  0
ARC
  5
5B16
330
1A
100
AcDbEntity
  8
150
  6
PHANTOM2
 62
     7
100
AcDbCircle
 10
425.658855996578
 20
365.579575875839
 30
0.0
 40
2.0
100
AcDbArc
 50
270.0
 51
0.0000029999976964
  0
ARC
  5
5B17
330
1A
100
AcDbEntity
  8
0
  6
CONTINUOUS
 62
     2
100
AcDbCircle
 10
421.158855996578
 20
367.0795758758389
 30
0.0
 40
4.0
100
AcDbArc
 50
270.0
 51
0.000008999999603
  0
LINE
  5
5B1A
330
1A
100
AcDbEntity
  8
150
  6
PHANTOM2
 62
     7
100
AcDbLine
 10
373.958874996578
 20
452.5795758758389
 30
0.0
 11
425.658855996578
 21
452.5795758758389
 31
0.0
  0
LINE
  5
5B1B
330
1A
100
AcDbEntity
  8
225
  6
CENTER
 62
     3
100
AcDbLine
 10
376.158855996578
 20
429.5795758758389
 30
0.0
 11
376.158855996578
 21
416.5795758758389
 31
0.0
  0
LINE
  5
5B1C
330
1A
100
AcDbEntity
  8
225
  6
CENTER
 62
     3
100
AcDbLine
 10
377.658855996578
 20
428.5795758758389
 30
0.0
 11
377.658855996578
 21
447.5795758758389
 31
0.0
  0
ARC
  5
5B1D
330
1A
100
AcDbEntity
  8
0
  6
CONTINUOUS
 62
     2
100
AcDbCircle
 10
334.158855996578
 20
398.0795758758389
 30
0.0
 40
1.0
100
AcDbArc
 50
270.0
 51
0.000008999999603
  0
ARC
  5
5B1E
330
1A
100
AcDbEntity
  8
0
  6
CONTINUOUS
 62
     2
100
AcDbCircle
 10
334.158855996578
 20
418.0795758758389
 30
0.0
 40
1.0
100
AcDbArc
 50
0.0
 51
90.00000299999932
  0
LINE
  5
5B1F
330
1A
100
AcDbEntity
  8
150
  6
CONTINUOUS
100
AcDbLine
 10
369.158886996578
 20
400.5795758758389
 30
0.0
 11
369.158886996578
 21
415.5795758758389
 31
0.0
  0
LINE
  5
5B20
330
1A
100
AcDbEntity
  8
225
  6
CENTER
 62
     3
100
AcDbLine
 10
377.658855996578
 20
398.5795758758389
 30
0.0
 11
377.658855996578
 21
417.5795758758389
 31
0.0
  0
CIRCLE
  5
5B21
330
1A
100
AcDbEntity
  8
150
  6
CONTINUOUS
100
AcDbCircle
 10
377.6588329965781
 20
408.0795388758389
 30
0.0
 40
7.0
  0
LINE
  5
5B22
330
1A
100
AcDbEntity
  8
150
  6
CONTINUOUS
100
AcDbLine
 10
379.709454996578
 20
404.6147628758389
 30
0.0
 11
381.1236699965779
 21
406.028977875839
 31
0.0
  0
LINE
  5
5B23
330
1A
100
AcDbEntity
  8
150
  6
CONTINUOUS
100
AcDbLine
 10
378.365948996578
 20
405.9582688758389
 30
0.0
 11
379.709454996578
 21
404.6147628758389
 31
0.0
  0
LINE
  5
5B24
330
1A
100
AcDbEntity
  8
150
  6
CONTINUOUS
100
AcDbLine
 10
375.6082579965781
 20
404.6147628758389
 30
0.0
 11
376.951763996578
 21
405.9582688758389
 31
0.0
  0
LINE
  5
5B25
330
1A
100
AcDbEntity
  8
150
  6
CONTINUOUS
100
AcDbLine
 10
374.1940429965779
 20
406.028977875839
 30
0.0
 11
375.6082579965781
 21
404.6147628758389
 31
0.0
  0
LINE
  5
5B26
330
1A
100
AcDbEntity
  8
150
  6
CONTINUOUS
100
AcDbLine
 10
370.158886996578
 20
399.579575875839
 30
0.0
 11
387.658886996578
 21
399.579575875839
 31
0.0
  0
LINE
  5
5B27
330
1A
100
AcDbEntity
  8
150
  6
CONTINUOUS
100
AcDbLine
 10
387.158855996578
 20
386.579575875839
 30
0.0
 11
370.158886996578
 21
386.579575875839
 31
0.0
  0
ARC
  5
5B28
330
1A
100
AcDbEntity
  8
150
  6
CONTINUOUS
100
AcDbCircle
 10
370.158886996578
 20
385.5795758758389
 30
0.0
 40
1.0
100
AcDbArc
 50
90.0
 51
180.0000029999976
  0
ARC
  5
5B29
330
1A
100
AcDbEntity
  8
150
  6
CONTINUOUS
100
AcDbCircle
 10
370.158886996578
 20
400.5795758758389
 30
0.0
 40
1.0
100
AcDbArc
 50
179.9999899999989
 51
269.9999990000002
  0
LINE
  5
5B2A
330
1A
100
AcDbEntity
  8
150
  6
CONTINUOUS
100
AcDbLine
 10
370.158886996578
 20
416.5795758758389
 30
0.0
 11
387.658886996578
 21
416.5795758758389
 31
0.0
  0
LINE
  5
5B2B
330
1A
100
AcDbEntity
  8
225
  6
CENTER
 62
     3
100
AcDbLine
 10
382.658855996578
 20
423.0795758758389
 30
0.0
 11
369.658794996578
 21
423.0795758758389
 31
0.0
  0
CIRCLE
  5
5B2C
330
1A
100
AcDbEntity
  8
150
  6
CONTINUOUS
100
AcDbCircle
 10
376.158855996578
 20
423.0795758758389
 30
0.0
 40
4.5
  0
LINE
  5
5B2D
330
1A
100
AcDbEntity
  8
150
  6
CONTINUOUS
100
AcDbLine
 10
376.951763996578
 20
410.2008838758389
 30
0.0
 11
375.6082579965781
 21
411.544389875839
 31
0.0
  0
ARC
  5
5B2E
330
1A
100
AcDbEntity
  8
150
  6
CONTINUOUS
100
AcDbCircle
 10
370.158886996578
 20
415.5795758758389
 30
0.0
 40
1.0
100
AcDbArc
 50
90.0
 51
180.0000029999976
  0
LINE
  5
5B2F
330
1A
100
AcDbEntity
  8
150
  6
CONTINUOUS
100
AcDbLine
 10
375.537548996578
 20
407.3724838758389
 30
0.0
 11
374.1940429965779
 21
406.028977875839
 31
0.0
  0
LINE
  5
5B30
330
1A
100
AcDbEntity
  8
150
  6
CONTINUOUS
100
AcDbLine
 10
374.1940429965779
 20
410.1301748758389
 30
0.0
 11
375.537548996578
 21
408.786668875839
 31
0.0
  0
LINE
  5
5B31
330
1A
100
AcDbEntity
  8
150
  6
CONTINUOUS
100
AcDbLine
 10
375.6082579965781
 20
411.544389875839
 30
0.0
 11
374.1940429965779
 21
410.1301748758389
 31
0.0
  0
ARC
  5
5B32
330
1A
100
AcDbEntity
  8
150
  6
CONTINUOUS
100
AcDbCircle
 10
374.830405996578
 20
408.079539875839
 30
0.0
 40
1.0
100
AcDbArc
 50
314.9999840000002
 51
44.99999300000106
  0
ARC
  5
5B33
330
1A
100
AcDbEntity
  8
150
  6
CONTINUOUS
100
AcDbCircle
 10
377.6588339965781
 20
410.907965875839
 30
0.0
 40
1.0
100
AcDbArc
 50
224.999988000001
 51
314.9999840000002
  0
LINE
  5
5B34
330
1A
100
AcDbEntity
  8
150
  6
CONTINUOUS
100
AcDbLine
 10
379.780163996578
 20
408.786668875839
 30
0.0
 11
381.1236699965779
 21
410.1301748758389
 31
0.0
  0
LINE
  5
5B35
330
1A
100
AcDbEntity
  8
150
  6
CONTINUOUS
100
AcDbLine
 10
381.1236699965779
 20
406.028977875839
 30
0.0
 11
379.780163996578
 21
407.3724838758389
 31
0.0
  0
LINE
  5
5B36
330
1A
100
AcDbEntity
  8
150
  6
CONTINUOUS
100
AcDbLine
 10
379.709454996578
 20
411.544389875839
 30
0.0
 11
378.365948996578
 21
410.2008838758389
 31
0.0
  0
LINE
  5
5B37
330
1A
100
AcDbEntity
  8
150
  6
CONTINUOUS
100
AcDbLine
 10
381.1236699965779
 20
410.1301748758389
 30
0.0
 11
379.709454996578
 21
411.544389875839
 31
0.0
  0
ARC
  5
5B38
330
1A
100
AcDbEntity
  8
150
  6
CONTINUOUS
100
AcDbCircle
 10
380.4872599965781
 20
408.079537875839
 30
0.0
 40
1.0
100
AcDbArc
 50
134.9999859999998
 51
224.999988000001
  0
ARC
  5
5B39
330
1A
100
AcDbEntity
  8
150
  6
CONTINUOUS
100
AcDbCircle
 10
377.6588319965781
 20
405.2511118758389
 30
0.0
 40
1.0
100
AcDbArc
 50
44.99998300000108
 51
134.9999859999998
  0
ARC
  5
5B3A
330
1A
100
AcDbEntity
  8
0
  6
CONTINUOUS
 62
     2
100
AcDbCircle
 10
334.158855996578
 20
449.5795758758389
 30
0.0
 40
1.0
100
AcDbArc
 50
0.0
 51
90.00000299999932
  0
ARC
  5
5B3B
330
1A
100
AcDbEntity
  8
150
  6
CONTINUOUS
100
AcDbCircle
 10
386.658855996578
 20
451.0795758758389
 30
0.0
 40
1.0
100
AcDbArc
 50
0.0
 51
90.00000299999932
  0
LINE
  5
5B3C
330
1A
100
AcDbEntity
  8
150
  6
CONTINUOUS
100
AcDbLine
 10
382.658855996578
 20
452.0795758758389
 30
0.0
 11
382.658855996578
 21
453.0795758758389
 31
0.0
  0
LINE
  5
5B3D
330
1A
100
AcDbEntity
  8
150
  6
CONTINUOUS
100
AcDbLine
 10
387.658886996578
 20
446.5795758758389
 30
0.0
 11
370.158886996578
 21
446.5795758758389
 31
0.0
  0
LINE
  5
5B3E
330
1A
100
AcDbEntity
  8
150
  6
CONTINUOUS
100
AcDbLine
 10
387.658886996578
 20
429.5795758758389
 30
0.0
 11
370.158886996578
 21
429.5795758758389
 31
0.0
  0
LINE
  5
5B3F
330
1A
100
AcDbEntity
  8
225
  6
CENTER
 62
     3
100
AcDbLine
 10
387.158855996578
 20
438.0795758758389
 30
0.0
 11
368.158855996578
 21
438.0795758758389
 31
0.0
  0
CIRCLE
  5
5B40
330
1A
100
AcDbEntity
  8
150
  6
CONTINUOUS
100
AcDbCircle
 10
377.6588339965781
 20
438.079536875839
 30
0.0
 40
7.0
  0
LINE
  5
5B41
330
1A
100
AcDbEntity
  8
150
  6
CONTINUOUS
100
AcDbLine
 10
376.951763996578
 20
440.2008838758389
 30
0.0
 11
375.6082579965781
 21
441.544389875839
 31
0.0
  0
LINE
  5
5B42
330
1A
100
AcDbEntity
  8
150
  6
CONTINUOUS
100
AcDbLine
 10
375.6082579965781
 20
434.6147628758389
 30
0.0
 11
376.951763996578
 21
435.958268875839
 31
0.0
  0
LINE
  5
5B43
330
1A
100
AcDbEntity
  8
150
  6
CONTINUOUS
100
AcDbLine
 10
369.158886996578
 20
430.5795758758389
 30
0.0
 11
369.158886996578
 21
445.5795758758389
 31
0.0
  0
LINE
  5
5B44
330
1A
100
AcDbEntity
  8
150
  6
CONTINUOUS
100
AcDbLine
 10
375.6082579965781
 20
441.544389875839
 30
0.0
 11
374.1940429965779
 21
440.1301748758389
 31
0.0
  0
ARC
  5
5B45
330
1A
100
AcDbEntity
  8
150
  6
CONTINUOUS
100
AcDbCircle
 10
370.158886996578
 20
430.5795758758389
 30
0.0
 40
1.0
100
AcDbArc
 50
179.9999899999989
 51
269.9999990000002
  0
ARC
  5
5B46
330
1A
100
AcDbEntity
  8
150
  6
CONTINUOUS
100
AcDbCircle
 10
374.8304069965779
 20
438.0795378758389
 30
0.0
 40
1.0
100
AcDbArc
 50
314.9999840000002
 51
44.99999300000106
  0
LINE
  5
5B47
330
1A
100
AcDbEntity
  8
150
  6
CONTINUOUS
100
AcDbLine
 10
374.1940429965779
 20
440.1301748758389
 30
0.0
 11
375.537548996578
 21
438.786668875839
 31
0.0
  0
LINE
  5
5B48
330
1A
100
AcDbEntity
  8
150
  6
CONTINUOUS
100
AcDbLine
 10
375.537548996578
 20
437.372483875839
 30
0.0
 11
374.1940429965779
 21
436.028977875839
 31
0.0
  0
LINE
  5
5B49
330
1A
100
AcDbEntity
  8
150
  6
CONTINUOUS
100
AcDbLine
 10
374.1940429965779
 20
436.028977875839
 30
0.0
 11
375.6082579965781
 21
434.6147628758389
 31
0.0
  0
ARC
  5
5B4A
330
1A
100
AcDbEntity
  8
150
  6
CONTINUOUS
100
AcDbCircle
 10
370.158886996578
 20
445.5795758758389
 30
0.0
 40
1.0
100
AcDbArc
 50
90.0
 51
180.0000029999976
  0
LINE
  5
5B4B
330
1A
100
AcDbEntity
  8
150
  6
CONTINUOUS
100
AcDbLine
 10
381.1236699965779
 20
440.1301748758389
 30
0.0
 11
379.709454996578
 21
441.544389875839
 31
0.0
  0
LINE
  5
5B4C
330
1A
100
AcDbEntity
  8
150
  6
CONTINUOUS
100
AcDbLine
 10
379.709454996578
 20
441.544389875839
 30
0.0
 11
378.365948996578
 21
440.2008838758389
 31
0.0
  0
ARC
  5
5B4D
330
1A
100
AcDbEntity
  8
150
  6
CONTINUOUS
100
AcDbCircle
 10
377.6588329965781
 20
435.2511098758389
 30
0.0
 40
1.0
100
AcDbArc
 50
44.99998300000108
 51
134.9999859999998
  0
ARC
  5
5B4E
330
1A
100
AcDbEntity
  8
150
  6
CONTINUOUS
100
AcDbCircle
 10
380.487260996578
 20
438.079535875839
 30
0.0
 40
1.0
100
AcDbArc
 50
134.9999859999998
 51
224.999988000001
  0
LINE
  5
5B4F
330
1A
100
AcDbEntity
  8
150
  6
CONTINUOUS
100
AcDbLine
 10
378.365948996578
 20
435.958268875839
 30
0.0
 11
379.709454996578
 21
434.6147628758389
 31
0.0
  0
LINE
  5
5B50
330
1A
100
AcDbEntity
  8
150
  6
CONTINUOUS
100
AcDbLine
 10
379.709454996578
 20
434.6147628758389
 30
0.0
 11
381.1236699965779
 21
436.028977875839
 31
0.0
  0
LINE
  5
5B51
330
1A
100
AcDbEntity
  8
150
  6
CONTINUOUS
100
AcDbLine
 10
381.1236699965779
 20
436.028977875839
 30
0.0
 11
379.780163996578
 21
437.372483875839
 31
0.0
  0
LINE
  5
5B52
330
1A
100
AcDbEntity
  8
150
  6
CONTINUOUS
100
AcDbLine
 10
379.780163996578
 20
438.786668875839
 30
0.0
 11
381.1236699965779
 21
440.1301748758389
 31
0.0
  0
ARC
  5
5B53
330
1A
100
AcDbEntity
  8
150
  6
CONTINUOUS
100
AcDbCircle
 10
377.6588349965779
 20
440.9079638758389
 30
0.0
 40
1.0
100
AcDbArc
 50
224.999988000001
 51
314.9999840000002
  0
LINE
  5
5B54
330
1A
100
AcDbEntity
  8
150
  6
CONTINUOUS
100
AcDbLine
 10
386.658855996578
 20
452.0795758758389
 30
0.0
 11
382.658855996578
 21
452.0795758758389
 31
0.0
  0
ARC
  5
5B68
330
1A
100
AcDbEntity
  8
150
  6
PHANTOM2
 62
     7
100
AcDbCircle
 10
425.658855996578
 20
450.5795758758389
 30
0.0
 40
2.0
100
AcDbArc
 50
0.0
 51
90.00000299999932
  0
ARC
  5
5B69
330
1A
100
AcDbEntity
  8
0
  6
CONTINUOUS
 62
     2
100
AcDbCircle
 10
421.158855996578
 20
449.0795758758389
 30
0.0
 40
4.0
100
AcDbArc
 50
0.0
 51
90.00000299999932
  0
LINE
  5
5B6A
330
1A
100
AcDbEntity
  8
210
  6
CONTINUOUS
 62
     4
100
AcDbLine
 10
417.158932996578
 20
473.0796078758389
 30
0.0
 11
415.186905996578
 21
472.746274875839
 31
0.0
  0
LINE
  5
5B6B
330
1A
100
AcDbEntity
  8
210
  6
CONTINUOUS
 62
     4
100
AcDbLine
 10
417.158932996578
 20
473.0796078758389
 30
0.0
 11
415.186905996578
 21
473.412940875839
 31
0.0
  0
TEXT
  5
5B6C
330
1A
100
AcDbEntity
  8
210
  6
CONTINUOUS
 62
     4
100
AcDbText
 10
302.908840996578
 20
496.2046378758389
 30
0.0
 40
5.0
  1
230
100
AcDbText
  0
TEXT
  5
5B6D
330
1A
100
AcDbEntity
  8
210
  6
CONTINUOUS
 62
     4
100
AcDbText
 10
304.5338719965779
 20
476.2046078758389
 30
0.0
 40
5.0
  1
214
100
AcDbText
  0
LINE
  5
5B6E
330
1A
100
AcDbEntity
  8
210
  6
CONTINUOUS
 62
     4
100
AcDbLine
 10
425.1588719965781
 20
493.0796378758389
 30
0.0
 11
423.1868449965779
 21
492.7463048758389
 31
0.0
  0
LINE
  5
5B6F
330
1A
100
AcDbEntity
  8
210
  6
CONTINUOUS
 62
     4
100
AcDbLine
 10
425.1588719965781
 20
493.0796378758389
 30
0.0
 11
423.1868449965779
 21
493.4129718758389
 31
0.0
  0
LINE
  5
5B73
330
1A
100
AcDbEntity
  8
210
  6
CONTINUOUS
 62
     4
100
AcDbLine
 10
462.158901996578
 20
145.4813718758389
 30
0.0
 11
462.158901996578
 21
207.481371875839
 31
0.0
  0
LINE
  5
5B75
330
1A
100
AcDbEntity
  8
210
  6
CONTINUOUS
 62
     4
100
AcDbLine
 10
462.158901996578
 20
145.4813718758389
 30
0.0
 11
462.158901996578
 21
117.9813718758389
 31
0.0
  0
LINE
  5
5B76
330
1A
100
AcDbEntity
  8
210
  6
CONTINUOUS
 62
     4
100
AcDbLine
 10
462.158901996578
 20
117.9813718758389
 30
0.0
 11
461.825568996578
 21
119.9533978758389
 31
0.0
  0
LINE
  5
5B77
330
1A
100
AcDbEntity
  8
210
  6
CONTINUOUS
 62
     4
100
AcDbLine
 10
462.158901996578
 20
117.9813718758389
 30
0.0
 11
462.492235996578
 21
119.9533978758389
 31
0.0
  0
LINE
  5
5B78
330
1A
100
AcDbEntity
  8
210
  6
CONTINUOUS
 62
     4
100
AcDbLine
 10
462.158901996578
 20
145.4813718758389
 30
0.0
 11
461.825568996578
 21
143.509344875839
 31
0.0
  0
LINE
  5
5B79
330
1A
100
AcDbEntity
  8
210
  6
CONTINUOUS
 62
     4
100
AcDbLine
 10
462.158901996578
 20
145.4813718758389
 30
0.0
 11
462.492235996578
 21
143.509344875839
 31
0.0
  0
LINE
  5
5B7A
330
1A
100
AcDbEntity
  8
210
  6
CONTINUOUS
 62
     4
100
AcDbLine
 10
462.158901996578
 20
145.4813718758389
 30
0.0
 11
461.825568996578
 21
147.4533978758389
 31
0.0
  0
LINE
  5
5B7B
330
1A
100
AcDbEntity
  8
210
  6
CONTINUOUS
 62
     4
100
AcDbLine
 10
462.158901996578
 20
145.4813718758389
 30
0.0
 11
462.492235996578
 21
147.4533978758389
 31
0.0
  0
LINE
  5
5B84
330
1A
100
AcDbEntity
  8
210
  6
CONTINUOUS
 62
     4
100
AcDbLine
 10
462.158901996578
 20
207.481371875839
 30
0.0
 11
461.825568996578
 21
205.509344875839
 31
0.0
  0
LINE
  5
5B85
330
1A
100
AcDbEntity
  8
210
  6
CONTINUOUS
 62
     4
100
AcDbLine
 10
462.158901996578
 20
207.481371875839
 30
0.0
 11
462.492235996578
 21
205.509344875839
 31
0.0
  0
LINE
  5
5B8E
330
1A
100
AcDbEntity
  8
210
  6
CONTINUOUS
 62
     4
100
AcDbLine
 10
462.158901996578
 20
408.079576875839
 30
0.0
 11
462.158901996578
 21
378.079576875839
 31
0.0
  0
LINE
  5
5B8F
330
1A
100
AcDbEntity
  8
210
  6
CONTINUOUS
 62
     4
100
AcDbLine
 10
482.158901996578
 20
453.0795768758389
 30
0.0
 11
482.158901996578
 21
363.0795768758389
 31
0.0
  0
LINE
  5
5B90
330
1A
100
AcDbEntity
  8
210
  6
CONTINUOUS
 62
     4
100
AcDbLine
 10
462.158901996578
 20
378.079576875839
 30
0.0
 11
461.825568996578
 21
380.0516038758389
 31
0.0
  0
LINE
  5
5B91
330
1A
100
AcDbEntity
  8
210
  6
CONTINUOUS
 62
     4
100
AcDbLine
 10
462.158901996578
 20
378.079576875839
 30
0.0
 11
462.492235996578
 21
380.0516038758389
 31
0.0
  0
LINE
  5
5B92
330
1A
100
AcDbEntity
  8
210
  6
CONTINUOUS
 62
     4
100
AcDbLine
 10
482.158901996578
 20
363.0795768758389
 30
0.0
 11
481.825568996578
 21
365.0516038758389
 31
0.0
  0
LINE
  5
5B93
330
1A
100
AcDbEntity
  8
210
  6
CONTINUOUS
 62
     4
100
AcDbLine
 10
482.158901996578
 20
363.0795768758389
 30
0.0
 11
482.492235996578
 21
365.0516038758389
 31
0.0
  0
LINE
  5
5B94
330
1A
100
AcDbEntity
  8
210
  6
CONTINUOUS
 62
     4
100
AcDbLine
 10
462.158901996578
 20
438.079576875839
 30
0.0
 11
462.158901996578
 21
408.079576875839
 31
0.0
  0
TEXT
  5
5B95
330
1A
100
AcDbEntity
  8
210
  6
CONTINUOUS
 62
     4
100
AcDbText
 10
479.033901996578
 20
403.329576875839
 30
0.0
 40
5.0
  1
90
 50
90.00000299999932
100
AcDbText
  0
LINE
  5
5B96
330
1A
100
AcDbEntity
  8
210
  6
CONTINUOUS
 62
     4
100
AcDbLine
 10
462.158901996578
 20
408.079576875839
 30
0.0
 11
461.825568996578
 21
410.051603875839
 31
0.0
  0
LINE
  5
5B97
330
1A
100
AcDbEntity
  8
210
  6
CONTINUOUS
 62
     4
100
AcDbLine
 10
462.158901996578
 20
408.079576875839
 30
0.0
 11
462.492235996578
 21
410.051603875839
 31
0.0
  0
LINE
  5
5B98
330
1A
100
AcDbEntity
  8
210
  6
CONTINUOUS
 62
     4
100
AcDbLine
 10
462.158901996578
 20
408.079576875839
 30
0.0
 11
461.825568996578
 21
406.1075508758389
 31
0.0
  0
LINE
  5
5B99
330
1A
100
AcDbEntity
  8
210
  6
CONTINUOUS
 62
     4
100
AcDbLine
 10
462.158901996578
 20
408.079576875839
 30
0.0
 11
462.492235996578
 21
406.1075508758389
 31
0.0
  0
LINE
  5
5B9A
330
1A
100
AcDbEntity
  8
210
  6
CONTINUOUS
 62
     4
100
AcDbLine
 10
482.158901996578
 20
453.0795768758389
 30
0.0
 11
481.825568996578
 21
451.107550875839
 31
0.0
  0
LINE
  5
5B9B
330
1A
100
AcDbEntity
  8
210
  6
CONTINUOUS
 62
     4
100
AcDbLine
 10
482.158901996578
 20
453.0795768758389
 30
0.0
 11
482.492235996578
 21
451.107550875839
 31
0.0
  0
LINE
  5
5B9C
330
1A
100
AcDbEntity
  8
210
  6
CONTINUOUS
 62
     4
100
AcDbLine
 10
462.158901996578
 20
438.079576875839
 30
0.0
 11
461.825568996578
 21
436.1075508758389
 31
0.0
  0
LINE
  5
5B9D
330
1A
100
AcDbEntity
  8
210
  6
CONTINUOUS
 62
     4
100
AcDbLine
 10
462.158901996578
 20
438.079576875839
 30
0.0
 11
462.492235996578
 21
436.1075508758389
 31
0.0
  0
LINE
  5
6012
330
1A
100
AcDbEntity
  8
210
 62
     4
100
AcDbLine
 10
645.3585993867816
 20
481.5971492657523
 30
0.0
 11
854.9585383867819
 21
481.5971492657523
 31
0.0
  0
LINE
  5
6013
330
1A
100
AcDbEntity
  8
210
 62
     4
100
AcDbLine
 10
660.3585383867819
 20
461.5971492657523
 30
0.0
 11
839.9585383867821
 21
461.5971492657523
 31
0.0
  0
LINE
  5
6014
330
1A
100
AcDbEntity
  8
170
  6
PHANTOM2
 62
     1
100
AcDbLine
 10
642.1585383867818
 20
334.3144802657526
 30
0.0
 11
858.1585383867817
 21
334.3144802657526
 31
0.0
  0
LINE
  5
6015
330
1A
100
AcDbEntity
  8
170
  6
PHANTOM2
 62
     1
100
AcDbLine
 10
642.1585383867818
 20
424.3145412657524
 30
0.0
 11
858.1585383867817
 21
424.3145412657524
 31
0.0
  0
LINE
  5
6016
330
1A
100
AcDbEntity
  8
210
  6
CONTINUOUS
 62
     4
100
AcDbLine
 10
846.2841493867818
 20
356.8145412657524
 30
0.0
 11
555.1585383867818
 21
356.8145412657524
 31
0.0
  0
LINE
  5
6017
330
1A
100
AcDbEntity
  8
230
  6
CONTINUOUS
 62
     6
100
AcDbLine
 10
693.3468099214082
 20
53.78260788826207
 30
0.0
 11
811.1140319651545
 21
53.78260788826207
 31
0.0
  0
TEXT
  5
6018
330
1A
100
AcDbEntity
  8
230
 62
     6
100
AcDbText
 10
699.2020551468381
 20
57.63172788826193
 30
0.0
 40
10.0
  1
パネルカット寸法図
100
AcDbText
  0
LINE
  5
6019
330
1A
100
AcDbEntity
  8
170
  6
PHANTOM2
 62
     1
100
AcDbLine
 10
642.1585383867818
 20
105.4262138157762
 30
0.0
 11
858.1585383867817
 21
105.4262138157762
 31
0.0
  0
LINE
  5
601A
330
1A
100
AcDbEntity
  8
170
  6
PHANTOM2
 62
     1
100
AcDbLine
 10
642.1585383867818
 20
195.4262448157761
 30
0.0
 11
858.1585383867817
 21
195.4262448157761
 31
0.0
  0
LINE
  5
601B
330
1A
100
AcDbEntity
  8
225
  6
CENTER
 62
     3
100
AcDbLine
 10
578.1585383867819
 20
379.3145412657523
 30
0.0
 11
922.1585383867818
 21
379.3145412657523
 31
0.0
  0
LINE
  5
601C
330
1A
100
AcDbEntity
  8
225
  6
CENTER
 62
     3
100
AcDbLine
 10
596.1585383867818
 20
150.4262448157761
 30
0.0
 11
904.1585383867818
 21
150.4262448157761
 31
0.0
  0
HATCH
  5
601D
330
1A
100
AcDbEntity
  8
170
100
AcDbHatch
 10
0.0
 20
0.0
 30
0.0
210
0.0
220
0.0
230
1.0
  2
ANSI31
 70
     0
 71
     0
 91
        8
 92
        7
 72
     1
 73
     1
 93
        7
 10
643.1585383867818
 20
195.4262448157761
 42
0.0
 10
704.1585383867818
 20
195.4262448157761
 42
0.0
 10
704.1585383867818
 20
207.0475651038002
 42
0.0
 10
619.0372179876862
 20
207.0475651038003
 42
0.0
 10
619.037217987686
 20
150.4262448157761
 42
0.0
 10
636.1585383867816
 20
150.4262448157761
 42
0.0
 10
636.1585383867819
 20
188.4262448157761
 42
-0.4142135623730935
 97
        0
 92
        7
 72
     1
 73
     1
 93
        5
 10
704.1585383867818
 20
150.4262448157761
 42
0.0
 10
704.158538386782
 20
195.4262448157761
 42
0.0
 10
643.1585383867818
 20
195.4262448157761
 42
0.4142135623730946
 10
636.1585383867819
 20
188.4262448157761
 42
0.0
 10
636.1585383867819
 20
150.4262448157761
 42
0.0
 97
        0
 92
       22
 72
     1
 73
     1
 93
        5
 10
636.1585383867819
 20
150.4262448157761
 42
0.0
 10
636.1585383867819
 20
112.4262138157762
 42
0.4142135623730944
 10
643.1585383867818
 20
105.4262138157762
 42
0.0
 10
704.1585383867818
 20
105.4262138157762
 42
0.0
 10
704.1585383867818
 20
150.4262448157761
 42
0.0
 97
        0
 92
        7
 72
     1
 73
     1
 93
        7
 10
636.158538386782
 20
150.4262448157761
 42
0.0
 10
619.037217987686
 20
150.4262448157761
 42
0.0
 10
619.037217987686
 20
93.80492452775206
 42
0.0
 10
704.158538386782
 20
93.80492452775206
 42
0.0
 10
704.158538386782
 20
105.4262138157762
 42
0.0
 10
643.1585383867818
 20
105.4262138157762
 42
-0.4142135623730944
 10
636.1585383867819
 20
112.4262138157762
 42
0.0
 97
        0
 92
       22
 72
     1
 73
     1
 93
        5
 10
796.1585383867818
 20
195.4262448157761
 42
0.0
 10
796.1585383867818
 20
150.4262448157761
 42
0.0
 10
864.1585383867818
 20
150.4262448157761
 42
0.0
 10
864.1585383867818
 20
188.4262448157761
 42
0.4142135623731042
 10
857.1585383867818
 20
195.4262448157761
 42
0.0
 97
        0
 92
        7
 72
     1
 73
     1
 93
        7
 10
864.1585383867818
 20
188.4262448157758
 42
0.0
 10
864.1585383867818
 20
150.4262448157761
 42
0.0
 10
881.2798587858774
 20
150.4262448157761
 42
0.0
 10
881.2798587858774
 20
207.0475651038002
 42
0.0
 10
796.1585383867818
 20
207.0475651038002
 42
0.0
 10
796.1585383867818
 20
195.4262448157761
 42
0.0
 10
857.1585383867818
 20
195.4262448157761
 42
-0.4142135623731183
 97
        0
 92
        7
 72
     1
 73
     1
 93
        7
 10
864.1585383867818
 20
112.4262138157763
 42
-0.4142135623730956
 10
857.1585383867818
 20
105.4262138157762
 42
0.0
 10
796.1585383867818
 20
105.4262138157762
 42
0.0
 10
796.1585383867818
 20
93.80492452775206
 42
0.0
 10
881.2798587858774
 20
93.80492452775206
 42
0.0
 10
881.2798587858774
 20
150.4262448157761
 42
0.0
 10
864.1585383867818
 20
150.4262448157761
 42
0.0
 97
        0
 92
        7
 72
     1
 73
     1
 93
        5
 10
864.1585383867818
 20
150.4262448157761
 42
0.0
 10
796.1585383867818
 20
150.4262448157761
 42
0.0
 10
796.1585383867818
 20
105.4262138157762
 42
0.0
 10
857.1585383867818
 20
105.4262138157762
 42
0.4142135623730931
 10
864.1585383867818
 20
112.4262138157762
 42
0.0
 97
        0
 75
     0
 76
     1
 52
0.0
 41
50.0
 77
     0
 78
     1
 53
45.0
 43
-472.7534662859275
 44
-3.576439151030967
 45
-4.419417382415921
 46
4.419417382415922
 79
     0
 47
0.6942909516723887
 98
        8
 10
640.3075670599587
 20
198.7955643061792
 10
656.9841394444761
 20
165.4695983975262
 10
656.9841394444761
 20
134.9207963145946
 10
631.9692808677005
 20
112.7034857088257
 10
818.1910253619548
 20
173.8010898746894
 10
868.2207483756497
 20
193.2412366547369
 10
871.0001790597839
 20
137.6979601403155
 10
851.5441701309896
 20
123.8121410117102
  0
TEXT
  5
6021
330
1A
100
AcDbEntity
  8
230
  6
CONTINUOUS
 62
     6
100
AcDbText
 10
251.1000274022301
 20
40.75977887583895
 30
0.0
 40
5.0
  1
ブスバーピッチ
100
AcDbText
  0
LINE
  5
6022
330
1A
100
AcDbEntity
  8
210
  6
CONTINUOUS
 62
     4
100
AcDbLine
 10
240.158863996578
 20
47.98137787583891
 30
0.0
 11
310.158847996578
 21
47.98137787583891
 31
0.0
  0
LINE
  5
6023
330
1A
100
AcDbEntity
  8
210
  6
CONTINUOUS
 62
     4
100
AcDbLine
 10
219.158863996578
 20
23.97138787583901
 30
0.0
 11
401.158847996578
 21
23.97138787583901
 31
0.0
  0
LINE
  5
6030
330
1A
100
AcDbEntity
  8
230
  6
CONTINUOUS
 62
     6
100
AcDbLine
 10
227.6588339965781
 20
204.2650743888066
 30
0.0
 11
201.508381996578
 21
240.9718003888066
 31
0.0
  0
LINE
  5
603D
330
1A
100
AcDbEntity
  8
210
  6
CONTINUOUS
 62
     4
100
AcDbLine
 10
219.158863996578
 20
95.48137487583904
 30
0.0
 11
219.158863996578
 21
19.90888787583901
 31
0.0
  0
LINE
  5
603E
330
1A
100
AcDbEntity
  8
210
  6
CONTINUOUS
 62
     4
100
AcDbLine
 10
219.158863996578
 20
23.97138787583901
 30
0.0
 11
221.1308899965779
 21
24.30472087583893
 31
0.0
  0
LINE
  5
603F
330
1A
100
AcDbEntity
  8
210
  6
CONTINUOUS
 62
     4
100
AcDbLine
 10
219.158863996578
 20
23.97138787583901
 30
0.0
 11
221.1308899965779
 21
23.63805387583898
 31
0.0
  0
LINE
  5
6040
330
1A
100
AcDbEntity
  8
210
  6
CONTINUOUS
 62
     4
100
AcDbLine
 10
240.158863996578
 20
47.98137787583891
 30
0.0
 11
242.1308899965779
 21
48.31471187583895
 31
0.0
  0
LINE
  5
6041
330
1A
100
AcDbEntity
  8
210
  6
CONTINUOUS
 62
     4
100
AcDbLine
 10
240.158863996578
 20
47.98137787583891
 30
0.0
 11
242.1308899965779
 21
47.64804487583899
 31
0.0
  0
LINE
  5
6081
330
1A
100
AcDbEntity
  8
230
  6
CONTINUOUS
 62
     6
100
AcDbLine
 10
227.6588339965781
 20
204.2650743888066
 30
0.0
 11
226.786089996578
 21
206.0646073888066
 31
0.0
  0
LINE
  5
6082
330
1A
100
AcDbEntity
  8
230
  6
CONTINUOUS
 62
     6
100
AcDbLine
 10
227.6588339965781
 20
204.2650743888066
 30
0.0
 11
226.2431219965781
 21
205.6777883888066
 31
0.0
  0
LINE
  5
608E
330
1A
100
AcDbEntity
  8
230
  6
CONTINUOUS
 62
     6
100
AcDbLine
 10
201.508381996578
 20
240.9718003888066
 30
0.0
 11
172.0173239965779
 21
240.9718003888066
 31
0.0
  0
TEXT
  5
608F
330
1A
100
AcDbEntity
  8
230
  6
CONTINUOUS
 62
     6
100
AcDbText
 10
171.5332193623103
 20
249.5682183888066
 30
0.0
 40
5.0
  1
端子カバー
100
AcDbText
  0
TEXT
  5
6093
330
1A
100
AcDbEntity
  8
230
  6
CONTINUOUS
 62
     6
100
AcDbText
 10
171.506825996578
 20
242.4577933888066
 30
0.0
 40
5.0
  1
標準装備
100
AcDbText
  0
LINE
  5
616E
330
1A
100
AcDbEntity
  8
210
 62
     4
100
AcDbLine
 10
796.1585383867818
 20
218.7387448157761
 30
0.0
 11
796.1585383867818
 21
246.9985024947638
 31
0.0
  0
LINE
  5
616F
330
1A
100
AcDbEntity
  8
210
 62
     4
100
AcDbLine
 10
704.1585383867818
 20
218.7387448157761
 30
0.0
 11
704.1585383867818
 21
246.9985024947638
 31
0.0
  0
TEXT
  5
6170
330
1A
100
AcDbEntity
  8
230
 62
     6
100
AcDbText
 10
728.6815925214928
 20
236.2316116740734
 30
0.0
 40
5.0
  1
パネルカット幅
100
AcDbText
  0
TEXT
  5
618D
330
1A
100
AcDbEntity
  8
230
  6
CONTINUOUS
 62
     6
100
AcDbText
 10
321.2299685465354
 20
40.75977887583895
 30
0.0
 40
5.0
  1
ブスバーピッチ
100
AcDbText
  0
TEXT
  5
618E
330
1A
100
AcDbEntity
  8
230
  6
CONTINUOUS
 62
     6
100
AcDbText
 10
316.488330470356
 20
60.46500987583897
 30
0.0
 40
5.0
  1
適用ブスバー厚さ
100
AcDbText
  0
LINE
  5
618F
330
1A
100
AcDbEntity
  8
210
  6
CONTINUOUS
 62
     4
100
AcDbLine
 10
310.158847996578
 20
47.98137787583891
 30
0.0
 11
380.158847996578
 21
47.98137787583891
 31
0.0
  0
TEXT
  5
6191
330
1A
100
AcDbEntity
  8
210
  6
CONTINUOUS
 62
     4
100
AcDbText
 10
270.7005299965781
 20
51.10637787583891
 30
0.0
 40
5.0
  1
70
100
AcDbText
  0
TEXT
  5
6192
330
1A
100
AcDbEntity
  8
210
  6
CONTINUOUS
 62
     4
100
AcDbText
 10
304.450514996578
 20
27.09638787583901
 30
0.0
 40
5.0
  1
182
100
AcDbText
  0
LINE
  5
6193
330
1A
100
AcDbEntity
  8
210
  6
CONTINUOUS
 62
     4
100
AcDbLine
 10
310.158847996578
 20
47.98137787583891
 30
0.0
 11
312.1308749965778
 21
48.31471187583895
 31
0.0
  0
LINE
  5
6194
330
1A
100
AcDbEntity
  8
210
  6
CONTINUOUS
 62
     4
100
AcDbLine
 10
310.158847996578
 20
47.98137787583891
 30
0.0
 11
308.1868219965779
 21
48.31471187583895
 31
0.0
  0
LINE
  5
6195
330
1A
100
AcDbEntity
  8
210
  6
CONTINUOUS
 62
     4
100
AcDbLine
 10
310.158847996578
 20
47.98137787583891
 30
0.0
 11
312.1308749965778
 21
47.64804487583899
 31
0.0
  0
LINE
  5
6196
330
1A
100
AcDbEntity
  8
210
  6
CONTINUOUS
 62
     4
100
AcDbLine
 10
310.158847996578
 20
47.98137787583891
 30
0.0
 11
308.1868219965779
 21
47.64804487583899
 31
0.0
  0
LINE
  5
6199
330
1A
100
AcDbEntity
  8
210
  6
CONTINUOUS
 62
     4
100
AcDbLine
 10
305.158847996578
 20
67.981389875839
 30
0.0
 11
315.158847996578
 21
67.981389875839
 31
0.0
  0
LINE
  5
619A
330
1A
100
AcDbEntity
  8
210
  6
CONTINUOUS
 62
     4
100
AcDbLine
 10
305.158847996578
 20
67.981389875839
 30
0.0
 11
299.8268479965779
 21
67.981389875839
 31
0.0
  0
LINE
  5
619B
330
1A
100
AcDbEntity
  8
210
  6
CONTINUOUS
 62
     4
100
AcDbLine
 10
305.158847996578
 20
67.981389875839
 30
0.0
 11
303.1868219965779
 21
68.31472287583892
 31
0.0
  0
LINE
  5
619C
330
1A
100
AcDbEntity
  8
210
  6
CONTINUOUS
 62
     4
100
AcDbLine
 10
305.158847996578
 20
67.981389875839
 30
0.0
 11
303.1868219965779
 21
67.64805687583896
 31
0.0
  0
LINE
  5
619D
330
1A
100
AcDbEntity
  8
210
  6
CONTINUOUS
 62
     4
100
AcDbLine
 10
315.158847996578
 20
67.981389875839
 30
0.0
 11
317.1308749965778
 21
68.31472287583892
 31
0.0
  0
LINE
  5
619E
330
1A
100
AcDbEntity
  8
210
  6
CONTINUOUS
 62
     4
100
AcDbLine
 10
315.158847996578
 20
67.981389875839
 30
0.0
 11
317.1308749965778
 21
67.64805687583896
 31
0.0
  0
TEXT
  5
619F
330
1A
100
AcDbEntity
  8
210
  6
CONTINUOUS
 62
     4
100
AcDbText
 10
317.0948323118498
 20
71.106389875839
 30
0.0
 40
5.0
  1
10
100
AcDbText
  0
LINE
  5
61A0
330
1A
100
AcDbEntity
  8
210
  6
CONTINUOUS
 62
     4
100
AcDbLine
 10
315.158847996578
 20
67.981389875839
 30
0.0
 11
326.3865193118497
 21
67.981389875839
 31
0.0
  0
TEXT
  5
61A4
330
1A
100
AcDbEntity
  8
210
  6
CONTINUOUS
 62
     4
100
AcDbText
 10
340.700514996578
 20
51.10637787583891
 30
0.0
 40
5.0
  1
70
100
AcDbText
  0
LINE
  5
61A5
330
1A
100
AcDbEntity
  8
210
  6
CONTINUOUS
 62
     4
100
AcDbLine
 10
380.158847996578
 20
47.98137787583891
 30
0.0
 11
378.1868219965781
 21
48.31471187583895
 31
0.0
  0
LINE
  5
61A6
330
1A
100
AcDbEntity
  8
210
  6
CONTINUOUS
 62
     4
100
AcDbLine
 10
380.158847996578
 20
47.98137787583891
 30
0.0
 11
378.1868219965781
 21
47.64804487583899
 31
0.0
  0
LINE
  5
61D3
330
1A
100
AcDbEntity
  8
210
  6
CONTINUOUS
 62
     4
100
AcDbLine
 10
401.158847996578
 20
95.48137487583904
 30
0.0
 11
401.158847996578
 21
19.90888787583901
 31
0.0
  0
LINE
  5
61D4
330
1A
100
AcDbEntity
  8
210
  6
CONTINUOUS
 62
     4
100
AcDbLine
 10
401.158847996578
 20
23.97138787583901
 30
0.0
 11
399.1868219965781
 21
24.30472087583893
 31
0.0
  0
LINE
  5
61D5
330
1A
100
AcDbEntity
  8
210
  6
CONTINUOUS
 62
     4
100
AcDbLine
 10
401.158847996578
 20
23.97138787583901
 30
0.0
 11
399.1868219965781
 21
23.63805387583898
 31
0.0
  0
LINE
  5
6217
330
1A
100
AcDbEntity
  8
170
  6
PHANTOM2
 62
     1
100
AcDbLine
 10
635.1585383867818
 20
112.4262138157762
 30
0.0
 11
635.1585383867818
 21
188.4262448157761
 31
0.0
  0
ARC
  5
6218
330
1A
100
AcDbEntity
  8
170
  6
PHANTOM2
 62
     1
100
AcDbCircle
 10
642.1585383867818
 20
112.4262138157762
 30
0.0
 40
7.0
100
AcDbArc
 50
180.0000050000005
 51
270.0000009999949
  0
TEXT
  5
6219
330
1A
100
AcDbEntity
  8
230
 62
     6
100
AcDbText
 10
589.9886860223467
 20
146.9592141469159
 30
0.0
 40
5.0
  1
L
100
AcDbText
  0
TEXT
  5
621A
330
1A
100
AcDbEntity
  8
230
 62
     6
100
AcDbText
 10
588.3917667024079
 20
148.9380473601569
 30
0.0
 40
5.0
  1
H
100
AcDbText
  0
ARC
  5
621B
330
1A
100
AcDbEntity
  8
170
  6
PHANTOM2
 62
     1
100
AcDbCircle
 10
642.1585383867818
 20
188.4262448157761
 30
0.0
 40
7.0
100
AcDbArc
 50
90.0
 51
180.0000029999976
  0
LINE
  5
621C
330
1A
100
AcDbEntity
  8
10
  6
CONTINUOUS
100
AcDbLine
 10
796.1585383867818
 20
215.4262448157761
 30
0.0
 11
796.1585383867818
 21
85.42621381577623
 31
0.0
  0
LINE
  5
621D
330
1A
100
AcDbEntity
  8
225
  6
CENTER
 62
     3
100
AcDbLine
 10
750.1585383867818
 20
225.4262448157761
 30
0.0
 11
750.1585383867818
 21
77.92625981577623
 31
0.0
  0
LINE
  5
621E
330
1A
100
AcDbEntity
  8
10
  6
CONTINUOUS
100
AcDbLine
 10
704.1585383867818
 20
215.4262448157761
 30
0.0
 11
704.1585383867818
 21
85.42621381577623
 31
0.0
  0
TEXT
  5
621F
330
1A
100
AcDbEntity
  8
230
 62
     6
100
AcDbText
 10
742.8317844487359
 20
228.1891368157761
 30
0.0
 40
5.0
  1
ASL
100
AcDbText
  0
LINE
  5
6308
330
1A
100
AcDbEntity
  8
170
  6
CONTINUOUS
100
AcDbLine
 10
658.1585383867818
 20
439.3145412657523
 30
0.0
 11
658.1585383867818
 21
319.3144802657526
 31
0.0
  0
LINE
  5
6309
330
1A
100
AcDbEntity
  8
170
  6
CONTINUOUS
100
AcDbLine
 10
618.1585383867818
 20
439.3145412657523
 30
0.0
 11
618.1585383867818
 21
319.3144802657526
 31
0.0
  0
LINE
  5
630A
330
1A
100
AcDbEntity
  8
170
  6
DASHED
100
AcDbLine
 10
623.1586603867819
 20
442.7521022657526
 30
0.0
 11
623.1586603867819
 21
322.7520412657523
 31
0.0
  0
LINE
  5
630B
330
1A
100
AcDbEntity
  8
225
  6
CENTER
 62
     3
100
AcDbLine
 10
750.1585383867818
 20
447.6623298247282
 30
0.0
 11
750.1585383867818
 21
309.3144802657526
 31
0.0
  0
LINE
  5
630C
330
1A
100
AcDbEntity
  8
230
  6
CONTINUOUS
 62
     6
100
AcDbLine
 10
641.3950263867816
 20
404.4734912657523
 30
0.0
 11
613.5809907026446
 21
457.7051798895255
 31
0.0
  0
LINE
  5
630D
330
1A
100
AcDbEntity
  8
170
  6
PHANTOM2
 62
     1
100
AcDbLine
 10
635.1585383867818
 20
341.3144802657526
 30
0.0
 11
635.1585383867818
 21
417.3145412657524
 31
0.0
  0
LINE
  5
630E
330
1A
100
AcDbEntity
  8
210
  6
CONTINUOUS
 62
     4
100
AcDbLine
 10
632.2842713867819
 20
401.8145412657523
 30
0.0
 11
555.1585383867818
 21
401.8145412657523
 31
0.0
  0
LINE
  5
630F
330
1A
100
AcDbEntity
  8
210
  6
CONTINUOUS
 62
     4
100
AcDbLine
 10
558.1585383867818
 20
401.8145412657523
 30
0.0
 11
558.1585383867818
 21
356.8145412657524
 31
0.0
  0
LINE
  5
6310
330
1A
100
AcDbEntity
  8
210
  6
CONTINUOUS
 62
     4
100
AcDbLine
 10
558.1585383867818
 20
356.8145412657524
 30
0.0
 11
558.4918723867818
 21
358.7865682657526
 31
0.0
  0
LINE
  5
6311
330
1A
100
AcDbEntity
  8
210
  6
CONTINUOUS
 62
     4
100
AcDbLine
 10
558.1585383867818
 20
356.8145412657524
 30
0.0
 11
557.8252053867818
 21
358.7865682657526
 31
0.0
  0
TEXT
  5
6312
330
1A
100
AcDbEntity
  8
210
  6
CONTINUOUS
 62
     4
100
AcDbText
 10
554.9191995950816
 20
374.6285272431135
 30
0.0
 40
5.0
  1
45
 50
90.00000299999769
100
AcDbText
  0
LINE
  5
6313
330
1A
100
AcDbEntity
  8
210
  6
CONTINUOUS
 62
     4
100
AcDbLine
 10
558.1585383867818
 20
401.8145412657523
 30
0.0
 11
558.4918723867818
 21
399.8425142657525
 31
0.0
  0
LINE
  5
6314
330
1A
100
AcDbEntity
  8
210
  6
CONTINUOUS
 62
     4
100
AcDbLine
 10
558.1585383867818
 20
401.8145412657523
 30
0.0
 11
557.8252053867818
 21
399.8425142657525
 31
0.0
  0
TEXT
  5
6315
330
1A
100
AcDbEntity
  8
230
 62
     6
100
AcDbText
 10
573.3328444914056
 20
374.8354526510144
 30
0.0
 40
5.0
  1
L
100
AcDbText
  0
TEXT
  5
6316
330
1A
100
AcDbEntity
  8
230
 62
     6
100
AcDbText
 10
571.7359251714669
 20
376.8142858642555
 30
0.0
 40
5.0
  1
H
100
AcDbText
  0
ARC
  5
6317
330
1A
100
AcDbEntity
  8
170
  6
PHANTOM2
 62
     1
100
AcDbCircle
 10
642.1585383867818
 20
341.3144802657526
 30
0.0
 40
7.0
100
AcDbArc
 50
180.0000050000005
 51
270.0000009999949
  0
LINE
  5
6318
330
1A
100
AcDbEntity
  8
170
  6
CONTINUOUS
100
AcDbLine
 10
628.158660386782
 20
326.8144802657526
 30
0.0
 11
638.158660386782
 21
319.3144802657526
 31
0.0
  0
LINE
  5
6319
330
1A
100
AcDbEntity
  8
170
  6
CONTINUOUS
100
AcDbLine
 10
618.1585383867818
 20
319.3144802657526
 30
0.0
 11
621.4919123867819
 21
321.8144802657526
 31
0.0
  0
LINE
  5
631A
330
1A
100
AcDbEntity
  8
170
  6
CONTINUOUS
100
AcDbLine
 10
621.4919123867819
 20
321.8144802657526
 30
0.0
 11
628.158660386782
 21
326.8144802657526
 31
0.0
  0
LINE
  5
631B
330
1A
100
AcDbEntity
  8
170
  6
CONTINUOUS
100
AcDbLine
 10
648.1586603867819
 20
311.8144802657526
 30
0.0
 11
654.8252863867819
 21
316.8144802657526
 31
0.0
  0
LINE
  5
631C
330
1A
100
AcDbEntity
  8
170
  6
CONTINUOUS
100
AcDbLine
 10
638.158660386782
 20
319.3144802657526
 30
0.0
 11
648.1586603867819
 21
311.8144802657526
 31
0.0
  0
LINE
  5
631D
330
1A
100
AcDbEntity
  8
170
  6
CONTINUOUS
100
AcDbLine
 10
654.8252863867819
 20
316.8144802657526
 30
0.0
 11
658.1585383867818
 21
319.3144802657526
 31
0.0
  0
LINE
  5
631E
330
1A
100
AcDbEntity
  8
225
  6
CONTINUOUS
 62
     3
100
AcDbLine
 10
653.658660386782
 20
401.8145412657523
 30
0.0
 11
632.658660386782
 21
401.8145412657523
 31
0.0
  0
LINE
  5
631F
330
1A
100
AcDbEntity
  8
225
  6
CONTINUOUS
 62
     3
100
AcDbLine
 10
643.1586603867819
 20
412.3145412657524
 30
0.0
 11
643.1586603867819
 21
391.3145412657523
 31
0.0
  0
LINE
  5
6320
330
1A
100
AcDbEntity
  8
230
  6
CONTINUOUS
 62
     6
100
AcDbLine
 10
641.3950263867816
 20
404.4734912657523
 30
0.0
 11
640.777211386782
 21
406.3756752657524
 31
0.0
  0
CIRCLE
  5
6321
330
1A
100
AcDbEntity
  8
10
  6
CONTINUOUS
100
AcDbCircle
 10
643.1586603867819
 20
401.8145412657523
 30
0.0
 40
2.458499999999999
  0
LINE
  5
6322
330
1A
100
AcDbEntity
  8
230
  6
CONTINUOUS
 62
     6
100
AcDbLine
 10
641.3950263867816
 20
404.4734912657523
 30
0.0
 11
640.186341386782
 21
406.0669412657524
 31
0.0
  0
CIRCLE
  5
6323
330
1A
100
AcDbEntity
  8
10
  6
CONTINUOUS
100
AcDbCircle
 10
643.1586603867819
 20
401.8145412657523
 30
0.0
 40
3.0
  0
TEXT
  5
6324
330
1A
100
AcDbEntity
  8
230
 62
     6
100
AcDbText
 10
717.8310979319117
 20
289.4539038029325
 30
0.0
 40
10.0
  1
取付寸法図
100
AcDbText
  0
LINE
  5
6325
330
1A
100
AcDbEntity
  8
230
  6
CONTINUOUS
 62
     6
100
AcDbLine
 10
704.5934340986473
 20
285.6047838029327
 30
0.0
 11
795.7236426749163
 21
285.6047838029327
 31
0.0
  0
LINE
  5
6326
330
1A
100
AcDbEntity
  8
210
 62
     4
100
AcDbLine
 10
706.3585383867819
 20
244.4985024947637
 30
0.0
 11
793.958538386782
 21
244.4985024947637
 31
0.0
  0
INSERT
  5
6327
330
1A
100
AcDbEntity
  8
210
 62
     4
100
AcDbBlockReference
  2
_OPEN30
 10
704.1585383867818
 20
244.4985024947637
 30
0.0
 41
2.200000000000045
 42
2.200000000000045
 43
2.2
 50
180.0
  0
MTEXT
  5
6328
330
1A
100
AcDbEntity
  8
210
 62
     4
100
AcDbMText
 10
750.1585383867818
 20
248.9985024947638
 30
0.0
 40
5.0
 41
0.0
 71
     5
 72
     1
  1
\A1;92
1001
ACAD
1000
MTEXTBEGIN
1070
    73
1070
     1
1070
    44
1040
1.0
1070
    74
1070
     0
1000
MTEXTEND
1000
MTEXTBEGIN
1070
    73
1070
     1
1070
    44
1040
1.0
1070
    74
1070
     0
1000
MTEXTEND
1000
MTEXTBEGIN
1070
    73
1070
     1
1070
    44
1040
1.0
1070
    74
1070
     0
1000
MTEXTEND
  0
INSERT
  5
6329
330
1A
100
AcDbEntity
  8
210
 62
     4
100
AcDbBlockReference
  2
_OPEN30
 10
796.1585383867818
 20
244.4985024947637
 30
0.0
 41
2.200000000000045
 42
2.200000000000045
 43
2.2
  0
LINE
  5
632A
330
1A
100
AcDbEntity
  8
230
  6
CONTINUOUS
 62
     6
100
AcDbLine
 10
613.5809907026446
 20
457.7051798895255
 30
0.0
 11
583.9819776831675
 21
457.7051798895255
 31
0.0
  0
TEXT
  5
632B
330
1A
100
AcDbEntity
  8
230
  6
CONTINUOUS
 62
     6
100
AcDbText
 10
586.0339746832728
 20
460.5004458048548
 30
0.0
 40
5.0
  1
2-M6
100
AcDbText
  0
LINE
  5
632C
330
1A
100
AcDbEntity
  8
210
 62
     4
100
AcDbLine
 10
643.1585993867818
 20
448.8707884872552
 30
0.0
 11
643.1585993867818
 21
484.0971492657523
 31
0.0
  0
ARC
  5
632D
330
1A
100
AcDbEntity
  8
170
  6
PHANTOM2
 62
     1
100
AcDbCircle
 10
642.1585383867818
 20
417.3145412657524
 30
0.0
 40
7.0
100
AcDbArc
 50
90.0
 51
180.0000029999976
  0
LINE
  5
632E
330
1A
100
AcDbEntity
  8
170
  6
CONTINUOUS
100
AcDbLine
 10
628.158660386782
 20
446.8145412657523
 30
0.0
 11
638.158660386782
 21
439.3145412657523
 31
0.0
  0
LINE
  5
632F
330
1A
100
AcDbEntity
  8
170
  6
CONTINUOUS
100
AcDbLine
 10
618.1585383867818
 20
439.3145412657523
 30
0.0
 11
621.4919123867819
 21
441.8145412657524
 31
0.0
  0
LINE
  5
6330
330
1A
100
AcDbEntity
  8
170
  6
CONTINUOUS
100
AcDbLine
 10
621.4919123867819
 20
441.8145412657524
 30
0.0
 11
628.158660386782
 21
446.8145412657523
 31
0.0
  0
LINE
  5
6331
330
1A
100
AcDbEntity
  8
210
 62
     4
100
AcDbLine
 10
658.1585383867818
 20
439.3770412657524
 30
0.0
 11
658.1585383867818
 21
464.0971492657524
 31
0.0
  0
LINE
  5
6332
330
1A
100
AcDbEntity
  8
210
 62
     4
100
AcDbLine
 10
643.1586603867819
 20
412.3145412657524
 30
0.0
 11
643.1585993867818
 21
464.0971492657524
 31
0.0
  0
LINE
  5
6333
330
1A
100
AcDbEntity
  8
170
  6
CONTINUOUS
100
AcDbLine
 10
648.1586603867819
 20
431.8145412657523
 30
0.0
 11
654.8252863867819
 21
436.8145412657524
 31
0.0
  0
LINE
  5
6334
330
1A
100
AcDbEntity
  8
170
  6
CONTINUOUS
100
AcDbLine
 10
638.158660386782
 20
439.3145412657523
 30
0.0
 11
648.1586603867819
 21
431.8145412657523
 31
0.0
  0
LINE
  5
6335
330
1A
100
AcDbEntity
  8
170
  6
CONTINUOUS
100
AcDbLine
 10
654.8252863867819
 20
436.8145412657524
 30
0.0
 11
658.1585383867818
 21
439.3145412657523
 31
0.0
  0
MTEXT
  5
6336
330
1A
100
AcDbEntity
  8
210
 62
     4
100
AcDbMText
 10
650.6585687023028
 20
466.0972937026412
 30
0.0
 40
5.0
 41
0.0
 71
     5
 72
     1
  1
\A1;15
 11
0.9999999999989464
 21
-0.0000014516272459
 31
0.0
1001
ACAD
1000
MTEXTBEGIN
1070
    73
1070
     1
1070
    44
1040
1.0
1070
    74
1070
     0
1000
MTEXTEND
1000
MTEXTBEGIN
1070
    73
1070
     1
1070
    44
1040
1.0
1070
    74
1070
     0
1000
MTEXTEND
1000
MTEXTBEGIN
1070
    73
1070
     1
1070
    44
1040
1.0
1070
    74
1070
     0
1000
MTEXTEND
1000
MTEXTBEGIN
1070
    73
1070
     1
1070
    44
1040
1.0
1070
    74
1070
     0
1000
MTEXTEND
  0
TEXT
  5
6337
330
1A
100
AcDbEntity
  8
210
100
AcDbText
 10
645.5395212677339
 20
463.5971492657524
 30
0.0
 40
5.0
  1
15
100
AcDbText
1001
ACAD
1000
MTEXTBEGIN
1070
    73
1070
     1
1070
    44
1040
1.0
1070
    74
1070
     0
1000
MTEXTEND
  0
LINE
  5
6338
330
1A
100
AcDbEntity
  8
210
 62
     4
100
AcDbLine
 10
645.3585993867818
 20
461.5971492657523
 30
0.0
 11
655.9585383867818
 21
461.5971492657523
 31
0.0
  0
INSERT
  5
6339
330
1A
100
AcDbEntity
  8
210
 62
     4
100
AcDbBlockReference
  2
_OPEN30
 10
643.1585993867818
 20
461.5971492657523
 30
0.0
 41
2.200000000000045
 42
2.200000000000045
 43
2.2
 50
180.0
  0
INSERT
  5
633A
330
1A
100
AcDbEntity
  8
210
 62
     4
100
AcDbBlockReference
  2
_OPEN30
 10
658.1585383867818
 20
461.5971492657523
 30
0.0
 41
2.200000000000045
 42
2.200000000000045
 43
2.2
 50
180.0
  0
LINE
  5
633B
330
1A
100
AcDbEntity
  8
210
 62
     4
100
AcDbLine
 10
658.1585383867818
 20
458.0428597351279
 30
0.0
 11
658.1585383867818
 21
464.0971492657524
 31
0.0
  0
LINE
  5
633C
330
1A
100
AcDbEntity
  8
210
 62
     4
100
AcDbLine
 10
658.1585383867818
 20
461.5971492657523
 30
0.0
 11
655.9585383867818
 21
461.5971492657523
 31
0.0
  0
LINE
  5
633D
330
1A
100
AcDbEntity
  8
210
 62
     4
100
AcDbLine
 10
658.1585383867818
 20
461.5971492657523
 30
0.0
 11
655.9585383867818
 21
461.0076610477523
 31
0.0
  0
LINE
  5
633E
330
1A
100
AcDbEntity
  8
210
 62
     4
100
AcDbLine
 10
655.9585383867818
 20
462.1866374837524
 30
0.0
 11
658.1585383867818
 21
461.5971492657523
 31
0.0
  0
INSERT
  5
633F
330
1A
100
AcDbEntity
  8
210
 62
     4
100
AcDbBlockReference
  2
_OPEN30
 10
643.1585993867818
 20
481.5971492657523
 30
0.0
 41
2.200000000000045
 42
2.200000000000045
 43
2.2
 50
180.0
  0
MTEXT
  5
6340
330
1A
100
AcDbEntity
  8
210
 62
     4
100
AcDbMText
 10
750.1585383867818
 20
466.0971492657523
 30
0.0
 40
5.0
 41
0.0
 71
     5
 72
     1
  1
\A1;184
1001
ACAD
1000
MTEXTBEGIN
1070
    73
1070
     1
1070
    44
1040
1.0
1070
    74
1070
     0
1000
MTEXTEND
1000
MTEXTBEGIN
1070
    73
1070
     1
1070
    44
1040
1.0
1070
    74
1070
     0
1000
MTEXTEND
1000
MTEXTBEGIN
1070
    73
1070
     1
1070
    44
1040
1.0
1070
    74
1070
     0
1000
MTEXTEND
  0
TEXT
  5
6341
330
1A
100
AcDbEntity
  8
230
 62
     6
100
AcDbText
 10
743.2062435286584
 20
450.6208556681684
 30
0.0
 40
5.0
  1
ASL
100
AcDbText
  0
MTEXT
  5
6342
330
1A
100
AcDbEntity
  8
210
 62
     4
100
AcDbMText
 10
750.1585688867817
 20
486.0971492657523
 30
0.0
 40
5.0
 41
0.0
 71
     5
 72
     1
  1
\A1;214
1001
ACAD
1000
MTEXTBEGIN
1070
    73
1070
     1
1070
    44
1040
1.0
1070
    74
1070
     0
1000
MTEXTEND
1000
MTEXTBEGIN
1070
    73
1070
     1
1070
    44
1040
1.0
1070
    74
1070
     0
1000
MTEXTEND
1000
MTEXTBEGIN
1070
    73
1070
     1
1070
    44
1040
1.0
1070
    74
1070
     0
1000
MTEXTEND
1000
MTEXTBEGIN
1070
    73
1070
     1
1070
    44
1040
1.0
1070
    74
1070
     0
1000
MTEXTEND
  0
LINE
  5
6343
330
1A
100
AcDbEntity
  8
170
  6
PHANTOM2
 62
     1
100
AcDbLine
 10
865.1585383867818
 20
112.4262138157762
 30
0.0
 11
865.1585383867818
 21
188.4262448157761
 31
0.0
  0
ARC
  5
6344
330
1A
100
AcDbEntity
  8
170
  6
PHANTOM2
 62
     1
100
AcDbCircle
 10
858.1585383867817
 20
112.4262138157762
 30
0.0
 40
7.0
100
AcDbArc
 50
270.0
 51
0.000008999999603
  0
ARC
  5
6345
330
1A
100
AcDbEntity
  8
170
  6
PHANTOM2
 62
     1
100
AcDbCircle
 10
858.1585383867817
 20
188.4262448157761
 30
0.0
 40
7.0
100
AcDbArc
 50
0.0
 51
90.00000299999769
  0
LINE
  5
6346
330
1A
100
AcDbEntity
  8
170
  6
CONTINUOUS
100
AcDbLine
 10
882.1585383867818
 20
439.3145412657523
 30
0.0
 11
882.1585383867818
 21
319.3144802657526
 31
0.0
  0
LINE
  5
6347
330
1A
100
AcDbEntity
  8
170
  6
CONTINUOUS
100
AcDbLine
 10
842.1585383867817
 20
439.3145412657523
 30
0.0
 11
842.1585383867817
 21
319.3144802657526
 31
0.0
  0
LINE
  5
6348
330
1A
100
AcDbEntity
  8
170
  6
DASHED
100
AcDbLine
 10
877.1585383867819
 20
435.8770412657523
 30
0.0
 11
877.1585383867819
 21
315.8769802657526
 31
0.0
  0
LINE
  5
6349
330
1A
100
AcDbEntity
  8
170
  6
PHANTOM2
 62
     1
100
AcDbLine
 10
865.1585383867818
 20
341.3144802657526
 30
0.0
 11
865.1585383867818
 21
417.3145412657524
 31
0.0
  0
LINE
  5
634A
330
1A
100
AcDbEntity
  8
170
  6
CONTINUOUS
100
AcDbLine
 10
862.1585383867818
 20
319.3144802657526
 30
0.0
 11
872.1585383867818
 21
311.8144802657526
 31
0.0
  0
LINE
  5
634B
330
1A
100
AcDbEntity
  8
225
  6
CONTINUOUS
 62
     3
100
AcDbLine
 10
857.1585383867818
 20
367.3145412657524
 30
0.0
 11
857.1585383867818
 21
346.3145412657524
 31
0.0
  0
CIRCLE
  5
634C
330
1A
100
AcDbEntity
  8
10
  6
CONTINUOUS
100
AcDbCircle
 10
857.1585383867818
 20
356.8145412657524
 30
0.0
 40
3.0
  0
CIRCLE
  5
634D
330
1A
100
AcDbEntity
  8
10
  6
CONTINUOUS
100
AcDbCircle
 10
857.1585383867818
 20
356.8145412657524
 30
0.0
 40
2.458499999999999
  0
LINE
  5
634E
330
1A
100
AcDbEntity
  8
170
  6
CONTINUOUS
100
AcDbLine
 10
845.4919123867817
 20
321.8144802657526
 30
0.0
 11
852.1585383867819
 21
326.8144802657526
 31
0.0
  0
LINE
  5
634F
330
1A
100
AcDbEntity
  8
170
  6
CONTINUOUS
100
AcDbLine
 10
842.1585383867817
 20
319.3144802657526
 30
0.0
 11
845.4919123867817
 21
321.8144802657526
 31
0.0
  0
LINE
  5
6350
330
1A
100
AcDbEntity
  8
170
  6
CONTINUOUS
100
AcDbLine
 10
852.1585383867819
 20
326.8144802657526
 30
0.0
 11
862.1585383867818
 21
319.3144802657526
 31
0.0
  0
LINE
  5
6351
330
1A
100
AcDbEntity
  8
225
  6
CONTINUOUS
 62
     3
100
AcDbLine
 10
846.6585383867819
 20
356.8145412657524
 30
0.0
 11
867.6585383867818
 21
356.8145412657524
 31
0.0
  0
ARC
  5
6352
330
1A
100
AcDbEntity
  8
170
  6
PHANTOM2
 62
     1
100
AcDbCircle
 10
858.1585383867817
 20
341.3144802657526
 30
0.0
 40
7.0
100
AcDbArc
 50
270.0
 51
0.000008999999603
  0
LINE
  5
6353
330
1A
100
AcDbEntity
  8
170
  6
CONTINUOUS
100
AcDbLine
 10
878.8252863867819
 20
316.8144802657526
 30
0.0
 11
882.1585383867818
 21
319.3144802657526
 31
0.0
  0
LINE
  5
6354
330
1A
100
AcDbEntity
  8
170
  6
CONTINUOUS
100
AcDbLine
 10
872.1585383867818
 20
311.8144802657526
 30
0.0
 11
878.8252863867819
 21
316.8144802657526
 31
0.0
  0
TEXT
  5
6355
330
1A
100
AcDbEntity
  8
230
  6
CONTINUOUS
 62
     6
100
AcDbText
 10
914.5068720008584
 20
480.8042056350151
 30
0.0
 40
5.0
  1
取付アングル
100
AcDbText
  0
LINE
  5
6356
330
1A
100
AcDbEntity
  8
230
  6
CONTINUOUS
 62
     6
100
AcDbLine
 10
904.5066251263115
 20
478.9349217758457
 30
0.0
 11
952.3851804032497
 21
478.9349217758457
 31
0.0
  0
LINE
  5
6357
330
1A
100
AcDbEntity
  8
170
  6
CONTINUOUS
100
AcDbLine
 10
862.1585383867818
 20
439.3145412657523
 30
0.0
 11
872.1585383867818
 21
431.8145412657523
 31
0.0
  0
LINE
  5
6358
330
1A
100
AcDbEntity
  8
230
  6
CONTINUOUS
 62
     6
100
AcDbLine
 10
867.6823753867816
 20
430.9992172657524
 30
0.0
 11
869.1480683867817
 21
432.3600052657524
 31
0.0
  0
LINE
  5
6359
330
1A
100
AcDbEntity
  8
230
  6
CONTINUOUS
 62
     6
100
AcDbLine
 10
867.6823753867816
 20
430.9992172657524
 30
0.0
 11
868.6193893867816
 21
432.7661372657522
 31
0.0
  0
LINE
  5
635A
330
1A
100
AcDbEntity
  8
230
  6
CONTINUOUS
 62
     6
100
AcDbLine
 10
867.6823753867816
 20
430.9992172657524
 30
0.0
 11
904.5066251263115
 21
478.9349217758457
 31
0.0
  0
LINE
  5
635B
330
1A
100
AcDbEntity
  8
210
 62
     4
100
AcDbLine
 10
857.1585383867818
 20
448.8707884872552
 30
0.0
 11
857.1585383867818
 21
484.0971492657523
 31
0.0
  0
LINE
  5
635C
330
1A
100
AcDbEntity
  8
210
 62
     4
100
AcDbLine
 10
857.1585383867818
 20
367.3145412657524
 30
0.0
 11
857.1585383867818
 21
464.0971492657524
 31
0.0
  0
LINE
  5
635D
330
1A
100
AcDbEntity
  8
170
  6
CONTINUOUS
100
AcDbLine
 10
842.1585383867817
 20
439.3145412657523
 30
0.0
 11
845.4919123867817
 21
441.8145412657524
 31
0.0
  0
LINE
  5
635E
330
1A
100
AcDbEntity
  8
210
 62
     4
100
AcDbLine
 10
842.1585383867817
 20
439.3770412657524
 30
0.0
 11
842.1585383867817
 21
464.0971492657524
 31
0.0
  0
LINE
  5
635F
330
1A
100
AcDbEntity
  8
170
  6
CONTINUOUS
100
AcDbLine
 10
852.1585383867819
 20
446.8145412657523
 30
0.0
 11
862.1585383867818
 21
439.3145412657523
 31
0.0
  0
ARC
  5
6360
330
1A
100
AcDbEntity
  8
170
  6
PHANTOM2
 62
     1
100
AcDbCircle
 10
858.1585383867817
 20
417.3145412657524
 30
0.0
 40
7.0
100
AcDbArc
 50
0.0
 51
90.00000299999769
  0
MTEXT
  5
6361
330
1A
100
AcDbEntity
  8
210
 62
     4
100
AcDbMText
 10
849.6585383867818
 20
466.0971492657523
 30
0.0
 40
5.0
 41
0.0
 71
     5
 72
     1
  1
\A1;15
1001
ACAD
1000
MTEXTBEGIN
1070
    73
1070
     1
1070
    44
1040
1.0
1070
    74
1070
     0
1000
MTEXTEND
1000
MTEXTBEGIN
1070
    73
1070
     1
1070
    44
1040
1.0
1070
    74
1070
     0
1000
MTEXTEND
1000
MTEXTBEGIN
1070
    73
1070
     1
1070
    44
1040
1.0
1070
    74
1070
     0
1000
MTEXTEND
1000
MTEXTBEGIN
1070
    73
1070
     1
1070
    44
1040
1.0
1070
    74
1070
     0
1000
MTEXTEND
  0
LINE
  5
6362
330
1A
100
AcDbEntity
  8
170
  6
CONTINUOUS
100
AcDbLine
 10
845.4919123867817
 20
441.8145412657524
 30
0.0
 11
852.1585383867819
 21
446.8145412657523
 31
0.0
  0
LINE
  5
6363
330
1A
100
AcDbEntity
  8
210
 62
     4
100
AcDbLine
 10
844.3585383867816
 20
461.5971492657523
 30
0.0
 11
854.9585383867819
 21
461.5971492657523
 31
0.0
  0
INSERT
  5
6364
330
1A
100
AcDbEntity
  8
210
 62
     4
100
AcDbBlockReference
  2
_OPEN30
 10
842.1585383867817
 20
461.5971492657523
 30
0.0
 41
2.200000000000045
 42
2.200000000000045
 43
2.2
 50
180.0
  0
LINE
  5
6365
330
1A
100
AcDbEntity
  8
210
 62
     4
100
AcDbLine
 10
842.1585383867817
 20
458.0428597351279
 30
0.0
 11
842.1585383867817
 21
464.0971492657524
 31
0.0
  0
INSERT
  5
6366
330
1A
100
AcDbEntity
  8
210
 62
     4
100
AcDbBlockReference
  2
_OPEN30
 10
842.1585383867817
 20
461.5971492657523
 30
0.0
 41
2.200000000000045
 42
2.200000000000045
 43
2.2
  0
INSERT
  5
6367
330
1A
100
AcDbEntity
  8
210
 62
     4
100
AcDbBlockReference
  2
_OPEN30
 10
857.1585383867818
 20
461.5971492657523
 30
0.0
 41
2.200000000000045
 42
2.200000000000045
 43
2.2
  0
INSERT
  5
6368
330
1A
100
AcDbEntity
  8
210
 62
     4
100
AcDbBlockReference
  2
_OPEN30
 10
857.1585383867818
 20
481.5971492657523
 30
0.0
 41
2.200000000000045
 42
2.200000000000045
 43
2.2
  0
LINE
  5
6369
330
1A
100
AcDbEntity
  8
170
  6
CONTINUOUS
100
AcDbLine
 10
878.8252863867819
 20
436.8145412657524
 30
0.0
 11
882.1585383867818
 21
439.3145412657523
 31
0.0
  0
LINE
  5
636A
330
1A
100
AcDbEntity
  8
170
  6
CONTINUOUS
100
AcDbLine
 10
872.1585383867818
 20
431.8145412657523
 30
0.0
 11
878.8252863867819
 21
436.8145412657524
 31
0.0
  0
LINE
  5
636F
330
1A
100
AcDbEntity
  8
210
  6
CONTINUOUS
 62
     4
100
AcDbLine
 10
401.1588409965778
 20
95.48137187583893
 30
0.0
 11
486.2214019965778
 21
95.48137187583893
 31
0.0
  0
LINE
  5
6370
330
1A
100
AcDbEntity
  8
210
  6
CONTINUOUS
 62
     4
100
AcDbLine
 10
482.1589019965777
 20
270.4813828758389
 30
0.0
 11
482.1589019965777
 21
145.4813678758389
 31
0.0
  0
LINE
  5
6371
330
1A
100
AcDbEntity
  8
210
  6
CONTINUOUS
 62
     4
100
AcDbLine
 10
443.158932996578
 20
145.4813718758389
 30
0.0
 11
486.221401996578
 21
145.4813718758389
 31
0.0
  0
LINE
  5
6372
330
1A
100
AcDbEntity
  8
210
  6
CONTINUOUS
 62
     4
100
AcDbLine
 10
443.158932996578
 20
145.4813718758389
 30
0.0
 11
486.2214019965778
 21
145.4813718758389
 31
0.0
  0
LINE
  5
6373
330
1A
100
AcDbEntity
  8
210
  6
CONTINUOUS
 62
     4
100
AcDbLine
 10
482.1589019965777
 20
95.48137187583893
 30
0.0
 11
482.1589019965777
 21
145.4813718758389
 31
0.0
  0
LINE
  5
6374
330
1A
100
AcDbEntity
  8
210
  6
CONTINUOUS
 62
     4
100
AcDbLine
 10
482.1589019965777
 20
95.48137187583893
 30
0.0
 11
482.4922359965777
 21
97.45339787583896
 31
0.0
  0
LINE
  5
6375
330
1A
100
AcDbEntity
  8
210
  6
CONTINUOUS
 62
     4
100
AcDbLine
 10
482.1589019965777
 20
95.48137187583893
 30
0.0
 11
481.8255689965777
 21
97.45339787583896
 31
0.0
  0
TEXT
  5
6376
330
1A
100
AcDbEntity
  8
210
  6
CONTINUOUS
 62
     4
100
AcDbText
 10
479.0339019965777
 20
115.898037875839
 30
0.0
 40
5.0
  1
50
 50
90.00000299999769
100
AcDbText
  0
LINE
  5
6377
330
1A
100
AcDbEntity
  8
210
  6
CONTINUOUS
 62
     4
100
AcDbLine
 10
482.1589019965777
 20
145.4813678758389
 30
0.0
 11
481.8255689965777
 21
147.4533948758388
 31
0.0
  0
LINE
  5
6378
330
1A
100
AcDbEntity
  8
210
  6
CONTINUOUS
 62
     4
100
AcDbLine
 10
482.1589019965777
 20
145.4813678758389
 30
0.0
 11
482.4922349965776
 21
147.4533948758388
 31
0.0
  0
LINE
  5
6379
330
1A
100
AcDbEntity
  8
210
  6
CONTINUOUS
 62
     4
100
AcDbLine
 10
482.158901996578
 20
145.4813718758389
 30
0.0
 11
481.825568996578
 21
143.5093448758389
 31
0.0
  0
LINE
  5
637A
330
1A
100
AcDbEntity
  8
210
  6
CONTINUOUS
 62
     4
100
AcDbLine
 10
482.158901996578
 20
145.4813718758389
 30
0.0
 11
482.4922359965779
 21
143.5093448758389
 31
0.0
  0
LINE
  5
637B
330
1A
100
AcDbEntity
  8
210
  6
CONTINUOUS
 62
     4
100
AcDbLine
 10
482.158901996578
 20
145.4813718758389
 30
0.0
 11
482.158901996578
 21
140.1493708758389
 31
0.0
  0
LINE
  5
637C
330
1A
100
AcDbEntity
  8
210
  6
CONTINUOUS
 62
     4
100
AcDbLine
 10
482.1589019965777
 20
145.4813718758389
 30
0.0
 11
482.4922359965777
 21
143.5093448758389
 31
0.0
  0
LINE
  5
637D
330
1A
100
AcDbEntity
  8
210
  6
CONTINUOUS
 62
     4
100
AcDbLine
 10
482.1589019965777
 20
145.4813718758389
 30
0.0
 11
481.8255689965777
 21
143.5093448758389
 31
0.0
  0
TEXT
  5
637E
330
1A
100
AcDbEntity
  8
210
  6
CONTINUOUS
 62
     4
100
AcDbText
 10
479.0339019965777
 20
201.8563678758388
 30
0.0
 40
5.0
  1
125
 50
90.00000299999769
100
AcDbText
  0
LINE
  5
637F
330
1A
100
AcDbEntity
  8
210
  6
CONTINUOUS
 62
     4
100
AcDbLine
 10
462.1588559965779
 20
270.4813828758389
 30
0.0
 11
486.2214019965778
 21
270.4813828758389
 31
0.0
  0
LINE
  5
6380
330
1A
100
AcDbEntity
  8
210
  6
CONTINUOUS
 62
     4
100
AcDbLine
 10
482.1589019965777
 20
270.4813828758389
 30
0.0
 11
481.8255689965777
 21
268.5093568758389
 31
0.0
  0
LINE
  5
6381
330
1A
100
AcDbEntity
  8
210
  6
CONTINUOUS
 62
     4
100
AcDbLine
 10
482.1589019965777
 20
270.4813828758389
 30
0.0
 11
482.4922349965776
 21
268.5093568758389
 31
0.0
  0
LWPOLYLINE
  5
6382
330
1A
100
AcDbEntity
  8
10
  6
HIDDEN2
100
AcDbPolyline
 90
        4
 70
     1
 43
0.0
 10
200.1588259965781
 20
140.4813708758389
 10
206.1588259965781
 20
140.4813708758389
 10
206.1588259965781
 20
159.4813708758389
 10
200.1588259965781
 20
159.4813708758389
  0
LINE
  5
6383
330
1A
100
AcDbEntity
  8
210
  6
CONTINUOUS
 62
     4
100
AcDbLine
 10
196.1588259965781
 20
166.4813718758388
 30
0.0
 11
155.158794996578
 21
166.4813718758388
 31
0.0
  0
LINE
  5
6384
330
1A
100
AcDbEntity
  8
210
  6
CONTINUOUS
 62
     4
100
AcDbLine
 10
177.158794996578
 20
145.4813718758388
 30
0.0
 11
155.158794996578
 21
145.4813718758388
 31
0.0
  0
LINE
  5
6385
330
1A
100
AcDbEntity
  8
210
  6
CONTINUOUS
 62
     4
100
AcDbLine
 10
158.158794996578
 20
145.4813718758388
 30
0.0
 11
158.158794996578
 21
166.4813718758388
 31
0.0
  0
LINE
  5
6386
330
1A
100
AcDbEntity
  8
210
  6
CONTINUOUS
 62
     4
100
AcDbLine
 10
158.158794996578
 20
145.4813718758388
 30
0.0
 11
157.825461996578
 21
147.4533978758389
 31
0.0
  0
LINE
  5
6387
330
1A
100
AcDbEntity
  8
210
  6
CONTINUOUS
 62
     4
100
AcDbLine
 10
158.158794996578
 20
145.4813718758388
 30
0.0
 11
158.492128996578
 21
147.4533978758389
 31
0.0
  0
LINE
  5
6388
330
1A
100
AcDbEntity
  8
210
  6
CONTINUOUS
 62
     4
100
AcDbLine
 10
158.158794996578
 20
166.4813718758388
 30
0.0
 11
157.825461996578
 21
164.5093448758387
 31
0.0
  0
LINE
  5
6389
330
1A
100
AcDbEntity
  8
210
  6
CONTINUOUS
 62
     4
100
AcDbLine
 10
158.158794996578
 20
166.4813718758388
 30
0.0
 11
158.492128996578
 21
164.5093448758387
 31
0.0
  0
TEXT
  5
638A
330
1A
100
AcDbEntity
  8
210
  6
CONTINUOUS
 62
     4
100
AcDbText
 10
155.2600672673672
 20
151.9175857903834
 30
0.0
 40
5.0
  1
21
 50
90.00000299999932
100
AcDbText
  0
LINE
  5
638B
330
1A
100
AcDbEntity
  8
230
  6
CONTINUOUS
 62
     6
100
AcDbLine
 10
200.390383996578
 20
165.7049098758388
 30
0.0
 11
184.793902996578
 21
221.0819848758388
 31
0.0
  0
LINE
  5
638C
330
1A
100
AcDbEntity
  8
230
  6
CONTINUOUS
100
AcDbLine
 10
200.390383996578
 20
165.7049098758388
 30
0.0
 11
200.176628996578
 21
167.6934538758388
 31
0.0
  0
LINE
  5
638D
330
1A
100
AcDbEntity
  8
230
  6
CONTINUOUS
100
AcDbLine
 10
200.390383996578
 20
165.7049098758388
 30
0.0
 11
199.534927996578
 21
167.5127238758388
 31
0.0
  0
TEXT
  5
638E
330
1A
100
AcDbEntity
  8
230
  6
CONTINUOUS
 62
     6
100
AcDbText
 10
142.2603107691706
 20
223.7445208758388
 30
0.0
 40
5.0
  1
ナベM6
100
AcDbText
  0
LINE
  5
638F
330
1A
100
AcDbEntity
  8
230
  6
CONTINUOUS
 62
     6
100
AcDbLine
 10
184.793902996578
 20
221.0819848758388
 30
0.0
 11
141.5353279965779
 21
221.0819848758388
 31
0.0
  0
TEXT
  5
6390
330
1A
100
AcDbEntity
  8
230
  6
CONTINUOUS
 62
     6
100
AcDbText
 10
141.4891239965779
 20
231.3611748758388
 30
0.0
 40
5.0
  1
差込台取付けねじ
100
AcDbText
  0
LINE
  5
6392
330
1A
100
AcDbEntity
  8
230
  6
CONTINUOUS
100
AcDbLine
 10
422.5908525699609
 20
291.4772688401722
 30
0.0
 11
477.4174244285844
 21
291.4772688401722
 31
0.0
  0
LINE
  5
6393
330
1A
100
AcDbEntity
  8
230
  6
CONTINUOUS
 62
     6
100
AcDbLine
 10
380.5960435098503
 20
218.7401113752435
 30
0.0
 11
422.5908525699609
 21
291.4772688401722
 31
0.0
  0
TEXT
  5
6394
330
1A
100
AcDbEntity
  8
230
  6
CONTINUOUS
 62
     6
100
AcDbText
 10
430.6744210542177
 20
299.9822438401722
 30
0.0
 40
5.0
  1
負荷側接続ねじ
100
AcDbText
  0
TEXT
  5
6395
330
1A
100
AcDbEntity
  8
230
  6
CONTINUOUS
 62
     6
100
AcDbText
 10
430.3403151516203
 20
293.3012128401721
 30
0.0
 40
5.0
  1
ナベM8
100
AcDbText
  0
LINE
  5
6396
330
1A
100
AcDbEntity
  8
230
  6
CONTINUOUS
 62
     6
100
AcDbLine
 10
440.4503239023239
 20
247.428636115908
 30
0.0
 11
472.876190178409
 21
247.428636115908
 31
0.0
  0
TEXT
  5
6397
330
1A
100
AcDbEntity
  8
230
  6
CONTINUOUS
 62
     6
100
AcDbText
 10
443.5800165266022
 20
249.1743639774163
 30
0.0
 40
5.0
  1
端子カバー
100
AcDbText
  0
LINE
  5
6398
330
1A
100
AcDbEntity
  8
230
  6
CONTINUOUS
 62
     6
100
AcDbLine
 10
428.1588479965789
 20
226.1391753471491
 30
0.0
 11
440.4503239023239
 21
247.428636115908
 31
0.0
  0
LINE
  5
6399
330
1A
100
AcDbEntity
  8
230
  6
CONTINUOUS
 62
     6
100
AcDbLine
 10
428.1588479965789
 20
226.1391753471491
 30
0.0
 11
429.4335370675645
 21
227.6803336508563
 31
0.0
  0
LINE
  5
639A
330
1A
100
AcDbEntity
  8
230
  6
CONTINUOUS
 62
     6
100
AcDbLine
 10
428.1588479965789
 20
226.1391753471491
 30
0.0
 11
428.8561867391271
 21
228.0136674604575
 31
0.0
  0
LINE
  5
639B
330
1A
100
AcDbEntity
  8
230
  6
CONTINUOUS
 62
     6
100
AcDbLine
 10
380.5960435098503
 20
218.7401113752435
 30
0.0
 11
381.2933815081943
 21
220.6146036917364
 31
0.0
  0
LINE
  5
639C
330
1A
100
AcDbEntity
  8
230
  6
CONTINUOUS
 62
     6
100
AcDbLine
 10
380.5960435098503
 20
218.7401113752435
 30
0.0
 11
381.8707316500082
 21
220.2812701315934
 31
0.0
  0
LINE
  5
639D
330
1A
100
AcDbEntity
  8
0
  6
CONTINUOUS
 62
     2
100
AcDbLine
 10
389.158855996578
 20
183.4813708758389
 30
0.0
 11
387.6588559965779
 21
183.4813708758389
 31
0.0
  0
LINE
  5
639E
330
1A
100
AcDbEntity
  8
150
  6
CONTINUOUS
 62
     7
100
AcDbLine
 10
232.6588259965781
 20
220.4813708758389
 30
0.0
 11
237.1588259965781
 21
220.4813708758389
 31
0.0
  0
LINE
  5
639F
330
1A
100
AcDbEntity
  8
0
  6
CONTINUOUS
 62
     2
100
AcDbLine
 10
335.158855996578
 20
265.481370875839
 30
0.0
 11
360.158855996578
 21
265.481370875839
 31
0.0
  0
LINE
  5
63A0
330
1A
100
AcDbEntity
  8
150
  6
CONTINUOUS
 62
     7
100
AcDbLine
 10
335.158855996578
 20
265.481370875839
 30
0.0
 11
285.158855996578
 21
265.481370875839
 31
0.0
  0
LWPOLYLINE
  5
63A2
330
1A
100
AcDbEntity
  8
10
  6
HIDDEN2
100
AcDbPolyline
 90
        4
 70
     1
 43
0.0
 10
420.1588859965779
 20
140.4813708758389
 10
414.1588859965779
 20
140.4813708758389
 10
414.1588859965779
 20
159.4813708758389
 10
420.1588859965779
 20
159.4813708758389
  0
LINE
  5
63A3
330
1A
100
AcDbEntity
  8
150
  6
DASHED
100
AcDbLine
 10
420.1588859965779
 20
159.4813708758389
 30
0.0
 11
420.1588859965779
 21
137.5228748758389
 31
0.0
  0
LINE
  5
63A4
330
1A
100
AcDbEntity
  8
150
  6
DASHED
100
AcDbLine
 10
419.6173819965779
 20
159.4813708758389
 30
0.0
 11
419.6173819965779
 21
136.9813708758389
 31
0.0
  0
LINE
  5
63A5
330
1A
100
AcDbEntity
  8
150
  6
DASHED
100
AcDbLine
 10
414.1588859965779
 20
159.4813708758389
 30
0.0
 11
414.1588859965779
 21
137.5228748758389
 31
0.0
  0
LINE
  5
63A6
330
1A
100
AcDbEntity
  8
150
  6
DASHED
100
AcDbLine
 10
414.7003899965779
 20
159.4813708758389
 30
0.0
 11
414.7003899965779
 21
136.9813708758389
 31
0.0
  0
LINE
  5
63A7
330
1A
100
AcDbEntity
  8
225
  6
CENTER
 62
     3
100
AcDbLine
 10
417.1588859965779
 20
171.4813708758389
 30
0.0
 11
417.1588859965779
 21
132.4813708758389
 31
0.0
  0
LINE
  5
63A8
330
1A
100
AcDbEntity
  8
150
  6
DASHED
100
AcDbLine
 10
414.1588859965779
 20
137.5228748758389
 30
0.0
 11
414.7003899965779
 21
136.9813708758389
 31
0.0
  0
LINE
  5
63A9
330
1A
100
AcDbEntity
  8
150
  6
DASHED
100
AcDbLine
 10
420.1588859965779
 20
137.5228748758389
 30
0.0
 11
419.6173819965779
 21
136.9813708758389
 31
0.0
  0
LINE
  5
63AA
330
1A
100
AcDbEntity
  8
150
  6
DASHED
100
AcDbLine
 10
419.6173819965779
 20
136.9813708758389
 30
0.0
 11
414.7003899965779
 21
136.9813708758389
 31
0.0
  0
LINE
  5
63AB
330
1A
100
AcDbEntity
  8
150
  6
DASHED
100
AcDbLine
 10
420.1588859965779
 20
137.5228748758389
 30
0.0
 11
414.1588859965779
 21
137.5228748758389
 31
0.0
  0
ARC
  5
63AC
330
1A
100
AcDbEntity
  8
0
  6
CONTINUOUS
 62
     2
100
AcDbCircle
 10
423.1588859965779
 20
164.4813708758389
 30
0.0
 40
2.0
100
AcDbArc
 50
359.9999970000022
 51
90.0
  0
LINE
  5
63AD
330
1A
100
AcDbEntity
  8
150
  6
HIDDEN2
100
AcDbLine
 10
424.1588859965779
 20
159.4813708758389
 30
0.0
 11
410.1588859965779
 21
159.4813708758389
 31
0.0
  0
LINE
  5
63AE
330
1A
100
AcDbEntity
  8
150
  6
HIDDEN2
100
AcDbLine
 10
423.6588859965779
 20
160.4813708758389
 30
0.0
 11
410.6588859965779
 21
160.4813708758389
 31
0.0
  0
LINE
  5
63AF
330
1A
100
AcDbEntity
  8
150
  6
HIDDEN2
100
AcDbLine
 10
423.6588859965779
 20
159.4813708758389
 30
0.0
 11
423.6588859965779
 21
160.4813708758389
 31
0.0
  0
ARC
  5
63B0
330
1A
100
AcDbEntity
  8
150
  6
HIDDEN2
100
AcDbCircle
 10
424.1588859965779
 20
158.4813708758389
 30
0.0
 40
1.0
100
AcDbArc
 50
359.9999970000022
 51
90.0
  0
LINE
  5
63B1
330
1A
100
AcDbEntity
  8
0
  6
CONTINUOUS
 62
     2
100
AcDbLine
 10
425.1588859965779
 20
145.4813708758389
 30
0.0
 11
425.1588859965779
 21
164.4813708758389
 31
0.0
  0
ARC
  5
63B4
330
1A
100
AcDbEntity
  8
150
  6
HIDDEN2
100
AcDbCircle
 10
409.158885996578
 20
165.4813708758389
 30
0.0
 40
1.0
100
AcDbArc
 50
359.9999970000022
 51
90.0
  0
ARC
  5
63B5
330
1A
100
AcDbEntity
  8
150
  6
HIDDEN2
100
AcDbCircle
 10
413.962249996578
 20
163.651466875839
 30
0.0
 40
1.9
100
AcDbArc
 50
105.3185250000008
 51
175.0000869999978
  0
ARC
  5
63B6
330
1A
100
AcDbEntity
  8
150
  6
HIDDEN2
100
AcDbCircle
 10
420.355498996578
 20
163.6514708758389
 30
0.0
 40
1.9
100
AcDbArc
 50
4.999959999998825
 51
74.68155000000085
  0
ARC
  5
63B7
330
1A
100
AcDbEntity
  8
150
  6
HIDDEN2
100
AcDbCircle
 10
417.1588809965781
 20
151.9813638758389
 30
0.0
 40
14.0
100
AcDbArc
 50
74.68154700000045
 51
105.3185250000008
  0
LINE
  5
63B8
330
1A
100
AcDbEntity
  8
150
  6
HIDDEN2
100
AcDbLine
 10
410.6588859965779
 20
159.4813708758389
 30
0.0
 11
410.6588859965779
 21
160.4813708758389
 31
0.0
  0
LINE
  5
63B9
330
1A
100
AcDbEntity
  8
150
  6
HIDDEN2
100
AcDbLine
 10
411.058879996578
 20
160.4813708758389
 30
0.0
 11
411.058879996578
 21
161.9813708758389
 31
0.0
  0
LINE
  5
63BA
330
1A
100
AcDbEntity
  8
150
  6
HIDDEN2
100
AcDbLine
 10
417.1588859965779
 20
160.4813708758389
 30
0.0
 11
417.9088859965779
 21
161.9813708758389
 31
0.0
  0
LINE
  5
63BB
330
1A
100
AcDbEntity
  8
150
  6
HIDDEN2
100
AcDbLine
 10
416.4088859965779
 20
160.4813708758389
 30
0.0
 11
417.1588859965779
 21
161.9813708758389
 31
0.0
  0
LINE
  5
63BC
330
1A
100
AcDbEntity
  8
150
  6
HIDDEN2
100
AcDbLine
 10
423.258891996578
 20
160.4813708758389
 30
0.0
 11
423.258891996578
 21
161.9813708758389
 31
0.0
  0
LINE
  5
63BD
330
1A
100
AcDbEntity
  8
150
  6
HIDDEN2
100
AcDbLine
 10
423.258891996578
 20
161.9813708758389
 30
0.0
 11
411.058879996578
 21
161.9813708758389
 31
0.0
  0
LINE
  5
63BE
330
1A
100
AcDbEntity
  8
150
  6
HIDDEN2
100
AcDbLine
 10
411.908885996578
 20
161.9813708758389
 30
0.0
 11
412.069469996578
 21
163.8170638758389
 31
0.0
  0
LINE
  5
63BF
330
1A
100
AcDbEntity
  8
150
  6
HIDDEN2
100
AcDbLine
 10
410.1588859965779
 20
165.4813708758389
 30
0.0
 11
410.1588859965779
 21
159.4813708758389
 31
0.0
  0
LINE
  5
63C0
330
1A
100
AcDbEntity
  8
150
  6
HIDDEN2
100
AcDbLine
 10
422.4088859965779
 20
161.9813708758389
 30
0.0
 11
422.248271996578
 21
163.8170638758389
 31
0.0
  0
LINE
  5
63C1
330
1A
100
AcDbEntity
  8
225
  6
CENTER
 62
     3
100
AcDbLine
 10
212.1588259965781
 20
430.5796068758391
 30
0.0
 11
194.1588259965781
 21
430.5796068758391
 31
0.0
  0
ARC
  5
63C2
330
1A
100
AcDbEntity
  8
0
  6
CONTINUOUS
 62
     2
100
AcDbCircle
 10
196.1588259965781
 20
422.5796068758391
 30
0.0
 40
1.0
100
AcDbArc
 50
90.0
 51
180.0000029999976
  0
ARC
  5
63C3
330
1A
100
AcDbEntity
  8
0
  6
CONTINUOUS
 62
     2
100
AcDbCircle
 10
196.1588259965781
 20
438.5796068758391
 30
0.0
 40
1.0
100
AcDbArc
 50
180.0000050000005
 51
270.0000009999949
  0
ARC
  5
63C4
330
1A
100
AcDbEntity
  8
0
  6
CONTINUOUS
 62
     2
100
AcDbCircle
 10
203.1588259965781
 20
430.5796068758391
 30
0.0
 40
7.0
100
AcDbArc
 50
270.0
 51
89.99999099999389
  0
CIRCLE
  5
63C5
330
1A
100
AcDbEntity
  8
150
  6
CENTER
100
AcDbCircle
 10
203.158843996578
 20
430.579621875839
 30
0.0
 40
6.5
  0
CIRCLE
  5
63C6
330
1A
100
AcDbEntity
  8
150
  6
CENTER
100
AcDbCircle
 10
203.158843996578
 20
430.579621875839
 30
0.0
 40
5.25
  0
CIRCLE
  5
63C7
330
1A
100
AcDbEntity
  8
10
100
AcDbCircle
 10
203.158843996578
 20
430.579621875839
 30
0.0
 40
3.0
  0
ARC
  5
63C8
330
1A
100
AcDbEntity
  8
150
  6
CENTER
100
AcDbCircle
 10
205.280163996578
 20
430.579621875839
 30
0.0
 40
0.75
100
AcDbArc
 50
134.9999859999975
 51
224.9999880000004
  0
LINE
  5
63C9
330
1A
100
AcDbEntity
  8
150
  6
CENTER
100
AcDbLine
 10
204.7498289965781
 20
431.1099418758391
 30
0.0
 11
205.916546996578
 21
432.2766588758391
 31
0.0
  0
LINE
  5
63CA
330
1A
100
AcDbEntity
  8
150
  6
CENTER
100
AcDbLine
 10
205.916546996578
 20
432.2766588758391
 30
0.0
 11
204.8558779965781
 21
433.3373278758391
 31
0.0
  0
ARC
  5
63CB
330
1A
100
AcDbEntity
  8
150
  6
CENTER
100
AcDbCircle
 10
203.1588429965781
 20
428.4583018758389
 30
0.0
 40
0.75
100
AcDbArc
 50
44.99998299999877
 51
134.9999859999975
  0
ARC
  5
63CC
330
1A
100
AcDbEntity
  8
150
  6
CENTER
100
AcDbCircle
 10
203.1588449965779
 20
432.700942875839
 30
0.0
 40
0.75
100
AcDbArc
 50
224.9999880000004
 51
314.9999840000026
  0
LINE
  5
63CD
330
1A
100
AcDbEntity
  8
150
  6
CENTER
100
AcDbLine
 10
204.8558779965781
 20
433.3373278758391
 30
0.0
 11
203.6891599965779
 21
432.170610875839
 31
0.0
  0
LINE
  5
63CE
330
1A
100
AcDbEntity
  8
150
  6
CENTER
100
AcDbLine
 10
204.8558779965781
 20
427.8218858758389
 30
0.0
 11
205.916546996578
 21
428.8825548758391
 31
0.0
  0
LINE
  5
63CF
330
1A
100
AcDbEntity
  8
150
  6
CENTER
100
AcDbLine
 10
203.6891599965779
 20
428.9886038758391
 30
0.0
 11
204.8558779965781
 21
427.8218858758389
 31
0.0
  0
LINE
  5
63D0
330
1A
100
AcDbEntity
  8
150
  6
CENTER
100
AcDbLine
 10
205.916546996578
 20
428.8825548758391
 30
0.0
 11
204.7498289965781
 21
430.0492728758391
 31
0.0
  0
LINE
  5
63D1
330
1A
100
AcDbEntity
  8
225
  6
CENTER
 62
     3
100
AcDbLine
 10
203.1588259965781
 20
439.5795768758389
 30
0.0
 11
203.1588259965781
 21
421.579576875839
 31
0.0
  0
ARC
  5
63D2
330
1A
100
AcDbEntity
  8
150
  6
CENTER
100
AcDbCircle
 10
201.0375239965781
 20
430.579622875839
 30
0.0
 40
0.75
100
AcDbArc
 50
314.9999840000026
 51
44.9999929999999
  0
LINE
  5
63D3
330
1A
100
AcDbEntity
  8
150
  6
CENTER
100
AcDbLine
 10
201.4617739965781
 20
433.3373278758391
 30
0.0
 11
200.4011049965779
 21
432.2766588758391
 31
0.0
  0
LINE
  5
63D4
330
1A
100
AcDbEntity
  8
150
  6
CENTER
100
AcDbLine
 10
200.4011049965779
 20
432.2766588758391
 30
0.0
 11
201.5678229965781
 21
431.1099418758391
 31
0.0
  0
LINE
  5
63D5
330
1A
100
AcDbEntity
  8
150
  6
CENTER
100
AcDbLine
 10
200.4011049965779
 20
428.8825548758391
 30
0.0
 11
201.4617739965781
 21
427.8218858758389
 31
0.0
  0
LINE
  5
63D6
330
1A
100
AcDbEntity
  8
150
  6
CENTER
100
AcDbLine
 10
201.5678229965781
 20
430.0492728758391
 30
0.0
 11
200.4011049965779
 21
428.8825548758391
 31
0.0
  0
LINE
  5
63D7
330
1A
100
AcDbEntity
  8
0
  6
CONTINUOUS
 62
     2
100
AcDbLine
 10
203.1588259965781
 20
423.5796068758391
 30
0.0
 11
196.1588259965781
 21
423.5796068758391
 31
0.0
  0
LINE
  5
63D8
330
1A
100
AcDbEntity
  8
0
  6
CONTINUOUS
 62
     2
100
AcDbLine
 10
203.1588259965781
 20
437.5796068758391
 30
0.0
 11
196.1588259965781
 21
437.5796068758391
 31
0.0
  0
LINE
  5
63D9
330
1A
100
AcDbEntity
  8
150
  6
CENTER
100
AcDbLine
 10
202.6284909965779
 20
432.170610875839
 30
0.0
 11
201.4617739965781
 21
433.3373278758391
 31
0.0
  0
LINE
  5
63DA
330
1A
100
AcDbEntity
  8
150
  6
CENTER
100
AcDbLine
 10
201.4617739965781
 20
427.8218858758389
 30
0.0
 11
202.6284909965779
 21
428.9886038758391
 31
0.0
  0
CIRCLE
  5
63DB
330
1A
100
AcDbEntity
  8
150
  6
CENTER
100
AcDbCircle
 10
417.158932996578
 20
385.579546875839
 30
0.0
 40
6.5
  0
LINE
  5
63DC
330
1A
100
AcDbEntity
  8
225
  6
CENTER
 62
     3
100
AcDbLine
 10
426.1589079965782
 20
385.5795418758391
 30
0.0
 11
408.1589079965782
 21
385.5795418758391
 31
0.0
  0
ARC
  5
63DD
330
1A
100
AcDbEntity
  8
0
  6
CONTINUOUS
 62
     2
100
AcDbCircle
 10
417.1589079965782
 20
385.5795118758389
 30
0.0
 40
7.0
100
AcDbArc
 50
90.0
 51
269.9999979999972
  0
CIRCLE
  5
63DE
330
1A
100
AcDbEntity
  8
150
  6
CENTER
100
AcDbCircle
 10
417.158932996578
 20
385.579546875839
 30
0.0
 40
5.25
  0
LINE
  5
63DF
330
1A
100
AcDbEntity
  8
0
  6
CONTINUOUS
 62
     2
100
AcDbLine
 10
417.1589079965782
 20
378.5795418758391
 30
0.0
 11
424.1588459965782
 21
378.5795418758391
 31
0.0
  0
LINE
  5
63E0
330
1A
100
AcDbEntity
  8
0
  6
CONTINUOUS
 62
     2
100
AcDbLine
 10
417.1589079965782
 20
392.5795418758391
 30
0.0
 11
424.1588459965782
 21
392.5795418758391
 31
0.0
  0
LINE
  5
63E1
330
1A
100
AcDbEntity
  8
150
  6
CENTER
100
AcDbLine
 10
418.7499109965783
 20
386.109876875839
 30
0.0
 11
419.9166589965783
 21
387.2766248758391
 31
0.0
  0
LINE
  5
63E2
330
1A
100
AcDbEntity
  8
150
  6
CENTER
100
AcDbLine
 10
419.9165979965782
 20
383.8824898758391
 30
0.0
 11
418.7499109965783
 21
385.049207875839
 31
0.0
  0
LINE
  5
63E3
330
1A
100
AcDbEntity
  8
150
  6
CENTER
100
AcDbLine
 10
418.8559289965781
 20
382.8218208758391
 30
0.0
 11
419.9165979965782
 21
383.8824898758391
 31
0.0
  0
ARC
  5
63E4
330
1A
100
AcDbEntity
  8
150
  6
CENTER
100
AcDbCircle
 10
419.2802529965782
 20
385.5795458758391
 30
0.0
 40
0.75
100
AcDbArc
 50
134.9999859999975
 51
224.9999880000004
  0
LINE
  5
63E5
330
1A
100
AcDbEntity
  8
150
  6
CENTER
100
AcDbLine
 10
419.9166589965783
 20
387.2766248758391
 30
0.0
 11
418.8559899965784
 21
388.3372628758391
 31
0.0
  0
LINE
  5
63E6
330
1A
100
AcDbEntity
  8
150
  6
CENTER
100
AcDbLine
 10
414.4012169965781
 20
387.2765938758391
 30
0.0
 11
415.5679039965783
 21
386.109876875839
 31
0.0
  0
LINE
  5
63E7
330
1A
100
AcDbEntity
  8
225
  6
CENTER
 62
     3
100
AcDbLine
 10
417.1589079965782
 20
394.5795418758391
 30
0.0
 11
417.1589079965782
 21
376.5795418758391
 31
0.0
  0
LINE
  5
63E8
330
1A
100
AcDbEntity
  8
150
  6
CENTER
100
AcDbLine
 10
415.5679039965783
 20
385.049207875839
 30
0.0
 11
414.4011559965782
 21
383.882459875839
 31
0.0
  0
LINE
  5
63E9
330
1A
100
AcDbEntity
  8
150
  6
CENTER
100
AcDbLine
 10
414.4011559965782
 20
383.882459875839
 30
0.0
 11
415.4618249965782
 21
382.8218208758391
 31
0.0
  0
LINE
  5
63EA
330
1A
100
AcDbEntity
  8
150
  6
CENTER
100
AcDbLine
 10
415.4618249965782
 20
382.8218208758391
 30
0.0
 11
416.6285729965783
 21
383.9885388758391
 31
0.0
  0
ARC
  5
63EB
330
1A
100
AcDbEntity
  8
150
  6
CENTER
100
AcDbCircle
 10
415.0376119965782
 20
385.5795478758391
 30
0.0
 40
0.75
100
AcDbArc
 50
314.9999840000026
 51
44.9999929999999
  0
ARC
  5
63EC
330
1A
100
AcDbEntity
  8
150
  6
CENTER
100
AcDbCircle
 10
417.1589319965781
 20
383.458226875839
 30
0.0
 40
0.75
100
AcDbArc
 50
44.99998299999877
 51
134.9999859999975
  0
LINE
  5
63ED
330
1A
100
AcDbEntity
  8
150
  6
CENTER
100
AcDbLine
 10
415.4618859965782
 20
388.3372628758391
 30
0.0
 11
414.4012169965781
 21
387.2765938758391
 31
0.0
  0
LINE
  5
63EE
330
1A
100
AcDbEntity
  8
150
  6
CENTER
100
AcDbLine
 10
416.6285729965783
 20
387.170545875839
 30
0.0
 11
415.4618859965782
 21
388.3372628758391
 31
0.0
  0
ARC
  5
63EF
330
1A
100
AcDbEntity
  8
150
  6
CENTER
100
AcDbCircle
 10
417.1589339965781
 20
387.7008668758392
 30
0.0
 40
0.75
100
AcDbArc
 50
224.9999880000004
 51
314.9999840000026
  0
CIRCLE
  5
63F0
330
1A
100
AcDbEntity
  8
10
100
AcDbCircle
 10
417.1589079965782
 20
385.5795418758391
 30
0.0
 40
3.0
  0
LINE
  5
63F1
330
1A
100
AcDbEntity
  8
150
  6
CENTER
100
AcDbLine
 10
417.6892419965782
 20
383.9885388758391
 30
0.0
 11
418.8559289965781
 21
382.8218208758391
 31
0.0
  0
LINE
  5
63F2
330
1A
100
AcDbEntity
  8
150
  6
CENTER
100
AcDbLine
 10
418.8559899965784
 20
388.3372628758391
 30
0.0
 11
417.6892419965782
 21
387.170545875839
 31
0.0
  0
ARC
  5
63F3
330
1A
100
AcDbEntity
  8
0
  6
CONTINUOUS
 62
     2
100
AcDbCircle
 10
424.1588459965782
 20
377.5795418758391
 30
0.0
 40
1.0
100
AcDbArc
 50
0.0
 51
90.00000299999769
  0
ARC
  5
63F4
330
1A
100
AcDbEntity
  8
0
  6
CONTINUOUS
 62
     2
100
AcDbCircle
 10
424.1588459965782
 20
393.5795418758391
 30
0.0
 40
1.0
100
AcDbArc
 50
270.0
 51
0.000008999999603
  0
LINE
  5
63F5
330
1A
100
AcDbEntity
  8
150
  6
HIDDEN2
 62
     7
100
AcDbLine
 10
295.158855996578
 20
413.3295758758389
 30
0.0
 11
295.158855996578
 21
402.8295758758389
 31
0.0
  0
LWPOLYLINE
  5
6402
330
1A
100
AcDbEntity
  8
230
 62
     6
100
AcDbPolyline
 90
        4
 70
     1
 43
0.0
 10
732.5909279552454
 20
18.9755940912479
 10
822.0739326084615
 20
18.9755940912479
 10
822.0739326084615
 20
36.25691232207827
 10
732.5909279552454
 20
36.25691232207827
  0
TEXT
  5
6403
330
1A
100
AcDbEntity
  8
230
 62
     6
100
AcDbText
 10
745.8285917885098
 20
22.82471409124775
 30
0.0
 40
10.0
  1
XDI2HZ
100
AcDbText
  0
ENDSEC
  0
SECTION
  2
OBJECTS
  0
DICTIONARY
  5
C
330
0
100
AcDbDictionary
  3
ACAD_GROUP
350
D
  3
ACAD_LAYOUT
350
1B83
  3
ACAD_MLINESTYLE
350
E
  3
ACAD_PLOTSETTINGS
350
1B84
  3
ACAD_PLOTSTYLENAME
350
1B81
  3
ACDBHEADERROUNDTRIPXREC
350
64AC
  3
ACDBVARIABLEDICTIONARY
350
E7A
  0
DICTIONARY
  5
1BF7
330
1A
100
AcDbDictionary
280
     1
  3
ACAD_LAYOUTSELFREF
360
64CE
  0
DICTIONARY
  5
1BF5
330
17
100
AcDbDictionary
280
     1
  3
ACAD_LAYOUTSELFREF
360
64CD
  0
DICTIONARY
  5
D
102
{ACAD_REACTORS
330
C
102
}
330
C
100
AcDbDictionary
  0
DICTIONARY
  5
1B83
102
{ACAD_REACTORS
330
C
102
}
330
C
100
AcDbDictionary
  0
DICTIONARY
  5
E
102
{ACAD_REACTORS
330
C
102
}
330
C
100
AcDbDictionary
  3
STANDARD
350
13
  0
DICTIONARY
  5
1B84
102
{ACAD_REACTORS
330
C
102
}
330
C
100
AcDbDictionary
  0
ACDBDICTIONARYWDFLT
  5
1B81
102
{ACAD_REACTORS
330
C
102
}
330
C
100
AcDbDictionary
281
     1
  3
Normal
350
1B82
100
AcDbDictionaryWithDefault
340
1B82
  0
DICTIONARY
  5
64AC
102
{ACAD_REACTORS
330
C
102
}
330
C
100
AcDbDictionary
  3
CEPSNTYPE
350
64B6
  3
DIMSTYLEDATA
350
64BA
  3
FINGERPRINTGUID
350
64B7
  3
HYPERLINKBASE
350
64AF
  3
INSUNITS
350
64B5
  3
LAYOUTDICT
350
64B1
  3
LWETCUNION
350
64B4
  3
PLOTSETDICT
350
64B2
  3
PLOTSTYLNAMDICT
350
64B3
  3
PSVPSCALE
350
64B9
  3
PUCSBASE
350
64BD
  3
PUCSORGBACK
350
64C3
  3
PUCSORGBOTTOM
350
64BF
  3
PUCSORGFRONT
350
64C2
  3
PUCSORGLEFT
350
64C0
  3
PUCSORGRIGHT
350
64C1
  3
PUCSORGTOP
350
64BE
  3
PUCSORTHOREF
350
64BB
  3
PUCSORTHOVIEW
350
64BC
  3
STYLESHEET
350
64B0
  3
TSTACKALIGN
350
64AD
  3
TSTACKSIZE
350
64AE
  3
UCSBASE
350
64C6
  3
UCSORGBACK
350
64CC
  3
UCSORGBOTTOM
350
64C8
  3
UCSORGFRONT
350
64CB
  3
UCSORGLEFT
350
64C9
  3
UCSORGRIGHT
350
64CA
  3
UCSORGTOP
350
64C7
  3
UCSORTHOREF
350
64C4
  3
UCSORTHOVIEW
350
64C5
  3
VERSIONGUID
350
64B8
  0
DICTIONARY
  5
E7A
102
{ACAD_REACTORS
330
C
102
}
330
C
100
AcDbDictionary
  3
SORTENTS
350
E7B
  0
XRECORD
  5
64CE
102
{ACAD_REACTORS
330
1BF7
102
}
330
1BF7
100
AcDbXrecord
340
1A
  0
XRECORD
  5
64CD
102
{ACAD_REACTORS
330
1BF5
102
}
330
1BF5
100
AcDbXrecord
340
17
  0
MLINESTYLE
  5
13
102
{ACAD_REACTORS
330
E
102
}
330
E
100
AcDbMlineStyle
  2
STANDARD
 70
     0
  3

 62
     0
 51
90.0
 52
90.0
 71
     2
 49
0.5
 62
   256
  6
BYLAYER
 49
-0.5
 62
   256
  6
BYLAYER
  0
ACDBPLACEHOLDER
  5
1B82
102
{ACAD_REACTORS
330
1B81
102
}
330
1B81
100
AcDbPlaceHolder
280
     0
  0
XRECORD
  5
64B6
102
{ACAD_REACTORS
330
64AC
102
}
330
64AC
100
AcDbXrecord
 90
        0
  0
XRECORD
  5
64BA
102
{ACAD_REACTORS
330
64AC
102
}
330
64AC
100
AcDbXrecord
1000
DSTYLE
1002
{
1070
   341
340
3A8D
1070
   342
340
3A8D
1002
}
  0
XRECORD
  5
64B7
102
{ACAD_REACTORS
330
64AC
102
}
330
64AC
100
AcDbXrecord
  1
{D592FCE0-8350-11D5-ACAE-009099148E29}
  0
XRECORD
  5
64AF
102
{ACAD_REACTORS
330
64AC
102
}
330
64AC
100
AcDbXrecord
  1

  0
XRECORD
  5
64B5
102
{ACAD_REACTORS
330
64AC
102
}
330
64AC
100
AcDbXrecord
 90
        0
  0
XRECORD
  5
64B1
102
{ACAD_REACTORS
330
64AC
102
}
330
64AC
100
AcDbXrecord
340
1B83
  0
XRECORD
  5
64B4
102
{ACAD_REACTORS
330
64AC
102
}
330
64AC
100
AcDbXrecord
 90
    10781
  0
XRECORD
  5
64B2
102
{ACAD_REACTORS
330
64AC
102
}
330
64AC
100
AcDbXrecord
340
1B84
  0
XRECORD
  5
64B3
102
{ACAD_REACTORS
330
64AC
102
}
330
64AC
100
AcDbXrecord
340
1B81
  0
XRECORD
  5
64B9
102
{ACAD_REACTORS
330
64AC
102
}
330
64AC
100
AcDbXrecord
 40
0.0
  0
XRECORD
  5
64BD
102
{ACAD_REACTORS
330
64AC
102
}
330
64AC
100
AcDbXrecord
340
0
  0
XRECORD
  5
64C3
102
{ACAD_REACTORS
330
64AC
102
}
330
64AC
100
AcDbXrecord
 10
0.0
 20
0.0
 30
0.0
  0
XRECORD
  5
64BF
102
{ACAD_REACTORS
330
64AC
102
}
330
64AC
100
AcDbXrecord
 10
0.0
 20
0.0
 30
0.0
  0
XRECORD
  5
64C2
102
{ACAD_REACTORS
330
64AC
102
}
330
64AC
100
AcDbXrecord
 10
0.0
 20
0.0
 30
0.0
  0
XRECORD
  5
64C0
102
{ACAD_REACTORS
330
64AC
102
}
330
64AC
100
AcDbXrecord
 10
0.0
 20
0.0
 30
0.0
  0
XRECORD
  5
64C1
102
{ACAD_REACTORS
330
64AC
102
}
330
64AC
100
AcDbXrecord
 10
0.0
 20
0.0
 30
0.0
  0
XRECORD
  5
64BE
102
{ACAD_REACTORS
330
64AC
102
}
330
64AC
100
AcDbXrecord
 10
0.0
 20
0.0
 30
0.0
  0
XRECORD
  5
64BB
102
{ACAD_REACTORS
330
64AC
102
}
330
64AC
100
AcDbXrecord
340
0
  0
XRECORD
  5
64BC
102
{ACAD_REACTORS
330
64AC
102
}
330
64AC
100
AcDbXrecord
 70
     0
  0
XRECORD
  5
64B0
102
{ACAD_REACTORS
330
64AC
102
}
330
64AC
100
AcDbXrecord
  1
機械図面設定（みずいろ細線）.ctb
  0
XRECORD
  5
64AD
102
{ACAD_REACTORS
330
64AC
102
}
330
64AC
100
AcDbXrecord
 90
        1
  0
XRECORD
  5
64AE
102
{ACAD_REACTORS
330
64AC
102
}
330
64AC
100
AcDbXrecord
 90
       70
  0
XRECORD
  5
64C6
102
{ACAD_REACTORS
330
64AC
102
}
330
64AC
100
AcDbXrecord
340
0
  0
XRECORD
  5
64CC
102
{ACAD_REACTORS
330
64AC
102
}
330
64AC
100
AcDbXrecord
 10
0.0
 20
0.0
 30
0.0
  0
XRECORD
  5
64C8
102
{ACAD_REACTORS
330
64AC
102
}
330
64AC
100
AcDbXrecord
 10
0.0
 20
0.0
 30
0.0
  0
XRECORD
  5
64CB
102
{ACAD_REACTORS
330
64AC
102
}
330
64AC
100
AcDbXrecord
 10
0.0
 20
0.0
 30
0.0
  0
XRECORD
  5
64C9
102
{ACAD_REACTORS
330
64AC
102
}
330
64AC
100
AcDbXrecord
 10
0.0
 20
0.0
 30
0.0
  0
XRECORD
  5
64CA
102
{ACAD_REACTORS
330
64AC
102
}
330
64AC
100
AcDbXrecord
 10
0.0
 20
0.0
 30
0.0
  0
XRECORD
  5
64C7
102
{ACAD_REACTORS
330
64AC
102
}
330
64AC
100
AcDbXrecord
 10
0.0
 20
0.0
 30
0.0
  0
XRECORD
  5
64C4
102
{ACAD_REACTORS
330
64AC
102
}
330
64AC
100
AcDbXrecord
340
0
  0
XRECORD
  5
64C5
102
{ACAD_REACTORS
330
64AC
102
}
330
64AC
100
AcDbXrecord
 70
     0
  0
XRECORD
  5
64B8
102
{ACAD_REACTORS
330
64AC
102
}
330
64AC
100
AcDbXrecord
  1
{8C882A04-97E0-11D5-A38A-00B0D0356B67}
  0
DICTIONARYVAR
  5
E7B
102
{ACAD_REACTORS
330
E7A
102
}
330
E7A
100
DictionaryVariables
280
     0
  1
96
  0
ENDSEC
  0
EOF
