  0
SECTION
  2
HEADER
  9
$ACADVER
  1
AC1014
  9
$ACADMAINTVER
 70
     9
  9
$DWGCODEPAGE
  3
ANSI_932
  9
$INSBASE
 10
0.0
 20
0.0
 30
0.0
  9
$EXTMIN
 10
105.0484008244286
 20
48.4899481092973
 30
-0.0015258207003583
  9
$EXTMAX
 10
932.5019584122243
 20
574.3600461316153
 30
0.0000000349246037
  9
$LIMMIN
 10
0.0
 20
0.0
  9
$LIMMAX
 10
554.0
 20
395.0
  9
$ORTHOMODE
 70
     1
  9
$REGENMODE
 70
     1
  9
$FILLMODE
 70
     1
  9
$QTEXTMODE
 70
     0
  9
$MIRRTEXT
 70
     0
  9
$DRAGMODE
 70
     2
  9
$LTSCALE
 40
12.0
  9
$OSMODE
 70
    37
  9
$ATTMODE
 70
     1
  9
$TEXTSIZE
 40
3.0
  9
$TRACEWID
 40
0.05
  9
$TEXTSTYLE
  7
KANJI
  9
$CLAYER
  8
170
  9
$CELTYPE
  6
BYLAYER
  9
$CECOLOR
 62
   256
  9
$CELTSCALE
 40
1.0
  9
$DELOBJ
 70
     1
  9
$DISPSILH
 70
     0
  9
$DIMSCALE
 40
1.0
  9
$DIMASZ
 40
2.2
  9
$DIMEXO
 40
0.0625
  9
$DIMDLI
 40
0.38
  9
$DIMRND
 40
0.05
  9
$DIMDLE
 40
0.0
  9
$DIMEXE
 40
2.5
  9
$DIMTP
 40
0.0
  9
$DIMTM
 40
0.0
  9
$DIMTXT
 40
5.0
  9
$DIMCEN
 40
0.09
  9
$DIMTSZ
 40
0.0
  9
$DIMTOL
 70
     0
  9
$DIMLIM
 70
     0
  9
$DIMTIH
 70
     0
  9
$DIMTOH
 70
     0
  9
$DIMSE1
 70
     0
  9
$DIMSE2
 70
     0
  9
$DIMTAD
 70
     1
  9
$DIMZIN
 70
     0
  9
$DIMBLK
  1
OPEN30
  9
$DIMASO
 70
     1
  9
$DIMSHO
 70
     1
  9
$DIMPOST
  1

  9
$DIMAPOST
  1

  9
$DIMALT
 70
     0
  9
$DIMALTD
 70
     2
  9
$DIMALTF
 40
25.4
  9
$DIMLFAC
 40
1.0
  9
$DIMTOFL
 70
     0
  9
$DIMTVP
 40
0.0
  9
$DIMTIX
 70
     0
  9
$DIMSOXD
 70
     0
  9
$DIMSAH
 70
     0
  9
$DIMBLK1
  1

  9
$DIMBLK2
  1

  9
$DIMSTYLE
  2
STANDARD
  9
$DIMCLRD
 70
     4
  9
$DIMCLRE
 70
     4
  9
$DIMCLRT
 70
     4
  9
$DIMTFAC
 40
1.0
  9
$DIMGAP
 40
2.0
  9
$DIMJUST
 70
     0
  9
$DIMSD1
 70
     0
  9
$DIMSD2
 70
     0
  9
$DIMTOLJ
 70
     1
  9
$DIMTZIN
 70
     0
  9
$DIMALTZ
 70
     0
  9
$DIMALTTZ
 70
     0
  9
$DIMFIT
 70
     3
  9
$DIMUPT
 70
     0
  9
$DIMUNIT
 70
     2
  9
$DIMDEC
 70
     0
  9
$DIMTDEC
 70
     0
  9
$DIMALTU
 70
     2
  9
$DIMALTTD
 70
     2
  9
$DIMTXSTY
  7
STANDARD
  9
$DIMAUNIT
 70
     0
  9
$LUNITS
 70
     2
  9
$LUPREC
 70
     4
  9
$SKETCHINC
 40
0.1
  9
$FILLETRAD
 40
0.0
  9
$AUNITS
 70
     0
  9
$AUPREC
 70
     0
  9
$MENU
  1
C:\Tcad\TCAD\tcad-s
  9
$ELEVATION
 40
0.0
  9
$PELEVATION
 40
0.0
  9
$THICKNESS
 40
0.0
  9
$LIMCHECK
 70
     0
  9
$BLIPMODE
 70
     0
  9
$CHAMFERA
 40
0.0
  9
$CHAMFERB
 40
0.0
  9
$CHAMFERC
 40
0.0
  9
$CHAMFERD
 40
0.0
  9
$SKPOLY
 70
     0
  9
$TDCREATE
 40
2450752.336623958
  9
$TDUPDATE
 40
2452145.680575115
  9
$TDINDWG
 40
0.4966471065
  9
$TDUSRTIMER
 40
0.4966471065
  9
$USRTIMER
 70
     1
  9
$ANGBASE
 50
0.0
  9
$ANGDIR
 70
     0
  9
$PDMODE
 70
    35
  9
$PDSIZE
 40
23.99999999999998
  9
$PLINEWID
 40
0.0
  9
$COORDS
 70
     1
  9
$SPLFRAME
 70
     0
  9
$SPLINETYPE
 70
     6
  9
$SPLINESEGS
 70
     8
  9
$ATTDIA
 70
     0
  9
$ATTREQ
 70
     1
  9
$HANDLING
 70
-16383
  9
$HANDSEED
  5
4026
  9
$SURFTAB1
 70
     6
  9
$SURFTAB2
 70
     6
  9
$SURFTYPE
 70
     6
  9
$SURFU
 70
     6
  9
$SURFV
 70
     6
  9
$UCSNAME
  2

  9
$UCSORG
 10
0.0
 20
0.0
 30
0.0
  9
$UCSXDIR
 10
1.0
 20
0.0
 30
0.0
  9
$UCSYDIR
 10
0.0
 20
1.0
 30
0.0
  9
$PUCSNAME
  2

  9
$PUCSORG
 10
0.0
 20
0.0
 30
0.0
  9
$PUCSXDIR
 10
1.0
 20
0.0
 30
0.0
  9
$PUCSYDIR
 10
0.0
 20
1.0
 30
0.0
  9
$USERI1
 70
     0
  9
$USERI2
 70
     0
  9
$USERI3
 70
     0
  9
$USERI4
 70
     0
  9
$USERI5
 70
     0
  9
$USERR1
 40
0.0
  9
$USERR2
 40
0.0
  9
$USERR3
 40
0.0
  9
$USERR4
 40
0.0
  9
$USERR5
 40
0.0
  9
$WORLDVIEW
 70
     1
  9
$SHADEDGE
 70
     3
  9
$SHADEDIF
 70
    70
  9
$TILEMODE
 70
     1
  9
$MAXACTVP
 70
    16
  9
$PINSBASE
 10
0.0
 20
0.0
 30
0.0
  9
$PLIMCHECK
 70
     0
  9
$PEXTMIN
 10
1.000000000000000E+20
 20
1.000000000000000E+20
 30
1.000000000000000E+20
  9
$PEXTMAX
 10
-1.000000000000000E+20
 20
-1.000000000000000E+20
 30
-1.000000000000000E+20
  9
$PLIMMIN
 10
0.0
 20
0.0
  9
$PLIMMAX
 10
12.0
 20
9.0
  9
$UNITMODE
 70
     0
  9
$VISRETAIN
 70
     0
  9
$PLINEGEN
 70
     0
  9
$PSLTSCALE
 70
     1
  9
$TREEDEPTH
 70
  3020
  9
$PICKSTYLE
 70
     1
  9
$CMLSTYLE
  2
STANDARD
  9
$CMLJUST
 70
     0
  9
$CMLSCALE
 40
1.0
  9
$PROXYGRAPHICS
 70
     1
  9
$MEASUREMENT
 70
     0
  0
ENDSEC
  0
SECTION
  2
CLASSES
  0
CLASS
  1
LWPOLYLINE
  2
AcDbPolyline
  3
AutoCAD 2000
 90
        0
280
     0
281
     1
  0
CLASS
  1
DICTIONARYVAR
  2
AcDbDictionaryVar
  3
AutoCAD 2000
 90
        0
280
     0
281
     0
  0
CLASS
  1
HATCH
  2
AcDbHatch
  3
AutoCAD 2000
 90
        0
280
     0
281
     1
  0
CLASS
  1
ACDBDICTIONARYWDFLT
  2
AcDbDictionaryWithDefault
  3
AutoCAD 2000
 90
        0
280
     0
281
     0
  0
CLASS
  1
ACDBPLACEHOLDER
  2
AcDbPlaceHolder
  3
AutoCAD 2000
 90
        0
280
     0
281
     0
  0
CLASS
  1
LAYOUT
  2
AcDbLayout
  3
AutoCAD 2000
 90
        0
280
     0
281
     0
  0
CLASS
  1
LONG_TRANSACTION
  2
AcDbLongTransaction
  3
AutoCAD 2000
 90
        0
280
     0
281
     0
  0
CLASS
  1
LWPOLYLINE
  2
AcDbPolyline
  3
AutoCAD 2000
 90
        0
280
     0
281
     1
  0
CLASS
  1
HATCH
  2
AcDbHatch
  3
AutoCAD 2000
 90
        0
280
     0
281
     1
  0
CLASS
  1
XRECORD
  2
AcDbXrecord
  3
AutoCAD 2000
 90
        0
280
     0
281
     0
  0
CLASS
  1
LONG_TRANSACTION
  2
AcDbLongTransaction
  3
AutoCAD 2000
 90
        0
280
     0
281
     0
  0
CLASS
  1
LWPOLYLINE
  2
AcDbPolyline
  3
AutoCAD 2000
 90
        0
280
     0
281
     1
  0
CLASS
  1
HATCH
  2
AcDbHatch
  3
AutoCAD 2000
 90
        0
280
     0
281
     1
  0
CLASS
  1
XRECORD
  2
AcDbXrecord
  3
AutoCAD 2000
 90
        0
280
     0
281
     0
  0
CLASS
  1
LONG_TRANSACTION
  2
AcDbLongTransaction
  3
AutoCAD 2000
 90
        0
280
     0
281
     0
  0
CLASS
  1
LWPOLYLINE
  2
AcDbPolyline
  3
AutoCAD 2000
 90
        0
280
     0
281
     1
  0
CLASS
  1
HATCH
  2
AcDbHatch
  3
AutoCAD 2000
 90
        0
280
     0
281
     1
  0
CLASS
  1
XRECORD
  2
AcDbXrecord
  3
AutoCAD 2000
 90
        0
280
     0
281
     0
  0
CLASS
  1
LONG_TRANSACTION
  2
AcDbLongTransaction
  3
AutoCAD 2000
 90
        0
280
     0
281
     0
  0
CLASS
  1
LWPOLYLINE
  2
AcDbPolyline
  3
AutoCAD 2000
 90
        0
280
     0
281
     1
  0
CLASS
  1
HATCH
  2
AcDbHatch
  3
AutoCAD 2000
 90
        0
280
     0
281
     1
  0
CLASS
  1
XRECORD
  2
AcDbXrecord
  3
AutoCAD 2000
 90
        0
280
     0
281
     0
  0
CLASS
  1
LONG_TRANSACTION
  2
AcDbLongTransaction
  3
AutoCAD 2000
 90
        0
280
     0
281
     0
  0
CLASS
  1
LWPOLYLINE
  2
AcDbPolyline
  3
AutoCAD 2000
 90
        0
280
     0
281
     1
  0
CLASS
  1
HATCH
  2
AcDbHatch
  3
AutoCAD 2000
 90
        0
280
     0
281
     1
  0
CLASS
  1
XRECORD
  2
AcDbXrecord
  3
AutoCAD 2000
 90
        0
280
     0
281
     0
  0
ENDSEC
  0
SECTION
  2
TABLES
  0
TABLE
  2
VPORT
  5
8
330
0
100
AcDbSymbolTable
 70
     2
  0
VPORT
  5
4002
330
8
100
AcDbSymbolTableRecord
100
AcDbViewportTableRecord
  2
*ACTIVE
 70
     0
 10
0.0
 20
0.0
 11
1.0
 21
1.0
 12
466.2509792061121
 22
287.1800230658075
 13
0.0
 23
0.0
 14
1.0
 24
1.0
 15
0.0
 25
0.0
 16
0.0
 26
0.0
 36
1.0
 17
0.0
 27
0.0
 37
0.0
 40
581.1976657284201
 41
1.862823061630218
 42
50.0
 43
0.0
 44
0.0
 50
0.0
 51
0.0
 71
     0
 72
  1000
 73
     1
 74
     1
 75
     0
 76
     0
 77
     0
 78
     0
  0
ENDTAB
  0
TABLE
  2
LTYPE
  5
5
330
0
100
AcDbSymbolTable
 70
     5
  0
LTYPE
  5
14
330
5
100
AcDbSymbolTableRecord
100
AcDbLinetypeTableRecord
  2
BYBLOCK
 70
     0
  3

 72
    65
 73
     0
 40
0.0
  0
LTYPE
  5
15
330
5
100
AcDbSymbolTableRecord
100
AcDbLinetypeTableRecord
  2
BYLAYER
 70
     0
  3

 72
    65
 73
     0
 40
0.0
  0
LTYPE
  5
16
330
5
100
AcDbSymbolTableRecord
100
AcDbLinetypeTableRecord
  2
CONTINUOUS
 70
     0
  3
Solid line
 72
    65
 73
     0
 40
0.0
  0
LTYPE
  5
37
330
5
100
AcDbSymbolTableRecord
100
AcDbLinetypeTableRecord
  2
CENTER
 70
     0
  3
____ _ ____ _ ____ _ ____ _ ____ _ ____ _ ____ 
 72
    65
 73
     4
 40
2.0
 49
1.25
 74
     0
 49
-0.25
 74
     0
 49
0.25
 74
     0
 49
-0.25
 74
     0
  0
LTYPE
  5
1FC
330
5
100
AcDbSymbolTableRecord
100
AcDbLinetypeTableRecord
  2
HIDDEN2
 70
     0
  3
_ _ _ _ _ _ _ _ _ _ _ _ _ _ _ _ _ _ _ _ _ _ _ _
 72
    65
 73
     2
 40
0.1875
 49
0.125
 74
     0
 49
-0.0625
 74
     0
  0
LTYPE
  5
1FE
330
5
100
AcDbSymbolTableRecord
100
AcDbLinetypeTableRecord
  2
PHANTOM2
 70
     0
  3
___ _ _ ___ _ _ ___ _ _ ___ _ _ ___ _ _ ___ _ _
 72
    65
 73
     6
 40
1.25
 49
0.625
 74
     0
 49
-0.125
 74
     0
 49
0.125
 74
     0
 49
-0.125
 74
     0
 49
0.125
 74
     0
 49
-0.125
 74
     0
  0
LTYPE
  5
3E5
330
5
100
AcDbSymbolTableRecord
100
AcDbLinetypeTableRecord
  2
DASHED
 70
     0
  3
Dashed line
 72
    65
 73
     2
 40
0.75
 49
0.5
 74
     0
 49
-0.25
 74
     0
  0
ENDTAB
  0
TABLE
  2
LAYER
  5
2
330
0
100
AcDbSymbolTable
 70
     9
  0
LAYER
  5
F
330
2
100
AcDbSymbolTableRecord
100
AcDbLayerTableRecord
  2
0
 70
     0
 62
     2
  6
CONTINUOUS
  0
LAYER
  5
40
330
2
100
AcDbSymbolTableRecord
100
AcDbLayerTableRecord
  2
パターン
 70
     0
 62
     8
  6
CONTINUOUS
  0
LAYER
  5
3E7
330
2
100
AcDbSymbolTableRecord
100
AcDbLayerTableRecord
  2
210
 70
     0
 62
     4
  6
CONTINUOUS
  0
LAYER
  5
3E8
330
2
100
AcDbSymbolTableRecord
100
AcDbLayerTableRecord
  2
170
 70
     0
 62
     1
  6
CONTINUOUS
  0
LAYER
  5
3EA
330
2
100
AcDbSymbolTableRecord
100
AcDbLayerTableRecord
  2
150
 70
     0
 62
     7
  6
CONTINUOUS
  0
LAYER
  5
3EC
330
2
100
AcDbSymbolTableRecord
100
AcDbLayerTableRecord
  2
225
 70
     0
 62
     3
  6
CONTINUOUS
  0
LAYER
  5
3ED
330
2
100
AcDbSymbolTableRecord
100
AcDbLayerTableRecord
  2
230
 70
     0
 62
     6
  6
CONTINUOUS
  0
LAYER
  5
3EF
330
2
100
AcDbSymbolTableRecord
100
AcDbLayerTableRecord
  2
10
 70
     0
 62
     7
  6
CONTINUOUS
  0
LAYER
  5
3F0
330
2
100
AcDbSymbolTableRecord
100
AcDbLayerTableRecord
  2
DEFPOINTS
 70
     0
 62
     7
  6
CONTINUOUS
  0
ENDTAB
  0
TABLE
  2
STYLE
  5
3
330
0
100
AcDbSymbolTable
 70
     3
  0
STYLE
  5
10
330
3
100
AcDbSymbolTableRecord
100
AcDbTextStyleTableRecord
  2
STANDARD
 70
     0
 40
0.0
 41
1.0
 50
0.0
 71
     0
 42
30.0
  3
ROMANS
  4
BIGFONT
  0
STYLE
  5
108
330
3
100
AcDbSymbolTableRecord
100
AcDbTextStyleTableRecord
  2
KANJI
 70
     0
 40
0.0
 41
0.8
 50
0.0
 71
     0
 42
3.0
  3
romans
  4
bigfont
  0
STYLE
  5
3F1
330
3
100
AcDbSymbolTableRecord
100
AcDbTextStyleTableRecord
  2
BIGFONT
 70
     0
 40
0.0
 41
1.0
 50
0.0
 71
     0
 42
1.0
  3
txt.shx
  4
BIGFONT
  0
ENDTAB
  0
TABLE
  2
VIEW
  5
6
330
0
100
AcDbSymbolTable
 70
     0
  0
ENDTAB
  0
TABLE
  2
UCS
  5
7
330
0
100
AcDbSymbolTable
 70
     0
  0
ENDTAB
  0
TABLE
  2
APPID
  5
9
330
0
100
AcDbSymbolTable
 70
     1
  0
APPID
  5
11
330
9
100
AcDbSymbolTableRecord
100
AcDbRegAppTableRecord
  2
ACAD
 70
     0
  0
ENDTAB
  0
TABLE
  2
DIMSTYLE
  5
A
330
0
100
AcDbSymbolTable
 70
     1
  0
DIMSTYLE
105
1D
330
A
100
AcDbSymbolTableRecord
100
AcDbDimStyleTableRecord
  2
STANDARD
 70
     0
  3

  4

  5
OPEN30
  6

  7

 40
1.0
 41
2.2
 42
0.0625
 43
0.38
 44
2.5
 45
0.05
 46
0.0
 47
0.0
 48
0.0
140
5.0
141
0.09
142
0.0
143
25.4
144
1.0
145
0.0
146
1.0
147
2.0
 71
     0
 72
     0
 73
     0
 74
     0
 75
     0
 76
     0
 77
     1
 78
     0
170
     0
171
     2
172
     0
173
     0
174
     0
175
     0
176
     4
177
     4
178
     4
270
     2
271
     0
272
     0
273
     2
274
     2
340
10
275
     0
280
     0
281
     0
282
     0
283
     1
284
     0
285
     0
286
     0
287
     3
288
     0
  0
ENDTAB
  0
TABLE
  2
BLOCK_RECORD
  5
1
330
0
100
AcDbSymbolTable
 70
     2
  0
BLOCK_RECORD
  5
1A
102
{ACAD_XDICTIONARY
360
1BF7
102
}
330
1
100
AcDbSymbolTableRecord
100
AcDbBlockTableRecord
  2
*MODEL_SPACE
  0
BLOCK_RECORD
  5
17
102
{ACAD_XDICTIONARY
360
1BF5
102
}
330
1
100
AcDbSymbolTableRecord
100
AcDbBlockTableRecord
  2
*PAPER_SPACE
  0
BLOCK_RECORD
  5
32
330
1
100
AcDbSymbolTableRecord
100
AcDbBlockTableRecord
  2
TCAD
  0
BLOCK_RECORD
  5
3A8D
330
1
100
AcDbSymbolTableRecord
100
AcDbBlockTableRecord
  2
_OPEN30
  0
ENDTAB
  0
ENDSEC
  0
SECTION
  2
BLOCKS
  0
BLOCK
  5
1B
330
1A
100
AcDbEntity
  8
0
100
AcDbBlockBegin
  2
*MODEL_SPACE
 70
     0
 10
0.0
 20
0.0
 30
0.0
  3
*MODEL_SPACE
  1

  0
ENDBLK
  5
1C
330
1A
100
AcDbEntity
  8
0
100
AcDbBlockEnd
  0
BLOCK
  5
18
330
17
100
AcDbEntity
 67
     1
  8
0
100
AcDbBlockBegin
  2
*PAPER_SPACE
 70
     0
 10
0.0
 20
0.0
 30
0.0
  3
*PAPER_SPACE
  1

  0
ENDBLK
  5
19
330
17
100
AcDbEntity
 67
     1
  8
0
100
AcDbBlockEnd
  0
BLOCK
  5
33
330
32
100
AcDbEntity
  8
0
100
AcDbBlockBegin
  2
TCAD
 70
     0
 10
0.0
 20
0.0
 30
0.0
  3
TCAD
  1

  0
ENDBLK
  5
34
330
32
100
AcDbEntity
  8
0
100
AcDbBlockEnd
  0
BLOCK
  5
3A91
330
3A8D
100
AcDbEntity
  8
0
 62
     2
100
AcDbBlockBegin
  2
_OPEN30
 70
     0
 10
0.0
 20
0.0
 30
0.0
  3
_OPEN30
  1

  0
LINE
  5
3A8E
330
3A8D
100
AcDbEntity
  8
0
  6
BYBLOCK
 62
     0
100
AcDbLine
 10
-1.0
 20
0.26794919
 30
0.0
 11
0.0
 21
0.0
 31
0.0
  0
LINE
  5
3A8F
330
3A8D
100
AcDbEntity
  8
0
  6
BYBLOCK
 62
     0
100
AcDbLine
 10
0.0
 20
0.0
 30
0.0
 11
-1.0
 21
-0.26794919
 31
0.0
  0
LINE
  5
3A90
330
3A8D
100
AcDbEntity
  8
0
  6
BYBLOCK
 62
     0
100
AcDbLine
 10
0.0
 20
0.0
 30
0.0
 11
-1.0
 21
0.0
 31
0.0
  0
ENDBLK
  5
3A92
330
3A8D
100
AcDbEntity
  8
0
 62
     2
100
AcDbBlockEnd
  0
ENDSEC
  0
SECTION
  2
ENTITIES
  0
INSERT
  5
109
330
1A
100
AcDbEntity
  8
パターン
100
AcDbBlockReference
  2
TCAD
 10
0.0
 20
0.0
 30
0.0
  0
INSERT
  5
10A
330
1A
100
AcDbEntity
  8
パターン
100
AcDbBlockReference
  2
TCAD
 10
0.0
 20
0.0
 30
0.0
  0
LINE
  5
2906
330
1A
100
AcDbEntity
  8
210
  6
CONTINUOUS
 62
     4
100
AcDbLine
 10
363.6188413140378
 20
497.5598972517088
 30
0.0
 11
457.1373653140376
 21
497.5598972517088
 31
0.0
  0
LINE
  5
2907
330
1A
100
AcDbEntity
  8
210
  6
CONTINUOUS
 62
     4
100
AcDbLine
 10
363.6188413140378
 20
392.5598672517087
 30
0.0
 11
457.1373653140376
 21
392.5598672517087
 31
0.0
  0
LINE
  5
2908
330
1A
100
AcDbEntity
  8
210
  6
CONTINUOUS
 62
     4
100
AcDbLine
 10
400.3060353140377
 20
445.0598672517087
 30
0.0
 11
437.1813713140377
 21
445.0598672517087
 31
0.0
  0
LINE
  5
2909
330
1A
100
AcDbEntity
  8
210
  6
CONTINUOUS
 62
     4
100
AcDbLine
 10
362.8060353140377
 20
410.0598672517087
 30
0.0
 11
437.1813713140377
 21
410.0598672517087
 31
0.0
  0
LINE
  5
290A
330
1A
100
AcDbEntity
  8
210
  6
CONTINUOUS
 62
     4
100
AcDbLine
 10
362.8060353140377
 20
480.0598672517087
 30
0.0
 11
437.1813713140377
 21
480.0598672517087
 31
0.0
  0
LINE
  5
290B
330
1A
100
AcDbEntity
  8
210
  6
CONTINUOUS
 62
     4
100
AcDbLine
 10
400.3060353140377
 20
445.0598672517087
 30
0.0
 11
437.1813713140377
 21
445.0598672517087
 31
0.0
  0
LINE
  5
290C
330
1A
100
AcDbEntity
  8
210
  6
CONTINUOUS
 62
     4
100
AcDbLine
 10
352.1188413140378
 20
146.1162102517088
 30
0.0
 11
457.1813713140377
 21
146.1162102517088
 31
0.0
  0
LINE
  5
290D
330
1A
100
AcDbEntity
  8
210
  6
CONTINUOUS
 62
     4
100
AcDbLine
 10
414.1188713140377
 20
173.6162022517088
 30
0.0
 11
457.1813713140377
 21
173.6162022517088
 31
0.0
  0
LINE
  5
290E
330
1A
100
AcDbEntity
  8
210
  6
CONTINUOUS
 62
     4
100
AcDbLine
 10
414.1188713140377
 20
173.6162022517088
 30
0.0
 11
457.1813713140377
 21
173.6162022517088
 31
0.0
  0
LINE
  5
290F
330
1A
100
AcDbEntity
  8
210
  6
CONTINUOUS
 62
     4
100
AcDbLine
 10
363.6188413140378
 20
235.6162022517087
 30
0.0
 11
457.1813713140377
 21
235.6162022517087
 31
0.0
  0
LINE
  5
2911
330
1A
100
AcDbEntity
  8
230
  6
CONTINUOUS
 62
     6
100
AcDbLine
 10
418.6188415166323
 20
285.2863681327489
 30
0.0
 11
444.2401569771732
 21
329.6637882671557
 31
0.0
  0
LINE
  5
2912
330
1A
100
AcDbEntity
  8
210
  6
CONTINUOUS
 62
     4
100
AcDbLine
 10
414.1188713140377
 20
173.6162022517088
 30
0.0
 11
477.1373653140376
 21
173.6162022517088
 31
0.0
  0
LINE
  5
2916
330
1A
100
AcDbEntity
  8
210
  6
CONTINUOUS
 62
     4
100
AcDbLine
 10
372.1187803140376
 20
123.6162102517087
 30
0.0
 11
477.1813713140377
 21
123.6162102517087
 31
0.0
  0
LINE
  5
2917
330
1A
100
AcDbEntity
  8
210
  6
CONTINUOUS
 62
     4
100
AcDbLine
 10
414.1188713140377
 20
173.6162022517088
 30
0.0
 11
477.1813713140377
 21
173.6162022517088
 31
0.0
  0
LINE
  5
2918
330
1A
100
AcDbEntity
  8
210
  6
CONTINUOUS
 62
     4
100
AcDbLine
 10
414.1188713140377
 20
173.6162022517088
 30
0.0
 11
477.1813713140377
 21
173.6162022517088
 31
0.0
  0
LINE
  5
2919
330
1A
100
AcDbEntity
  8
210
  6
CONTINUOUS
 62
     4
100
AcDbLine
 10
424.6188413140377
 20
298.6162022517087
 30
0.0
 11
477.1813713140377
 21
298.6162022517087
 31
0.0
  0
LINE
  5
291F
330
1A
100
AcDbEntity
  8
230
 62
     6
100
AcDbLine
 10
359.3061273140376
 20
249.7162232517088
 30
0.0
 11
418.2699357391197
 21
351.844535251709
 31
0.0
  0
LINE
  5
2927
330
1A
100
AcDbEntity
  8
150
  6
HIDDEN2
100
AcDbLine
 10
167.6188333140378
 20
188.6162062517087
 30
0.0
 11
180.6188333140378
 21
188.6162062517087
 31
0.0
  0
LINE
  5
2929
330
1A
100
AcDbEntity
  8
150
  6
HIDDEN2
100
AcDbLine
 10
168.0188273140377
 20
190.1162062517087
 30
0.0
 11
180.2188393140377
 21
190.1162062517087
 31
0.0
  0
LINE
  5
292A
330
1A
100
AcDbEntity
  8
150
  6
HIDDEN2
 62
     7
100
AcDbLine
 10
167.1188333140378
 20
187.6162062517087
 30
0.0
 11
181.1188333140378
 21
187.6162062517087
 31
0.0
  0
LINE
  5
292B
330
1A
100
AcDbEntity
  8
0
  6
CONTINUOUS
 62
     2
100
AcDbLine
 10
168.1188333140378
 20
194.6162062517087
 30
0.0
 11
394.1188333140377
 21
194.6162062517087
 31
0.0
  0
LINE
  5
2930
330
1A
100
AcDbEntity
  8
0
  6
CONTINUOUS
 62
     2
100
AcDbLine
 10
166.1188333140378
 20
173.6162062517087
 30
0.0
 11
396.1188333140377
 21
173.6162062517087
 31
0.0
  0
LINE
  5
294C
330
1A
100
AcDbEntity
  8
0
  6
CONTINUOUS
 62
     2
100
AcDbLine
 10
166.1188333140378
 20
192.6162062517087
 30
0.0
 11
166.1188333140378
 21
173.6162062517087
 31
0.0
  0
LINE
  5
294F
330
1A
100
AcDbEntity
  8
150
  6
HIDDEN2
100
AcDbLine
 10
168.0188273140377
 20
188.6162062517087
 30
0.0
 11
168.0188273140377
 21
190.1162062517087
 31
0.0
  0
ARC
  5
2950
330
1A
100
AcDbEntity
  8
150
  6
HIDDEN2
 62
     7
100
AcDbCircle
 10
167.1188333140378
 20
186.6162062517087
 30
0.0
 40
1.0
100
AcDbArc
 50
90.0
 51
180.0000029999976
  0
LINE
  5
2951
330
1A
100
AcDbEntity
  8
150
  6
HIDDEN2
100
AcDbLine
 10
167.6188333140378
 20
187.6162062517087
 30
0.0
 11
167.6188333140378
 21
188.6162062517087
 31
0.0
  0
ARC
  5
2952
330
1A
100
AcDbEntity
  8
0
  6
CONTINUOUS
 62
     2
100
AcDbCircle
 10
168.1188333140378
 20
192.6162062517087
 30
0.0
 40
2.0
100
AcDbArc
 50
90.0
 51
180.0000029999976
  0
LINE
  5
2960
330
1A
100
AcDbEntity
  8
0
  6
CONTINUOUS
 62
     2
100
AcDbLine
 10
212.6188333140378
 20
173.6162062517087
 30
0.0
 11
212.6188333140378
 21
148.6162062517087
 31
0.0
  0
LINE
  5
2961
330
1A
100
AcDbEntity
  8
0
  6
CONTINUOUS
 62
     2
100
AcDbLine
 10
209.6188333140378
 20
148.6162062517087
 30
0.0
 11
209.6188333140378
 21
173.6162062517087
 31
0.0
  0
LINE
  5
2962
330
1A
100
AcDbEntity
  8
0
  6
CONTINUOUS
 62
     2
100
AcDbLine
 10
352.6188333140377
 20
173.6162062517087
 30
0.0
 11
352.6188333140377
 21
148.6162062517087
 31
0.0
  0
LINE
  5
2963
330
1A
100
AcDbEntity
  8
0
  6
CONTINUOUS
 62
     2
100
AcDbLine
 10
349.6188333140377
 20
148.6162062517087
 30
0.0
 11
349.6188333140377
 21
173.6162062517087
 31
0.0
  0
LINE
  5
2964
330
1A
100
AcDbEntity
  8
0
  6
CONTINUOUS
 62
     2
100
AcDbLine
 10
282.6188333140378
 20
173.6162062517087
 30
0.0
 11
282.6188333140378
 21
148.6162062517087
 31
0.0
  0
LINE
  5
2965
330
1A
100
AcDbEntity
  8
0
  6
CONTINUOUS
 62
     2
100
AcDbLine
 10
279.6188333140378
 20
148.6162062517087
 30
0.0
 11
279.6188333140378
 21
173.6162062517087
 31
0.0
  0
LINE
  5
2967
330
1A
100
AcDbEntity
  8
0
  6
CONTINUOUS
 62
     2
100
AcDbLine
 10
372.1188333140377
 20
124.6162062517087
 30
0.0
 11
372.1188333140377
 21
173.6162062517087
 31
0.0
  0
LINE
  5
2968
330
1A
100
AcDbEntity
  8
0
  6
CONTINUOUS
 62
     2
100
AcDbLine
 10
190.1188333140378
 20
124.6162062517087
 30
0.0
 11
190.1188333140378
 21
173.6162062517087
 31
0.0
  0
LINE
  5
2969
330
1A
100
AcDbEntity
  8
225
  6
CENTER
 62
     3
100
AcDbLine
 10
281.1188333140378
 20
318.6162062517088
 30
0.0
 11
281.1188333140378
 21
72.1162212517088
 31
0.0
  0
LINE
  5
296A
330
1A
100
AcDbEntity
  8
225
  6
CENTER
 62
     3
100
AcDbLine
 10
211.1188023140377
 20
159.1162062517087
 30
0.0
 11
211.1188023140377
 21
72.1162212517088
 31
0.0
  0
LINE
  5
296B
330
1A
100
AcDbEntity
  8
225
  6
CENTER
 62
     3
100
AcDbLine
 10
351.1188333140377
 20
159.1162062517087
 30
0.0
 11
351.1188333140377
 21
72.1162212517088
 31
0.0
  0
LINE
  5
296D
330
1A
100
AcDbEntity
  8
210
  6
CONTINUOUS
 62
     4
100
AcDbLine
 10
281.1188413140378
 20
76.11621725170881
 30
0.0
 11
351.1188413140378
 21
76.11621725170881
 31
0.0
  0
LINE
  5
296E
330
1A
100
AcDbEntity
  8
210
  6
CONTINUOUS
 62
     4
100
AcDbLine
 10
190.1188413140378
 20
56.11621525170881
 30
0.0
 11
372.1188413140378
 21
56.11621525170881
 31
0.0
  0
TEXT
  5
296F
330
1A
100
AcDbEntity
  8
230
  6
CONTINUOUS
 62
     6
100
AcDbText
 10
288.7327323140377
 20
92.94631825170871
 30
0.0
 40
5.0
  1
適応ブスバー厚さ
100
AcDbText
  0
TEXT
  5
2970
330
1A
100
AcDbEntity
  8
230
  6
CONTINUOUS
 62
     6
100
AcDbText
 10
291.76937655395
 20
67.89914625170877
 30
0.0
 40
5.0
  1
ブスバーピッチ
100
AcDbText
  0
LINE
  5
2971
330
1A
100
AcDbEntity
  8
0
  6
CONTINUOUS
 62
     2
100
AcDbLine
 10
289.1188023140378
 20
123.6162062517087
 30
0.0
 11
301.1187723140376
 21
123.6162062517087
 31
0.0
  0
LINE
  5
2972
330
1A
100
AcDbEntity
  8
0
  6
CONTINUOUS
 62
     2
100
AcDbLine
 10
190.1188333140378
 20
148.6162062517087
 30
0.0
 11
330.1188333140378
 21
148.6162062517087
 31
0.0
  0
LINE
  5
2974
330
1A
100
AcDbEntity
  8
210
  6
CONTINUOUS
 62
     4
100
AcDbLine
 10
190.1188413140378
 20
123.6162102517087
 30
0.0
 11
190.1188413140378
 21
52.05371525170881
 31
0.0
  0
LINE
  5
2976
330
1A
100
AcDbEntity
  8
210
  6
CONTINUOUS
 62
     4
100
AcDbLine
 10
190.1188413140378
 20
56.11621525170881
 30
0.0
 11
192.0908673140377
 21
55.78288225170877
 31
0.0
  0
LINE
  5
2977
330
1A
100
AcDbEntity
  8
210
  6
CONTINUOUS
 62
     4
100
AcDbLine
 10
190.1188413140378
 20
56.11621525170881
 30
0.0
 11
192.0908673140377
 21
56.44954925170873
 31
0.0
  0
LINE
  5
2979
330
1A
100
AcDbEntity
  8
210
  6
CONTINUOUS
 62
     4
100
AcDbLine
 10
211.1188103140377
 20
76.11621725170881
 30
0.0
 11
281.1188413140378
 21
76.11621725170881
 31
0.0
  0
TEXT
  5
297A
330
1A
100
AcDbEntity
  8
230
  6
CONTINUOUS
 62
     6
100
AcDbText
 10
221.7693765539499
 20
67.89914625170877
 30
0.0
 40
5.0
  1
ブスバーピッチ
100
AcDbText
  0
LINE
  5
297B
330
1A
100
AcDbEntity
  8
170
  6
PHANTOM2
100
AcDbLine
 10
216.1188023140378
 20
141.1162062517087
 30
0.0
 11
216.1188023140378
 21
96.1162212517088
 31
0.0
  0
LINE
  5
297C
330
1A
100
AcDbEntity
  8
170
  6
PHANTOM2
100
AcDbLine
 10
206.1188023140378
 20
141.1162062517087
 30
0.0
 11
206.1188023140378
 21
96.1162212517088
 31
0.0
  0
LINE
  5
297D
330
1A
100
AcDbEntity
  8
210
  6
CONTINUOUS
 62
     4
100
AcDbLine
 10
211.1188103140377
 20
76.11621725170881
 30
0.0
 11
213.0908373140377
 21
75.78288425170876
 31
0.0
  0
LINE
  5
297E
330
1A
100
AcDbEntity
  8
210
  6
CONTINUOUS
 62
     4
100
AcDbLine
 10
211.1188103140377
 20
76.11621725170881
 30
0.0
 11
213.0908373140377
 21
76.44955125170873
 31
0.0
  0
LINE
  5
297F
330
1A
100
AcDbEntity
  8
0
  6
CONTINUOUS
 62
     2
100
AcDbLine
 10
191.1188333140378
 20
123.6162062517087
 30
0.0
 11
203.1188023140377
 21
123.6162062517087
 31
0.0
  0
ARC
  5
2980
330
1A
100
AcDbEntity
  8
0
  6
CONTINUOUS
 62
     2
100
AcDbCircle
 10
191.1188333140378
 20
124.6162062517087
 30
0.0
 40
1.0
100
AcDbArc
 50
180.0000050000005
 51
270.0000009999997
  0
LINE
  5
2981
330
1A
100
AcDbEntity
  8
0
  6
CONTINUOUS
 62
     2
100
AcDbLine
 10
232.1187723140376
 20
124.6162062517087
 30
0.0
 11
232.1187723140376
 21
148.6162062517087
 31
0.0
  0
LINE
  5
2982
330
1A
100
AcDbEntity
  8
0
  6
CONTINUOUS
 62
     2
100
AcDbLine
 10
217.3688023140377
 20
126.6162062517087
 30
0.0
 11
216.9152813140376
 21
145.6638132517088
 31
0.0
  0
LINE
  5
2983
330
1A
100
AcDbEntity
  8
0
  6
CONTINUOUS
 62
     2
100
AcDbLine
 10
204.8688023140377
 20
126.6162062517087
 30
0.0
 11
205.3223243140378
 21
145.6638132517088
 31
0.0
  0
LINE
  5
2984
330
1A
100
AcDbEntity
  8
0
  6
CONTINUOUS
 62
     2
100
AcDbLine
 10
219.1188023140377
 20
123.6162062517087
 30
0.0
 11
217.3688023140377
 21
126.6162062517087
 31
0.0
  0
LINE
  5
2985
330
1A
100
AcDbEntity
  8
0
  6
CONTINUOUS
 62
     2
100
AcDbLine
 10
203.1188023140377
 20
123.6162062517087
 30
0.0
 11
204.8688023140377
 21
126.6162062517087
 31
0.0
  0
LINE
  5
2986
330
1A
100
AcDbEntity
  8
0
  6
CONTINUOUS
 62
     2
100
AcDbLine
 10
231.1187723140376
 20
123.6162062517087
 30
0.0
 11
219.1188023140377
 21
123.6162062517087
 31
0.0
  0
ARC
  5
2987
330
1A
100
AcDbEntity
  8
0
  6
CONTINUOUS
 62
     2
100
AcDbCircle
 10
231.1187723140376
 20
124.6162062517087
 30
0.0
 40
1.0
100
AcDbArc
 50
270.0
 51
359.9999960000009
  0
ARC
  5
2988
330
1A
100
AcDbEntity
  8
170
  6
PHANTOM2
100
AcDbCircle
 10
211.1188023140377
 20
141.1162062517087
 30
0.0
 40
5.0
100
AcDbArc
 50
0.0
 51
180.0000050000005
  0
LINE
  5
2989
330
1A
100
AcDbEntity
  8
0
  6
CONTINUOUS
 62
     2
100
AcDbLine
 10
207.3217443140376
 20
147.6162062517087
 30
0.0
 11
214.9158613140377
 21
147.6162062517087
 31
0.0
  0
ARC
  5
298A
330
1A
100
AcDbEntity
  8
0
  6
CONTINUOUS
 62
     2
100
AcDbCircle
 10
207.3217443140376
 20
145.6162062517087
 30
0.0
 40
2.0
100
AcDbArc
 50
90.0
 51
178.6360679999999
  0
ARC
  5
298B
330
1A
100
AcDbEntity
  8
0
  6
CONTINUOUS
 62
     2
100
AcDbCircle
 10
214.9158613140377
 20
145.6162062517087
 30
0.0
 40
2.0
100
AcDbArc
 50
1.363949000000847
 51
90.00000300000095
  0
TEXT
  5
298C
330
1A
100
AcDbEntity
  8
210
  6
CONTINUOUS
 62
     4
100
AcDbText
 10
289.7113093140376
 20
103.4281112517087
 30
0.0
 40
5.0
  1
10
100
AcDbText
  0
LINE
  5
298D
330
1A
100
AcDbEntity
  8
170
  6
PHANTOM2
100
AcDbLine
 10
286.1188333140378
 20
141.1162062517087
 30
0.0
 11
286.1188333140378
 21
96.1162212517088
 31
0.0
  0
LINE
  5
298E
330
1A
100
AcDbEntity
  8
170
  6
PHANTOM2
100
AcDbLine
 10
276.1188333140378
 20
141.1162062517087
 30
0.0
 11
276.1188333140378
 21
96.1162212517088
 31
0.0
  0
TEXT
  5
298F
330
1A
100
AcDbEntity
  8
210
  6
CONTINUOUS
 62
     4
100
AcDbText
 10
241.6604923140378
 20
79.24121725170881
 30
0.0
 40
5.0
  1
70
100
AcDbText
  0
TEXT
  5
2990
330
1A
100
AcDbEntity
  8
210
  6
CONTINUOUS
 62
     4
100
AcDbText
 10
275.4105073140376
 20
59.24121525170881
 30
0.0
 40
5.0
  1
182
100
AcDbText
  0
LINE
  5
2991
330
1A
100
AcDbEntity
  8
210
  6
CONTINUOUS
 62
     4
100
AcDbLine
 10
281.1188413140378
 20
76.11621725170881
 30
0.0
 11
279.1468143140377
 21
75.78288425170876
 31
0.0
  0
LINE
  5
2992
330
1A
100
AcDbEntity
  8
210
  6
CONTINUOUS
 62
     4
100
AcDbLine
 10
281.1188413140378
 20
76.11621725170881
 30
0.0
 11
279.1468143140377
 21
76.44955125170873
 31
0.0
  0
LINE
  5
2993
330
1A
100
AcDbEntity
  8
210
  6
CONTINUOUS
 62
     4
100
AcDbLine
 10
281.1188413140378
 20
76.11621725170881
 30
0.0
 11
283.0908673140377
 21
75.78288425170876
 31
0.0
  0
LINE
  5
2994
330
1A
100
AcDbEntity
  8
210
  6
CONTINUOUS
 62
     4
100
AcDbLine
 10
281.1188413140378
 20
76.11621725170881
 30
0.0
 11
283.0908673140377
 21
76.44955125170873
 31
0.0
  0
LINE
  5
2995
330
1A
100
AcDbEntity
  8
210
  6
CONTINUOUS
 62
     4
100
AcDbLine
 10
276.1188413140378
 20
100.3031112517087
 30
0.0
 11
286.1188413140378
 21
100.3031112517087
 31
0.0
  0
LINE
  5
2996
330
1A
100
AcDbEntity
  8
210
  6
CONTINUOUS
 62
     4
100
AcDbLine
 10
276.1188413140378
 20
100.3031112517087
 30
0.0
 11
274.1468143140378
 21
99.96977725170872
 31
0.0
  0
LINE
  5
2997
330
1A
100
AcDbEntity
  8
210
  6
CONTINUOUS
 62
     4
100
AcDbLine
 10
276.1188413140378
 20
100.3031112517087
 30
0.0
 11
274.1468143140378
 21
100.6364442517087
 31
0.0
  0
LINE
  5
2998
330
1A
100
AcDbEntity
  8
210
  6
CONTINUOUS
 62
     4
100
AcDbLine
 10
276.1188413140378
 20
100.3031112517087
 30
0.0
 11
270.7868403140378
 21
100.3031112517087
 31
0.0
  0
LINE
  5
2999
330
1A
100
AcDbEntity
  8
210
  6
CONTINUOUS
 62
     4
100
AcDbLine
 10
286.1188413140378
 20
100.3031112517087
 30
0.0
 11
299.0029653140377
 21
100.3031112517087
 31
0.0
  0
LINE
  5
299A
330
1A
100
AcDbEntity
  8
210
  6
CONTINUOUS
 62
     4
100
AcDbLine
 10
286.1188413140378
 20
100.3031112517087
 30
0.0
 11
288.0908673140377
 21
99.96977725170872
 31
0.0
  0
LINE
  5
299B
330
1A
100
AcDbEntity
  8
210
  6
CONTINUOUS
 62
     4
100
AcDbLine
 10
286.1188413140378
 20
100.3031112517087
 30
0.0
 11
288.0908673140377
 21
100.6364442517087
 31
0.0
  0
LINE
  5
299C
330
1A
100
AcDbEntity
  8
0
  6
CONTINUOUS
 62
     2
100
AcDbLine
 10
261.1188333140378
 20
123.6162062517087
 30
0.0
 11
273.1188023140378
 21
123.6162062517087
 31
0.0
  0
LINE
  5
299D
330
1A
100
AcDbEntity
  8
0
  6
CONTINUOUS
 62
     2
100
AcDbLine
 10
260.1188333140378
 20
124.6162062517087
 30
0.0
 11
260.1188333140378
 21
148.6162062517087
 31
0.0
  0
ARC
  5
299E
330
1A
100
AcDbEntity
  8
0
  6
CONTINUOUS
 62
     2
100
AcDbCircle
 10
261.1188333140378
 20
124.6162062517087
 30
0.0
 40
1.0
100
AcDbArc
 50
180.0000050000005
 51
270.0000009999997
  0
LINE
  5
299F
330
1A
100
AcDbEntity
  8
0
  6
CONTINUOUS
 62
     2
100
AcDbLine
 10
287.3688023140378
 20
126.6162062517087
 30
0.0
 11
286.9152813140376
 21
145.6638132517088
 31
0.0
  0
LINE
  5
29A0
330
1A
100
AcDbEntity
  8
0
  6
CONTINUOUS
 62
     2
100
AcDbLine
 10
274.8688023140378
 20
126.6162062517087
 30
0.0
 11
275.3223243140378
 21
145.6638132517088
 31
0.0
  0
LINE
  5
29A1
330
1A
100
AcDbEntity
  8
0
  6
CONTINUOUS
 62
     2
100
AcDbLine
 10
273.1188023140378
 20
123.6162062517087
 30
0.0
 11
274.8688023140378
 21
126.6162062517087
 31
0.0
  0
LINE
  5
29A2
330
1A
100
AcDbEntity
  8
0
  6
CONTINUOUS
 62
     2
100
AcDbLine
 10
289.1188023140378
 20
123.6162062517087
 30
0.0
 11
287.3688023140378
 21
126.6162062517087
 31
0.0
  0
LINE
  5
29A3
330
1A
100
AcDbEntity
  8
0
  6
CONTINUOUS
 62
     2
100
AcDbLine
 10
277.3217443140377
 20
147.6162062517087
 30
0.0
 11
284.9158613140378
 21
147.6162062517087
 31
0.0
  0
ARC
  5
29A4
330
1A
100
AcDbEntity
  8
170
  6
PHANTOM2
100
AcDbCircle
 10
281.1188333140378
 20
141.1162062517087
 30
0.0
 40
5.0
100
AcDbArc
 50
0.0
 51
180.0000050000005
  0
ARC
  5
29A5
330
1A
100
AcDbEntity
  8
0
  6
CONTINUOUS
 62
     2
100
AcDbCircle
 10
277.3217443140377
 20
145.6162062517087
 30
0.0
 40
2.0
100
AcDbArc
 50
90.0
 51
178.6360679999999
  0
ARC
  5
29A6
330
1A
100
AcDbEntity
  8
0
  6
CONTINUOUS
 62
     2
100
AcDbCircle
 10
284.9158613140378
 20
145.6162062517087
 30
0.0
 40
2.0
100
AcDbArc
 50
1.363949000000847
 51
90.00000300000095
  0
LINE
  5
29A7
330
1A
100
AcDbEntity
  8
210
  6
CONTINUOUS
 62
     4
100
AcDbLine
 10
372.1188413140378
 20
123.6162102517087
 30
0.0
 11
372.1188413140378
 21
52.05371525170881
 31
0.0
  0
LINE
  5
29A8
330
1A
100
AcDbEntity
  8
210
  6
CONTINUOUS
 62
     4
100
AcDbLine
 10
372.1188413140378
 20
56.11621525170881
 30
0.0
 11
370.1468143140376
 21
55.78288225170877
 31
0.0
  0
LINE
  5
29A9
330
1A
100
AcDbEntity
  8
210
  6
CONTINUOUS
 62
     4
100
AcDbLine
 10
372.1188413140378
 20
56.11621525170881
 30
0.0
 11
370.1468143140376
 21
56.44954925170873
 31
0.0
  0
LINE
  5
29AA
330
1A
100
AcDbEntity
  8
0
  6
CONTINUOUS
 62
     2
100
AcDbLine
 10
359.1188023140376
 20
123.6162062517087
 30
0.0
 11
371.1187723140376
 21
123.6162062517087
 31
0.0
  0
LINE
  5
29AB
330
1A
100
AcDbEntity
  8
170
  6
PHANTOM2
100
AcDbLine
 10
356.1188333140377
 20
141.1162062517087
 30
0.0
 11
356.1188333140377
 21
96.1162212517088
 31
0.0
  0
LINE
  5
29AC
330
1A
100
AcDbEntity
  8
170
  6
PHANTOM2
100
AcDbLine
 10
346.1188333140377
 20
141.1162062517087
 30
0.0
 11
346.1188333140377
 21
96.1162212517088
 31
0.0
  0
TEXT
  5
29AD
330
1A
100
AcDbEntity
  8
210
  6
CONTINUOUS
 62
     4
100
AcDbText
 10
311.6605073140376
 20
79.24121725170881
 30
0.0
 40
5.0
  1
70
100
AcDbText
  0
LINE
  5
29AE
330
1A
100
AcDbEntity
  8
210
  6
CONTINUOUS
 62
     4
100
AcDbLine
 10
351.1188413140378
 20
76.11621725170881
 30
0.0
 11
349.1468143140376
 21
75.78288425170876
 31
0.0
  0
LINE
  5
29AF
330
1A
100
AcDbEntity
  8
210
  6
CONTINUOUS
 62
     4
100
AcDbLine
 10
351.1188413140378
 20
76.11621725170881
 30
0.0
 11
349.1468143140376
 21
76.44955125170873
 31
0.0
  0
LINE
  5
29B0
330
1A
100
AcDbEntity
  8
0
  6
CONTINUOUS
 62
     2
100
AcDbLine
 10
331.1188333140378
 20
123.6162062517087
 30
0.0
 11
343.1188023140376
 21
123.6162062517087
 31
0.0
  0
LINE
  5
29B1
330
1A
100
AcDbEntity
  8
0
  6
CONTINUOUS
 62
     2
100
AcDbLine
 10
330.1188333140378
 20
124.6162062517087
 30
0.0
 11
330.1188333140378
 21
148.6162062517087
 31
0.0
  0
LINE
  5
29B2
330
1A
100
AcDbEntity
  8
0
  6
CONTINUOUS
 62
     2
100
AcDbLine
 10
302.1187723140376
 20
124.6162062517087
 30
0.0
 11
302.1187723140376
 21
148.6162062517087
 31
0.0
  0
ARC
  5
29B3
330
1A
100
AcDbEntity
  8
0
  6
CONTINUOUS
 62
     2
100
AcDbCircle
 10
301.1187723140376
 20
124.6162062517087
 30
0.0
 40
1.0
100
AcDbArc
 50
270.0
 51
359.9999960000009
  0
ARC
  5
29B4
330
1A
100
AcDbEntity
  8
0
  6
CONTINUOUS
 62
     2
100
AcDbCircle
 10
331.1188333140378
 20
124.6162062517087
 30
0.0
 40
1.0
100
AcDbArc
 50
180.0000050000005
 51
270.0000009999997
  0
LINE
  5
29B5
330
1A
100
AcDbEntity
  8
0
  6
CONTINUOUS
 62
     2
100
AcDbLine
 10
357.3688023140376
 20
126.6162062517087
 30
0.0
 11
356.9152813140376
 21
145.6638132517088
 31
0.0
  0
LINE
  5
29B6
330
1A
100
AcDbEntity
  8
0
  6
CONTINUOUS
 62
     2
100
AcDbLine
 10
344.8688023140376
 20
126.6162062517087
 30
0.0
 11
345.3223243140378
 21
145.6638132517088
 31
0.0
  0
LINE
  5
29B7
330
1A
100
AcDbEntity
  8
0
  6
CONTINUOUS
 62
     2
100
AcDbLine
 10
343.1188023140376
 20
123.6162062517087
 30
0.0
 11
344.8688023140376
 21
126.6162062517087
 31
0.0
  0
LINE
  5
29B8
330
1A
100
AcDbEntity
  8
0
  6
CONTINUOUS
 62
     2
100
AcDbLine
 10
359.1188023140376
 20
123.6162062517087
 30
0.0
 11
357.3688023140376
 21
126.6162062517087
 31
0.0
  0
LINE
  5
29B9
330
1A
100
AcDbEntity
  8
0
  6
CONTINUOUS
 62
     2
100
AcDbLine
 10
347.3217443140376
 20
147.6162062517087
 30
0.0
 11
354.9158613140377
 21
147.6162062517087
 31
0.0
  0
ARC
  5
29BA
330
1A
100
AcDbEntity
  8
170
  6
PHANTOM2
100
AcDbCircle
 10
351.1188333140377
 20
141.1162062517087
 30
0.0
 40
5.0
100
AcDbArc
 50
0.0
 51
180.0000050000005
  0
ARC
  5
29BB
330
1A
100
AcDbEntity
  8
0
  6
CONTINUOUS
 62
     2
100
AcDbCircle
 10
347.3217443140376
 20
145.6162062517087
 30
0.0
 40
2.0
100
AcDbArc
 50
90.0
 51
178.6360679999999
  0
ARC
  5
29BC
330
1A
100
AcDbEntity
  8
0
  6
CONTINUOUS
 62
     2
100
AcDbCircle
 10
354.9158613140377
 20
145.6162062517087
 30
0.0
 40
2.0
100
AcDbArc
 50
1.363949000000847
 51
90.00000300000095
  0
LINE
  5
29BD
330
1A
100
AcDbEntity
  8
0
  6
CONTINUOUS
 62
     2
100
AcDbLine
 10
349.6188333140377
 20
148.6162062517087
 30
0.0
 11
352.6188333140377
 21
148.6162062517087
 31
0.0
  0
ARC
  5
29BE
330
1A
100
AcDbEntity
  8
0
  6
CONTINUOUS
 62
     2
100
AcDbCircle
 10
371.1187723140376
 20
124.6162062517087
 30
0.0
 40
1.0
100
AcDbArc
 50
270.0
 51
359.9999960000009
  0
LINE
  5
29C2
330
1A
100
AcDbEntity
  8
150
  6
CONTINUOUS
 62
     7
100
AcDbLine
 10
191.6188333140378
 20
211.6162062517087
 30
0.0
 11
363.6188333140377
 21
211.6162062517087
 31
0.0
  0
LINE
  5
29C3
330
1A
100
AcDbEntity
  8
0
  6
CONTINUOUS
 62
     2
100
AcDbLine
 10
231.1188333140378
 20
297.6162062517088
 30
0.0
 11
256.1188333140378
 21
297.6162062517088
 31
0.0
  0
LINE
  5
29C4
330
1A
100
AcDbEntity
  8
0
  6
CONTINUOUS
 62
     2
100
AcDbLine
 10
257.1188333140378
 20
301.6162062517088
 30
0.0
 11
305.1188333140378
 21
301.6162062517088
 31
0.0
  0
LINE
  5
29CA
330
1A
100
AcDbEntity
  8
150
  6
CONTINUOUS
 62
     7
100
AcDbLine
 10
198.6188023140377
 20
290.0162002517087
 30
0.0
 11
198.6188023140377
 21
211.6162062517087
 31
0.0
  0
LINE
  5
29CB
330
1A
100
AcDbEntity
  8
0
  6
CONTINUOUS
 62
     2
100
AcDbLine
 10
196.6188023140377
 20
291.0162002517087
 30
0.0
 11
196.6188023140377
 21
214.5162002517086
 31
0.0
  0
LINE
  5
29CC
330
1A
100
AcDbEntity
  8
225
  6
CENTER
 62
     3
100
AcDbLine
 10
174.1188333140378
 20
199.6162062517087
 30
0.0
 11
174.1188333140378
 21
160.6162062517087
 31
0.0
  0
LINE
  5
29CD
330
1A
100
AcDbEntity
  8
0
  6
CONTINUOUS
 62
     2
100
AcDbLine
 10
187.6188333140378
 20
213.6162062517087
 30
0.0
 11
187.6188333140378
 21
194.6162062517087
 31
0.0
  0
LINE
  5
29CE
330
1A
100
AcDbEntity
  8
150
  6
CONTINUOUS
 62
     7
100
AcDbLine
 10
197.1188333140378
 20
194.6162062517087
 30
0.0
 11
197.1188333140378
 21
211.6162062517087
 31
0.0
  0
LINE
  5
29CF
330
1A
100
AcDbEntity
  8
150
  6
DASHED
100
AcDbLine
 10
177.1188333140378
 20
187.6162062517087
 30
0.0
 11
177.1188333140378
 21
165.6577102517087
 31
0.0
  0
LINE
  5
29D0
330
1A
100
AcDbEntity
  8
150
  6
DASHED
100
AcDbLine
 10
171.1188333140378
 20
187.6162062517087
 30
0.0
 11
171.1188183140377
 21
165.6577102517087
 31
0.0
  0
LINE
  5
29D1
330
1A
100
AcDbEntity
  8
150
  6
DASHED
100
AcDbLine
 10
171.6603373140376
 20
187.6162062517087
 30
0.0
 11
171.6603223140377
 21
165.1162062517087
 31
0.0
  0
LINE
  5
29D2
330
1A
100
AcDbEntity
  8
150
  6
DASHED
100
AcDbLine
 10
176.5773293140378
 20
187.6162062517087
 30
0.0
 11
176.5773293140378
 21
165.1162062517087
 31
0.0
  0
LINE
  5
29D3
330
1A
100
AcDbEntity
  8
150
  6
DASHED
100
AcDbLine
 10
177.1188333140378
 20
165.6577102517087
 30
0.0
 11
176.5773293140378
 21
165.1162062517087
 31
0.0
  0
LINE
  5
29D4
330
1A
100
AcDbEntity
  8
150
  6
DASHED
100
AcDbLine
 10
171.1188183140377
 20
165.6577102517087
 30
0.0
 11
177.1188333140378
 21
165.6577102517087
 31
0.0
  0
LINE
  5
29D5
330
1A
100
AcDbEntity
  8
150
  6
DASHED
100
AcDbLine
 10
171.6603223140377
 20
165.1162062517087
 30
0.0
 11
176.5773293140378
 21
165.1162062517087
 31
0.0
  0
LINE
  5
29D6
330
1A
100
AcDbEntity
  8
150
  6
DASHED
100
AcDbLine
 10
171.1188183140377
 20
165.6577102517087
 30
0.0
 11
171.6603223140377
 21
165.1162062517087
 31
0.0
  0
ARC
  5
29DA
330
1A
100
AcDbEntity
  8
150
  6
HIDDEN2
100
AcDbCircle
 10
174.1188403140377
 20
180.1161992517087
 30
0.0
 40
14.0
100
AcDbArc
 50
74.68147499999915
 51
105.3184529999995
  0
ARC
  5
29DD
330
1A
100
AcDbEntity
  8
150
  6
HIDDEN2
100
AcDbCircle
 10
170.9222063140378
 20
191.7863062517087
 30
0.0
 40
1.9
100
AcDbArc
 50
105.3184499999991
 51
175.0000400000011
  0
LINE
  5
29DE
330
1A
100
AcDbEntity
  8
150
  6
HIDDEN2
100
AcDbLine
 10
168.8688333140378
 20
190.1162062517087
 30
0.0
 11
169.0294323140376
 21
191.9518992517088
 31
0.0
  0
LINE
  5
29DF
330
1A
100
AcDbEntity
  8
150
  6
HIDDEN2
100
AcDbLine
 10
174.8688333140378
 20
188.6162062517087
 30
0.0
 11
174.1188333140378
 21
190.1162062517087
 31
0.0
  0
LINE
  5
29E0
330
1A
100
AcDbEntity
  8
150
  6
HIDDEN2
100
AcDbLine
 10
174.1188333140378
 20
188.6162062517087
 30
0.0
 11
173.3688333140378
 21
190.1162062517087
 31
0.0
  0
LINE
  5
29E1
330
1A
100
AcDbEntity
  8
150
  6
HIDDEN2
100
AcDbLine
 10
180.2188393140377
 20
188.6162062517087
 30
0.0
 11
180.2188393140377
 21
190.1162062517087
 31
0.0
  0
ARC
  5
29E2
330
1A
100
AcDbEntity
  8
150
  6
HIDDEN2
100
AcDbCircle
 10
177.3154713140377
 20
191.7863022517087
 30
0.0
 40
1.9
100
AcDbArc
 50
4.999913000002107
 51
74.68147499999915
  0
LINE
  5
29E3
330
1A
100
AcDbEntity
  8
150
  6
HIDDEN2
 62
     7
100
AcDbLine
 10
181.1188333140378
 20
193.6162062517087
 30
0.0
 11
181.1188333140378
 21
187.6162062517087
 31
0.0
  0
LINE
  5
29E4
330
1A
100
AcDbEntity
  8
150
  6
HIDDEN2
100
AcDbLine
 10
180.6188333140378
 20
187.6162062517087
 30
0.0
 11
180.6188333140378
 21
188.6162062517087
 31
0.0
  0
LINE
  5
29E5
330
1A
100
AcDbEntity
  8
150
  6
HIDDEN2
100
AcDbLine
 10
179.3688333140378
 20
190.1162062517087
 30
0.0
 11
179.2082493140376
 21
191.9518992517088
 31
0.0
  0
ARC
  5
29E6
330
1A
100
AcDbEntity
  8
150
  6
HIDDEN2
 62
     7
100
AcDbCircle
 10
182.1188333140378
 20
193.6162062517087
 30
0.0
 40
1.0
100
AcDbArc
 50
90.0
 51
180.0000029999976
  0
LINE
  5
29E7
330
1A
100
AcDbEntity
  8
150
  6
CONTINUOUS
 62
     7
100
AcDbLine
 10
196.6188023140377
 20
212.5162002517086
 30
0.0
 11
191.6188023140378
 21
212.5162002517086
 31
0.0
  0
LINE
  5
29E8
330
1A
100
AcDbEntity
  8
0
  6
CONTINUOUS
 62
     2
100
AcDbLine
 10
196.6188023140377
 20
214.5162002517086
 30
0.0
 11
191.6188023140378
 21
214.5162002517086
 31
0.0
  0
ARC
  5
29E9
330
1A
100
AcDbEntity
  8
0
  6
CONTINUOUS
 62
     2
100
AcDbCircle
 10
188.6188333140378
 20
213.6162062517087
 30
0.0
 40
1.0
100
AcDbArc
 50
90.0
 51
180.0000029999976
  0
LINE
  5
29EA
330
1A
100
AcDbEntity
  8
0
  6
CONTINUOUS
 62
     2
100
AcDbLine
 10
188.6188333140378
 20
214.6162062517087
 30
0.0
 11
191.6188023140378
 21
214.6162062517087
 31
0.0
  0
LINE
  5
29EB
330
1A
100
AcDbEntity
  8
150
  6
CONTINUOUS
 62
     7
100
AcDbLine
 10
191.6188023140378
 20
214.6162062517087
 30
0.0
 11
191.6188023140378
 21
211.6162062517087
 31
0.0
  0
ARC
  5
29EC
330
1A
100
AcDbEntity
  8
150
  6
CONTINUOUS
 62
     7
100
AcDbCircle
 10
196.6188023140377
 20
214.5162002517086
 30
0.0
 40
2.0
100
AcDbArc
 50
270.0
 51
0.000008999999603
  0
LINE
  5
29F3
330
1A
100
AcDbEntity
  8
150
  6
CONTINUOUS
100
AcDbLine
 10
204.8188153140376
 20
293.0162002517087
 30
0.0
 11
204.8188153140376
 21
288.4096932517087
 31
0.0
  0
LINE
  5
29F4
330
1A
100
AcDbEntity
  8
150
  6
CONTINUOUS
100
AcDbLine
 10
207.4187903140377
 20
293.0162002517087
 30
0.0
 11
207.4187903140377
 21
288.4096932517087
 31
0.0
  0
LINE
  5
29F5
330
1A
100
AcDbEntity
  8
225
  6
CENTER
 62
     3
100
AcDbLine
 10
206.1188023140378
 20
286.1162062517088
 30
0.0
 11
206.1188023140378
 21
297.8161882517088
 31
0.0
  0
ARC
  5
29F6
330
1A
100
AcDbEntity
  8
150
  6
CONTINUOUS
 62
     7
100
AcDbCircle
 10
199.6188023140377
 20
290.0162002517087
 30
0.0
 40
1.0
100
AcDbArc
 50
90.0
 51
180.0000029999976
  0
LINE
  5
29FB
330
1A
100
AcDbEntity
  8
150
  6
CONTINUOUS
100
AcDbLine
 10
205.1123023140378
 20
288.1162062517088
 30
0.0
 11
207.1253033140376
 21
288.1162062517088
 31
0.0
  0
LINE
  5
29FC
330
1A
100
AcDbEntity
  8
150
  6
CONTINUOUS
100
AcDbLine
 10
204.8188153140376
 20
288.4096932517087
 30
0.0
 11
205.1123023140378
 21
288.1162062517088
 31
0.0
  0
LINE
  5
29FD
330
1A
100
AcDbEntity
  8
150
  6
CONTINUOUS
100
AcDbLine
 10
207.4187903140377
 20
288.4096932517087
 30
0.0
 11
207.1253033140376
 21
288.1162062517088
 31
0.0
  0
LINE
  5
29FE
330
1A
100
AcDbEntity
  8
0
  6
CONTINUOUS
 62
     2
100
AcDbLine
 10
198.6188023140377
 20
293.0162002517087
 30
0.0
 11
215.8188153140376
 21
293.0162002517087
 31
0.0
  0
LINE
  5
29FF
330
1A
100
AcDbEntity
  8
150
  6
CONTINUOUS
 62
     7
100
AcDbLine
 10
199.6188023140377
 20
291.0162002517087
 30
0.0
 11
213.6188023140377
 21
291.0162002517087
 31
0.0
  0
ARC
  5
2A02
330
1A
100
AcDbEntity
  8
0
  6
CONTINUOUS
 62
     2
100
AcDbCircle
 10
198.6188023140377
 20
291.0162002517087
 30
0.0
 40
2.0
100
AcDbArc
 50
90.0
 51
180.0000029999976
  0
LINE
  5
2A07
330
1A
100
AcDbEntity
  8
0
  6
CONTINUOUS
 62
     2
100
AcDbLine
 10
215.8188153140377
 20
292.6162062517088
 30
0.0
 11
230.1188333140378
 21
292.6162062517088
 31
0.0
  0
LINE
  5
2A08
330
1A
100
AcDbEntity
  8
150
  6
CONTINUOUS
100
AcDbLine
 10
203.6188023140378
 20
293.5162002517087
 30
0.0
 11
208.6188023140377
 21
293.5162002517087
 31
0.0
  0
LINE
  5
2A09
330
1A
100
AcDbEntity
  8
150
  6
CONTINUOUS
100
AcDbLine
 10
208.6188023140377
 20
293.5162002517087
 30
0.0
 11
208.7687963140376
 21
293.5162002517087
 31
0.0
  0
LINE
  5
2A0A
330
1A
100
AcDbEntity
  8
150
  6
CONTINUOUS
100
AcDbLine
 10
208.3688023140378
 20
294.1162062517088
 30
0.0
 11
208.7687963140376
 21
294.1162062517088
 31
0.0
  0
LINE
  5
2A0B
330
1A
100
AcDbEntity
  8
150
  6
CONTINUOUS
100
AcDbLine
 10
203.8688023140378
 20
294.1162062517088
 30
0.0
 11
208.3688023140378
 21
294.1162062517089
 31
0.0
  0
ARC
  5
2A0C
330
1A
100
AcDbEntity
  8
150
  6
CONTINUOUS
100
AcDbCircle
 10
206.1188103140377
 20
289.8161782517087
 30
0.0
 40
6.0
100
AcDbArc
 50
74.55716600000155
 51
105.4427620000005
  0
LINE
  5
2A0D
330
1A
100
AcDbEntity
  8
150
  6
CONTINUOUS
100
AcDbLine
 10
203.4688093140378
 20
293.5162002517087
 30
0.0
 11
203.6188023140378
 21
293.5162002517087
 31
0.0
  0
LINE
  5
2A0E
330
1A
100
AcDbEntity
  8
150
  6
CONTINUOUS
100
AcDbLine
 10
203.4688093140378
 20
294.1162062517088
 30
0.0
 11
203.8688023140378
 21
294.1162062517088
 31
0.0
  0
ARC
  5
2A0F
330
1A
100
AcDbEntity
  8
150
  6
CONTINUOUS
100
AcDbCircle
 10
207.5034563140377
 20
294.8284452517087
 30
0.0
 40
0.8
100
AcDbArc
 50
4.999968000000138
 51
74.55722100000059
  0
LINE
  5
2A10
330
1A
100
AcDbEntity
  8
150
  6
CONTINUOUS
100
AcDbLine
 10
208.6188023140377
 20
293.0162002517087
 30
0.0
 11
208.6188023140377
 21
293.5162002517087
 31
0.0
  0
LINE
  5
2A11
330
1A
100
AcDbEntity
  8
150
  6
CONTINUOUS
100
AcDbLine
 10
203.6188023140378
 20
293.0162002517087
 30
0.0
 11
203.6188023140378
 21
293.5162002517087
 31
0.0
  0
LINE
  5
2A12
330
1A
100
AcDbEntity
  8
150
  6
CONTINUOUS
100
AcDbLine
 10
203.4688093140378
 20
293.5162002517087
 30
0.0
 11
203.4688093140378
 21
294.1162062517088
 31
0.0
  0
LINE
  5
2A13
330
1A
100
AcDbEntity
  8
150
  6
CONTINUOUS
100
AcDbLine
 10
208.7687963140376
 20
293.5162002517087
 30
0.0
 11
208.7687963140376
 21
294.1162062517088
 31
0.0
  0
LINE
  5
2A14
330
1A
100
AcDbEntity
  8
150
  6
CONTINUOUS
100
AcDbLine
 10
206.1188023140378
 20
293.5162002517087
 30
0.0
 11
205.8188153140377
 21
294.1162062517088
 31
0.0
  0
LINE
  5
2A15
330
1A
100
AcDbEntity
  8
150
  6
CONTINUOUS
100
AcDbLine
 10
206.4188213140378
 20
293.5162002517087
 30
0.0
 11
206.1188023140378
 21
294.1162062517088
 31
0.0
  0
LINE
  5
2A16
330
1A
100
AcDbEntity
  8
150
  6
CONTINUOUS
100
AcDbLine
 10
203.8688023140378
 20
294.1162062517088
 30
0.0
 11
203.9372233140377
 21
294.8981882517088
 31
0.0
  0
LINE
  5
2A17
330
1A
100
AcDbEntity
  8
150
  6
CONTINUOUS
100
AcDbLine
 10
208.3688023140378
 20
294.1162062517088
 30
0.0
 11
208.3003823140377
 21
294.8981882517088
 31
0.0
  0
ARC
  5
2A18
330
1A
100
AcDbEntity
  8
150
  6
CONTINUOUS
100
AcDbCircle
 10
204.7341693140376
 20
294.8284472517087
 30
0.0
 40
0.8
100
AcDbArc
 50
105.4427050000007
 51
174.9999779999999
  0
LINE
  5
2A19
330
1A
100
AcDbEntity
  8
0
  6
CONTINUOUS
 62
     2
100
AcDbLine
 10
215.8188153140376
 20
292.6162062517088
 30
0.0
 11
215.8188153140376
 21
293.0162002517087
 31
0.0
  0
LINE
  5
2A1A
330
1A
100
AcDbEntity
  8
150
  6
CONTINUOUS
 62
     7
100
AcDbLine
 10
213.6188023140377
 20
291.0162002517087
 30
0.0
 11
213.6188023140377
 21
292.6162062517088
 31
0.0
  0
LINE
  5
2A1B
330
1A
100
AcDbEntity
  8
0
  6
CONTINUOUS
 62
     2
100
AcDbLine
 10
230.1188333140378
 20
296.6162062517088
 30
0.0
 11
230.1188333140378
 21
292.6162062517088
 31
0.0
  0
ARC
  5
2A1C
330
1A
100
AcDbEntity
  8
0
  6
CONTINUOUS
 62
     2
100
AcDbCircle
 10
231.1188333140378
 20
296.6162062517088
 30
0.0
 40
1.0
100
AcDbArc
 50
90.0
 51
180.0000029999976
  0
ARC
  5
2A20
330
1A
100
AcDbEntity
  8
0
  6
CONTINUOUS
 62
     2
100
AcDbCircle
 10
267.3907143140377
 20
314.2767892517086
 30
0.0
 40
1.0
100
AcDbArc
 50
21.12277000000259
 51
110.4998450000009
  0
LINE
  5
2A21
330
1A
100
AcDbEntity
  8
0
  6
CONTINUOUS
 62
     2
100
AcDbLine
 10
267.0405253140377
 20
315.2134652517087
 30
0.0
 11
261.8685283140377
 21
313.2797502517087
 31
0.0
  0
LINE
  5
2A23
330
1A
100
AcDbEntity
  8
0
  6
CONTINUOUS
 62
     2
100
AcDbLine
 10
265.0336583140376
 20
301.6162062517088
 30
0.0
 11
261.2783183140377
 21
312.0030772517087
 31
0.0
  0
LINE
  5
2A24
330
1A
100
AcDbEntity
  8
0
  6
CONTINUOUS
 62
     2
100
AcDbLine
 10
256.1188333140378
 20
300.6162062517088
 30
0.0
 11
256.1188333140378
 21
297.6162062517088
 31
0.0
  0
ARC
  5
2A25
330
1A
100
AcDbEntity
  8
0
  6
CONTINUOUS
 62
     2
100
AcDbCircle
 10
257.1188333140378
 20
300.6162062517088
 30
0.0
 40
1.0
100
AcDbArc
 50
90.0
 51
180.0000029999976
  0
ARC
  5
2A27
330
1A
100
AcDbEntity
  8
0
  6
CONTINUOUS
 62
     2
100
AcDbCircle
 10
262.2187483140378
 20
312.3430742517088
 30
0.0
 40
1.0
100
AcDbArc
 50
110.4999680000001
 51
199.8773439999977
  0
LINE
  5
2A28
330
1A
100
AcDbEntity
  8
0
  6
CONTINUOUS
 62
     2
100
AcDbLine
 10
273.3538183140376
 20
301.6162062517088
 30
0.0
 11
268.3235143140377
 21
314.6371412517088
 31
0.0
  0
TEXT
  5
2A2B
330
1A
100
AcDbEntity
  8
230
 62
     6
100
AcDbText
 10
273.7315733140378
 20
320.9057222517086
 30
0.0
 40
5.0
  1
ASL
100
AcDbText
  0
LINE
  5
2A2C
330
1A
100
AcDbEntity
  8
150
  6
PHANTOM2
 62
     7
100
AcDbLine
 10
418.6188333140377
 20
290.0162002517087
 30
0.0
 11
418.6188333140377
 21
212.6162062517087
 31
0.0
  0
LINE
  5
2A2D
330
1A
100
AcDbEntity
  8
0
  6
CONTINUOUS
 62
     2
100
AcDbLine
 10
363.6188333140377
 20
290.0162002517087
 30
0.0
 11
363.6188333140377
 21
211.6162062517087
 31
0.0
  0
LINE
  5
2A2E
330
1A
100
AcDbEntity
  8
225
  6
CENTER
 62
     3
100
AcDbLine
 10
353.1188333140377
 20
254.7162122517087
 30
0.0
 11
353.1188333140377
 21
216.7162122517087
 31
0.0
  0
LINE
  5
2A2F
330
1A
100
AcDbEntity
  8
150
  6
HIDDEN2
 62
     7
100
AcDbLine
 10
346.6188333140377
 20
241.7162122517087
 30
0.0
 11
346.6188333140377
 21
249.7162122517087
 31
0.0
  0
LINE
  5
2A30
330
1A
100
AcDbEntity
  8
150
  6
HIDDEN2
 62
     7
100
AcDbLine
 10
359.6188333140377
 20
241.7162122517087
 30
0.0
 11
359.6188333140377
 21
249.7162122517087
 31
0.0
  0
LINE
  5
2A31
330
1A
100
AcDbEntity
  8
150
  6
PHANTOM2
 62
     7
100
AcDbLine
 10
363.6188333140377
 20
212.6162062517087
 30
0.0
 11
418.6188333140377
 21
212.6162062517087
 31
0.0
  0
LINE
  5
2A32
330
1A
100
AcDbEntity
  8
0
  6
CONTINUOUS
 62
     2
100
AcDbLine
 10
365.1188333140377
 20
194.6162062517087
 30
0.0
 11
365.1188333140377
 21
211.6162062517087
 31
0.0
  0
LINE
  5
2A33
330
1A
100
AcDbEntity
  8
150
  6
HIDDEN2
 62
     7
100
AcDbLine
 10
362.6188333140377
 20
235.6162062517087
 30
0.0
 11
338.6188333140377
 21
235.6162062517087
 31
0.0
  0
LINE
  5
2A34
330
1A
100
AcDbEntity
  8
150
  6
HIDDEN2
 62
     7
100
AcDbLine
 10
362.6188333140377
 20
230.6162062517087
 30
0.0
 11
338.6188333140377
 21
230.6162062517087
 31
0.0
  0
LINE
  5
2A35
330
1A
100
AcDbEntity
  8
150
  6
HIDDEN2
 62
     7
100
AcDbLine
 10
362.1188333140377
 20
238.1162062517087
 30
0.0
 11
344.1188333140377
 21
238.1162062517087
 31
0.0
  0
LINE
  5
2A36
330
1A
100
AcDbEntity
  8
150
  6
HIDDEN2
 62
     7
100
AcDbLine
 10
344.1188333140377
 20
239.7162122517087
 30
0.0
 11
362.1188333140377
 21
239.7162122517087
 31
0.0
  0
LINE
  5
2A37
330
1A
100
AcDbEntity
  8
150
  6
HIDDEN2
 62
     7
100
AcDbLine
 10
345.4188513140377
 20
241.7162122517087
 30
0.0
 11
360.8188453140377
 21
241.7162122517087
 31
0.0
  0
LINE
  5
2A38
330
1A
100
AcDbEntity
  8
150
  6
HIDDEN2
 62
     7
100
AcDbLine
 10
349.1188333140377
 20
222.3927262517087
 30
0.0
 11
357.1188333140377
 21
222.3927262517087
 31
0.0
  0
LINE
  5
2A39
330
1A
100
AcDbEntity
  8
150
  6
HIDDEN2
 62
     7
100
AcDbLine
 10
349.1188333140377
 20
222.3927262517087
 30
0.0
 11
349.7953163140377
 21
221.7162122517087
 31
0.0
  0
LINE
  5
2A3A
330
1A
100
AcDbEntity
  8
150
  6
HIDDEN2
 62
     7
100
AcDbLine
 10
349.1188333140377
 20
238.1162062517087
 30
0.0
 11
349.1188333140377
 21
222.3927262517087
 31
0.0
  0
LINE
  5
2A3B
330
1A
100
AcDbEntity
  8
150
  6
HIDDEN2
 62
     7
100
AcDbLine
 10
344.1188333140377
 20
238.1162062517087
 30
0.0
 11
344.1188333140377
 21
239.7162122517087
 31
0.0
  0
LINE
  5
2A3C
330
1A
100
AcDbEntity
  8
150
  6
HIDDEN2
 62
     7
100
AcDbLine
 10
345.4188513140377
 20
239.7162122517087
 30
0.0
 11
345.4188513140377
 21
241.7162122517087
 31
0.0
  0
LINE
  5
2A3D
330
1A
100
AcDbEntity
  8
150
  6
HIDDEN2
 62
     7
100
AcDbLine
 10
362.6188333140377
 20
235.6162062517087
 30
0.0
 11
362.6188333140377
 21
230.6162062517087
 31
0.0
  0
LINE
  5
2A3E
330
1A
100
AcDbEntity
  8
150
  6
HIDDEN2
 62
     7
100
AcDbLine
 10
349.7953473140377
 20
238.1162062517087
 30
0.0
 11
349.7953163140377
 21
221.7162122517087
 31
0.0
  0
LINE
  5
2A3F
330
1A
100
AcDbEntity
  8
150
  6
HIDDEN2
 62
     7
100
AcDbLine
 10
356.4423193140378
 20
238.1162062517087
 30
0.0
 11
356.4423193140378
 21
221.7162122517087
 31
0.0
  0
LINE
  5
2A40
330
1A
100
AcDbEntity
  8
150
  6
HIDDEN2
 62
     7
100
AcDbLine
 10
357.1188333140377
 20
238.1162062517087
 30
0.0
 11
357.1188333140377
 21
222.3927262517087
 31
0.0
  0
LINE
  5
2A41
330
1A
100
AcDbEntity
  8
150
  6
HIDDEN2
 62
     7
100
AcDbLine
 10
349.7953163140377
 20
221.7162122517087
 30
0.0
 11
356.4423193140378
 21
221.7162122517087
 31
0.0
  0
LINE
  5
2A42
330
1A
100
AcDbEntity
  8
150
  6
HIDDEN2
 62
     7
100
AcDbLine
 10
357.1188333140377
 20
222.3927262517087
 30
0.0
 11
356.4423193140378
 21
221.7162122517087
 31
0.0
  0
LINE
  5
2A43
330
1A
100
AcDbEntity
  8
150
  6
HIDDEN2
 62
     7
100
AcDbLine
 10
353.1188333140377
 20
239.7162122517087
 30
0.0
 11
352.1188333140377
 21
241.7162122517087
 31
0.0
  0
LINE
  5
2A44
330
1A
100
AcDbEntity
  8
150
  6
HIDDEN2
 62
     7
100
AcDbLine
 10
354.1188333140377
 20
239.7162122517087
 30
0.0
 11
353.1188333140377
 21
241.7162122517087
 31
0.0
  0
LINE
  5
2A45
330
1A
100
AcDbEntity
  8
150
  6
HIDDEN2
 62
     7
100
AcDbLine
 10
362.1188333140377
 20
238.1162062517087
 30
0.0
 11
362.1188333140377
 21
239.7162122517087
 31
0.0
  0
LINE
  5
2A46
330
1A
100
AcDbEntity
  8
150
  6
HIDDEN2
 62
     7
100
AcDbLine
 10
360.8188453140377
 20
239.7162122517087
 30
0.0
 11
360.8188453140377
 21
241.7162122517087
 31
0.0
  0
TEXT
  5
2A69
330
1A
100
AcDbEntity
  8
210
  6
CONTINUOUS
 62
     4
100
AcDbText
 10
449.9938713140377
 20
151.7412102517088
 30
0.0
 40
5.0
  1
27.5
 50
90.00000300000095
100
AcDbText
  0
TEXT
  5
2A6A
330
1A
100
AcDbEntity
  8
210
  6
CONTINUOUS
 62
     4
100
AcDbText
 10
449.9938713140377
 20
200.1162022517088
 30
0.0
 40
5.0
  1
62
 50
90.00000300000095
100
AcDbText
  0
LINE
  5
2A6E
330
1A
100
AcDbEntity
  8
150
  6
CONTINUOUS
 62
     7
100
AcDbLine
 10
359.0688453140377
 20
295.1162062517088
 30
0.0
 11
368.1688213140377
 21
295.1162062517088
 31
0.0
  0
LINE
  5
2A6F
330
1A
100
AcDbEntity
  8
150
  6
PHANTOM2
 62
     7
100
AcDbLine
 10
348.6188633140377
 20
292.6162062517088
 30
0.0
 11
416.6188333140377
 21
292.6162062517088
 31
0.0
  0
LINE
  5
2A70
330
1A
100
AcDbEntity
  8
150
  6
CONTINUOUS
 62
     7
100
AcDbLine
 10
359.3688333140377
 20
293.9161942517088
 30
0.0
 11
367.8688333140377
 21
293.9161942517088
 31
0.0
  0
ARC
  5
2A71
330
1A
100
AcDbEntity
  8
0
  6
CONTINUOUS
 62
     2
100
AcDbCircle
 10
362.6188633140377
 20
290.0162002517087
 30
0.0
 40
1.0
100
AcDbArc
 50
359.9999949999995
 51
89.99999699999904
  0
LINE
  5
2A72
330
1A
100
AcDbEntity
  8
150
  6
HIDDEN2
 62
     7
100
AcDbLine
 10
346.6188333140377
 20
249.7162122517087
 30
0.0
 11
359.6188333140377
 21
249.7162122517087
 31
0.0
  0
LINE
  5
2A75
330
1A
100
AcDbEntity
  8
230
  6
CONTINUOUS
 62
     6
100
AcDbLine
 10
359.3061273140376
 20
249.7162232517088
 30
0.0
 11
360.5808159620278
 21
251.2573820353227
 31
0.0
  0
LINE
  5
2A76
330
1A
100
AcDbEntity
  8
230
  6
CONTINUOUS
 62
     6
100
AcDbLine
 10
359.3061273140376
 20
249.7162232517088
 30
0.0
 11
360.0034658906355
 21
251.5907158149901
 31
0.0
  0
LINE
  5
2A77
330
1A
100
AcDbEntity
  8
0
  6
CONTINUOUS
 62
     2
100
AcDbLine
 10
332.1188333140378
 20
292.6162062517088
 30
0.0
 11
348.6188633140377
 21
292.6162062517088
 31
0.0
  0
LINE
  5
2A78
330
1A
100
AcDbEntity
  8
0
  6
CONTINUOUS
 62
     2
100
AcDbLine
 10
306.1188333140378
 20
300.6162062517088
 30
0.0
 11
306.1188333140378
 21
297.6162062517088
 31
0.0
  0
ARC
  5
2A79
330
1A
100
AcDbEntity
  8
0
  6
CONTINUOUS
 62
     2
100
AcDbCircle
 10
305.1188333140378
 20
300.6162062517088
 30
0.0
 40
1.0
100
AcDbArc
 50
0.0
 51
90.00000300000095
  0
LINE
  5
2A7B
330
1A
100
AcDbEntity
  8
0
  6
CONTINUOUS
 62
     2
100
AcDbLine
 10
332.1188333140378
 20
296.6162062517088
 30
0.0
 11
332.1188333140378
 21
292.6162062517088
 31
0.0
  0
ARC
  5
2A7C
330
1A
100
AcDbEntity
  8
0
  6
CONTINUOUS
 62
     2
100
AcDbCircle
 10
331.1188333140378
 20
296.6162062517088
 30
0.0
 40
1.0
100
AcDbArc
 50
0.0
 51
90.00000300000095
  0
LINE
  5
2A7F
330
1A
100
AcDbEntity
  8
0
  6
CONTINUOUS
 62
     2
100
AcDbLine
 10
362.6188633140377
 20
291.0162002517087
 30
0.0
 11
348.6188633140377
 21
291.0162002517087
 31
0.0
  0
LINE
  5
2A80
330
1A
100
AcDbEntity
  8
0
  6
CONTINUOUS
 62
     2
100
AcDbLine
 10
348.6188633140377
 20
291.0162002517087
 30
0.0
 11
348.6188633140377
 21
292.6162062517088
 31
0.0
  0
ARC
  5
2A81
330
1A
100
AcDbEntity
  8
150
  6
CONTINUOUS
 62
     7
100
AcDbCircle
 10
359.0688453140377
 20
293.9161942517088
 30
0.0
 40
1.199999999999999
100
AcDbArc
 50
90.0
 51
180.0000029999976
  0
LINE
  5
2A82
330
1A
100
AcDbEntity
  8
150
  6
CONTINUOUS
 62
     7
100
AcDbLine
 10
357.8688333140377
 20
292.6162062517088
 30
0.0
 11
357.8688333140377
 21
293.9161942517088
 31
0.0
  0
LINE
  5
2A83
330
1A
100
AcDbEntity
  8
150
  6
CONTINUOUS
 62
     7
100
AcDbLine
 10
359.3688333140377
 20
292.6162062517088
 30
0.0
 11
359.3688333140377
 21
293.9161942517088
 31
0.0
  0
LINE
  5
2A85
330
1A
100
AcDbEntity
  8
230
  6
CONTINUOUS
 62
     6
100
AcDbLine
 10
418.6188415166323
 20
285.2863681327489
 30
0.0
 11
419.8935291372865
 21
286.8275267309059
 31
0.0
  0
LINE
  5
2A86
330
1A
100
AcDbEntity
  8
230
  6
CONTINUOUS
 62
     6
100
AcDbLine
 10
418.6188415166323
 20
285.2863681327489
 30
0.0
 11
419.3161793095985
 21
287.1608600325616
 31
0.0
  0
ARC
  5
2A87
330
1A
100
AcDbEntity
  8
150
  6
CONTINUOUS
 62
     7
100
AcDbCircle
 10
368.1688213140377
 20
293.9161942517088
 30
0.0
 40
1.199999999999999
100
AcDbArc
 50
0.0
 51
90.00000300000095
  0
LINE
  5
2A88
330
1A
100
AcDbEntity
  8
150
  6
CONTINUOUS
 62
     7
100
AcDbLine
 10
369.3688333140377
 20
292.6162062517088
 30
0.0
 11
369.3688333140377
 21
293.9161942517088
 31
0.0
  0
LINE
  5
2A89
330
1A
100
AcDbEntity
  8
150
  6
CONTINUOUS
 62
     7
100
AcDbLine
 10
367.8688333140377
 20
292.6162062517088
 30
0.0
 11
367.8688333140377
 21
293.9161942517088
 31
0.0
  0
ARC
  5
2A8B
330
1A
100
AcDbEntity
  8
150
  6
PHANTOM2
 62
     7
100
AcDbCircle
 10
416.6188333140377
 20
290.6162062517088
 30
0.0
 40
2.0
100
AcDbArc
 50
0.0
 51
90.00000300000095
  0
LINE
  5
2A8E
330
1A
100
AcDbEntity
  8
210
  6
CONTINUOUS
 62
     4
100
AcDbLine
 10
378.9316763140377
 20
422.5598362517087
 30
0.0
 11
143.0563103140377
 21
422.5598362517087
 31
0.0
  0
LINE
  5
2A90
330
1A
100
AcDbEntity
  8
210
  6
CONTINUOUS
 62
     4
100
AcDbLine
 10
169.1188103140377
 20
385.0598672517087
 30
0.0
 11
123.0563103140377
 21
385.0598672517087
 31
0.0
  0
LINE
  5
2A91
330
1A
100
AcDbEntity
  8
210
  6
CONTINUOUS
 62
     4
100
AcDbLine
 10
169.1188103140377
 20
505.0598972517089
 30
0.0
 11
123.0563103140377
 21
505.0598972517089
 31
0.0
  0
LINE
  5
2A92
330
1A
100
AcDbEntity
  8
0
  6
CONTINUOUS
 62
     2
100
AcDbLine
 10
174.1188023140377
 20
460.5598702517088
 30
0.0
 11
167.1188023140377
 21
460.5598702517088
 31
0.0
  0
LINE
  5
2A93
330
1A
100
AcDbEntity
  8
0
  6
CONTINUOUS
 62
     2
100
AcDbLine
 10
174.1188023140377
 20
474.5598702517088
 30
0.0
 11
167.1188023140377
 21
474.5598702517088
 31
0.0
  0
ARC
  5
2A94
330
1A
100
AcDbEntity
  8
0
  6
CONTINUOUS
 62
     2
100
AcDbCircle
 10
170.1188023140377
 20
501.0599012517088
 30
0.0
 40
4.0
100
AcDbArc
 50
90.0
 51
180.0000029999976
  0
ARC
  5
2A95
330
1A
100
AcDbEntity
  8
0
  6
CONTINUOUS
 62
     2
100
AcDbCircle
 10
170.1188023140377
 20
389.0598702517088
 30
0.0
 40
4.0
100
AcDbArc
 50
180.0000050000005
 51
270.0000009999997
  0
LINE
  5
2A96
330
1A
100
AcDbEntity
  8
225
  6
CENTER
 62
     3
100
AcDbLine
 10
183.1188023140377
 20
467.5598702517088
 30
0.0
 11
165.1188023140377
 21
467.5598702517088
 31
0.0
  0
LINE
  5
2A97
330
1A
100
AcDbEntity
  8
225
  6
CENTER
 62
     3
100
AcDbLine
 10
162.1188023140377
 20
445.0598702517088
 30
0.0
 11
400.1188333140377
 21
445.0598702517088
 31
0.0
  0
CIRCLE
  5
2A98
330
1A
100
AcDbEntity
  8
150
  6
CENTER
100
AcDbCircle
 10
174.1188113140376
 20
467.5598792517087
 30
0.0
 40
6.5
  0
LINE
  5
2A9A
330
1A
100
AcDbEntity
  8
210
  6
CONTINUOUS
 62
     4
100
AcDbLine
 10
147.1188103140377
 20
467.5598672517087
 30
0.0
 11
147.1188103140377
 21
422.5598362517087
 31
0.0
  0
LINE
  5
2A9B
330
1A
100
AcDbEntity
  8
210
  6
CONTINUOUS
 62
     4
100
AcDbLine
 10
127.1188103140377
 20
505.0598972517089
 30
0.0
 11
127.1188103140377
 21
385.0598672517087
 31
0.0
  0
LINE
  5
2A9C
330
1A
100
AcDbEntity
  8
0
  6
CONTINUOUS
 62
     2
100
AcDbLine
 10
166.1188023140377
 20
389.0598702517088
 30
0.0
 11
166.1188023140377
 21
501.0599012517088
 31
0.0
  0
LINE
  5
2A9D
330
1A
100
AcDbEntity
  8
210
  6
CONTINUOUS
 62
     4
100
AcDbLine
 10
127.1188103140377
 20
385.0598672517087
 30
0.0
 11
126.7854773140377
 21
387.0318932517086
 31
0.0
  0
LINE
  5
2A9E
330
1A
100
AcDbEntity
  8
210
  6
CONTINUOUS
 62
     4
100
AcDbLine
 10
127.1188103140377
 20
385.0598672517087
 30
0.0
 11
127.4521433140378
 21
387.0318932517086
 31
0.0
  0
LINE
  5
2A9F
330
1A
100
AcDbEntity
  8
210
  6
CONTINUOUS
 62
     4
100
AcDbLine
 10
147.1188103140377
 20
422.5598362517087
 30
0.0
 11
146.7854773140377
 21
424.5318632517089
 31
0.0
  0
LINE
  5
2AA0
330
1A
100
AcDbEntity
  8
210
  6
CONTINUOUS
 62
     4
100
AcDbLine
 10
147.1188103140377
 20
422.5598362517087
 30
0.0
 11
147.4521433140378
 21
424.5318632517089
 31
0.0
  0
TEXT
  5
2AA1
330
1A
100
AcDbEntity
  8
210
  6
CONTINUOUS
 62
     4
100
AcDbText
 10
123.9938103140377
 20
439.4765632517089
 30
0.0
 40
5.0
  1
120
 50
90.00000300000095
100
AcDbText
  0
TEXT
  5
2AA2
330
1A
100
AcDbEntity
  8
210
  6
CONTINUOUS
 62
     4
100
AcDbText
 10
143.9938103140377
 20
440.4348662517088
 30
0.0
 40
5.0
  1
45
 50
90.00000300000095
100
AcDbText
  0
TEXT
  5
2AA3
330
1A
100
AcDbEntity
  8
230
 62
     6
100
AcDbText
 10
158.1196043140378
 20
442.2650062517089
 30
0.0
 40
5.0
  1
L
100
AcDbText
  0
TEXT
  5
2AA4
330
1A
100
AcDbEntity
  8
230
 62
     6
100
AcDbText
 10
156.3692983140376
 20
444.0152802517088
 30
0.0
 40
5.0
  1
H
100
AcDbText
  0
LINE
  5
2AA5
330
1A
100
AcDbEntity
  8
210
  6
CONTINUOUS
 62
     4
100
AcDbLine
 10
164.9316003140377
 20
467.5598672517087
 30
0.0
 11
143.0563103140377
 21
467.5598672517087
 31
0.0
  0
LINE
  5
2AA6
330
1A
100
AcDbEntity
  8
210
  6
CONTINUOUS
 62
     4
100
AcDbLine
 10
147.1188103140377
 20
467.5598672517087
 30
0.0
 11
146.7854773140377
 21
465.5878402517089
 31
0.0
  0
LINE
  5
2AA7
330
1A
100
AcDbEntity
  8
210
  6
CONTINUOUS
 62
     4
100
AcDbLine
 10
147.1188103140377
 20
467.5598672517087
 30
0.0
 11
147.4521433140378
 21
465.5878402517089
 31
0.0
  0
ARC
  5
2AA8
330
1A
100
AcDbEntity
  8
0
  6
CONTINUOUS
 62
     2
100
AcDbCircle
 10
167.1188023140377
 20
459.5598702517088
 30
0.0
 40
1.0
100
AcDbArc
 50
90.0
 51
180.0000029999976
  0
ARC
  5
2AA9
330
1A
100
AcDbEntity
  8
0
  6
CONTINUOUS
 62
     2
100
AcDbCircle
 10
167.1188023140377
 20
475.5598702517088
 30
0.0
 40
1.0
100
AcDbArc
 50
180.0000050000005
 51
270.0000009999997
  0
LINE
  5
2AAA
330
1A
100
AcDbEntity
  8
210
  6
CONTINUOUS
 62
     4
100
AcDbLine
 10
127.1188103140377
 20
505.0598972517089
 30
0.0
 11
126.7854773140377
 21
503.087871251709
 31
0.0
  0
LINE
  5
2AAB
330
1A
100
AcDbEntity
  8
210
  6
CONTINUOUS
 62
     4
100
AcDbLine
 10
127.1188103140377
 20
505.0598972517089
 30
0.0
 11
127.4521433140378
 21
503.087871251709
 31
0.0
  0
LINE
  5
2AB2
330
1A
100
AcDbEntity
  8
210
  6
CONTINUOUS
 62
     4
100
AcDbLine
 10
281.1188413140378
 20
370.0697542517088
 30
0.0
 11
353.1188413140378
 21
370.0697542517088
 31
0.0
  0
LINE
  5
2AB3
330
1A
100
AcDbEntity
  8
0
  6
CONTINUOUS
 62
     2
100
AcDbLine
 10
170.1188023140377
 20
385.0598702517088
 30
0.0
 11
392.1188333140377
 21
385.0598702517088
 31
0.0
  0
LINE
  5
2AB4
330
1A
100
AcDbEntity
  8
0
  6
CONTINUOUS
 62
     2
100
AcDbLine
 10
170.1188023140377
 20
505.0599012517088
 30
0.0
 11
392.1188333140377
 21
505.0599012517088
 31
0.0
  0
LINE
  5
2AB5
330
1A
100
AcDbEntity
  8
0
  6
CONTINUOUS
 62
     2
100
AcDbLine
 10
199.6188333140378
 20
392.5598702517088
 30
0.0
 11
362.6188333140377
 21
392.5598702517088
 31
0.0
  0
LINE
  5
2AB6
330
1A
100
AcDbEntity
  8
0
  6
CONTINUOUS
 62
     2
100
AcDbLine
 10
257.1188333140378
 20
456.0598702517088
 30
0.0
 11
305.1188333140378
 21
456.0598702517088
 31
0.0
  0
LINE
  5
2AB7
330
1A
100
AcDbEntity
  8
0
  6
CONTINUOUS
 62
     2
100
AcDbLine
 10
257.1188333140378
 20
434.0598702517088
 30
0.0
 11
305.1188333140378
 21
434.0598702517088
 31
0.0
  0
LINE
  5
2AB8
330
1A
100
AcDbEntity
  8
0
  6
CONTINUOUS
 62
     2
100
AcDbLine
 10
199.6188333140378
 20
497.5599012517088
 30
0.0
 11
362.6188333140377
 21
497.5599012517088
 31
0.0
  0
LINE
  5
2AB9
330
1A
100
AcDbEntity
  8
150
  6
CONTINUOUS
 62
     7
100
AcDbLine
 10
213.3188453140378
 20
438.0665542517087
 30
0.0
 11
213.3188453140378
 21
417.0531872517087
 31
0.0
  0
LINE
  5
2ABA
330
1A
100
AcDbEntity
  8
0
  6
CONTINUOUS
 62
     2
100
AcDbLine
 10
191.6188333140378
 20
497.0599012517088
 30
0.0
 11
191.6188333140378
 21
393.0598702517088
 31
0.0
  0
LINE
  5
2ABB
330
1A
100
AcDbEntity
  8
0
  6
CONTINUOUS
 62
     2
100
AcDbLine
 10
196.6188333140378
 20
497.0599012517088
 30
0.0
 11
196.6188333140378
 21
393.0598702517088
 31
0.0
  0
LINE
  5
2ABC
330
1A
100
AcDbEntity
  8
225
  6
CENTER
 62
     3
100
AcDbLine
 10
218.1188333140378
 20
421.0598702517088
 30
0.0
 11
218.1188333140378
 21
434.0598702517088
 31
0.0
  0
LINE
  5
2ABD
330
1A
100
AcDbEntity
  8
225
  6
CENTER
 62
     3
100
AcDbLine
 10
281.1188333140378
 20
515.0599012517089
 30
0.0
 11
281.1188333140378
 21
385.0598702517088
 31
0.0
  0
LINE
  5
2ABE
330
1A
100
AcDbEntity
  8
150
  6
HIDDEN2
 62
     7
100
AcDbLine
 10
198.6188333140378
 20
496.5599012517088
 30
0.0
 11
198.6188333140378
 21
393.5598702517088
 31
0.0
  0
CIRCLE
  5
2ABF
330
1A
100
AcDbEntity
  8
150
  6
CONTINUOUS
 62
     7
100
AcDbCircle
 10
218.1188633140377
 20
427.5598702517088
 30
0.0
 40
4.5
  0
LINE
  5
2AC0
330
1A
100
AcDbEntity
  8
0
  6
CONTINUOUS
 62
     2
100
AcDbLine
 10
230.1188333140378
 20
392.5598702517088
 30
0.0
 11
230.1188333140378
 21
497.5599012517088
 31
0.0
  0
LINE
  5
2AC2
330
1A
100
AcDbEntity
  8
150
  6
HIDDEN2
 62
     7
100
AcDbLine
 10
198.6188333140378
 20
403.0598702517088
 30
0.0
 11
213.3188453140378
 21
403.0598702517088
 31
0.0
  0
LINE
  5
2AC3
330
1A
100
AcDbEntity
  8
150
  6
HIDDEN2
 62
     7
100
AcDbLine
 10
198.6188333140378
 20
417.0598702517088
 30
0.0
 11
213.3188453140378
 21
417.0598702517088
 31
0.0
  0
LINE
  5
2AC4
330
1A
100
AcDbEntity
  8
225
  6
CONTINUOUS
 62
     3
100
AcDbLine
 10
199.6188633140377
 20
410.0598702517088
 30
0.0
 11
218.6188333140378
 21
410.0598702517088
 31
0.0
  0
LINE
  5
2AC6
330
1A
100
AcDbEntity
  8
0
  6
CONTINUOUS
 62
     2
100
AcDbLine
 10
187.6188333140378
 20
398.0598702517088
 30
0.0
 11
191.6188333140378
 21
398.0598702517088
 31
0.0
  0
LINE
  5
2AC7
330
1A
100
AcDbEntity
  8
0
  6
CONTINUOUS
 62
     2
100
AcDbLine
 10
187.6188333140378
 20
401.0598702517088
 30
0.0
 11
187.6188333140378
 21
398.0598702517088
 31
0.0
  0
LINE
  5
2AC8
330
1A
100
AcDbEntity
  8
0
  6
CONTINUOUS
 62
     2
100
AcDbLine
 10
187.6188333140378
 20
401.0598702517088
 30
0.0
 11
191.6188333140378
 21
401.0598702517088
 31
0.0
  0
LINE
  5
2AC9
330
1A
100
AcDbEntity
  8
150
  6
CONTINUOUS
 62
     7
100
AcDbLine
 10
216.1188333140378
 20
414.0598702517088
 30
0.0
 11
216.1188333140378
 21
406.0598702517088
 31
0.0
  0
LINE
  5
2ACA
330
1A
100
AcDbEntity
  8
225
  6
CONTINUOUS
 62
     3
100
AcDbLine
 10
209.1188333140378
 20
400.5598702517088
 30
0.0
 11
209.1188333140378
 21
419.5598702517088
 31
0.0
  0
CIRCLE
  5
2ACB
330
1A
100
AcDbEntity
  8
150
  6
CONTINUOUS
 62
     7
100
AcDbCircle
 10
209.1188333140378
 20
410.0598702517088
 30
0.0
 40
6.5
  0
CIRCLE
  5
2ACC
330
1A
100
AcDbEntity
  8
150
  6
CONTINUOUS
 62
     7
100
AcDbCircle
 10
209.1188333140378
 20
410.0598702517088
 30
0.0
 40
5.0
  0
LINE
  5
2ACD
330
1A
100
AcDbEntity
  8
225
  6
CENTER
 62
     3
100
AcDbLine
 10
207.1188333140378
 20
394.409907251709
 30
0.0
 11
207.1188333140378
 21
402.7098952517087
 31
0.0
  0
LINE
  5
2ACE
330
1A
100
AcDbEntity
  8
150
  6
CONTINUOUS
 62
     7
100
AcDbLine
 10
213.3188453140378
 20
403.0665542517088
 30
0.0
 11
213.3188453140378
 21
393.0598702517088
 31
0.0
  0
LINE
  5
2ACF
330
1A
100
AcDbEntity
  8
225
  6
CENTER
 62
     3
100
AcDbLine
 10
202.9688093140378
 20
398.5598702517088
 30
0.0
 11
211.2687963140376
 21
398.5598702517088
 31
0.0
  0
LINE
  5
2AD0
330
1A
100
AcDbEntity
  8
150
  6
CONTINUOUS
100
AcDbLine
 10
208.2678813140378
 20
397.8704482517089
 30
0.0
 11
207.8082563140378
 21
397.4108232517089
 31
0.0
  0
LINE
  5
2AD1
330
1A
100
AcDbEntity
  8
150
  6
CONTINUOUS
100
AcDbLine
 10
207.8082563140378
 20
399.7089182517086
 30
0.0
 11
208.2678813140378
 21
399.2492932517086
 31
0.0
  0
LINE
  5
2AD2
330
1A
100
AcDbEntity
  8
150
  6
CONTINUOUS
100
AcDbLine
 10
208.2678813140378
 20
399.2492932517086
 30
0.0
 11
207.8082863140378
 21
398.7896982517088
 31
0.0
  0
LINE
  5
2AD3
330
1A
100
AcDbEntity
  8
150
  6
CONTINUOUS
100
AcDbLine
 10
207.8082863140378
 20
398.3300432517087
 30
0.0
 11
208.2678813140378
 21
397.8704482517089
 31
0.0
  0
LINE
  5
2AD4
330
1A
100
AcDbEntity
  8
150
  6
CONTINUOUS
100
AcDbLine
 10
207.8082563140378
 20
397.4108232517089
 30
0.0
 11
207.3486613140378
 21
397.8704172517089
 31
0.0
  0
LINE
  5
2AD5
330
1A
100
AcDbEntity
  8
150
  6
CONTINUOUS
100
AcDbLine
 10
206.8890053140378
 20
397.8704172517089
 30
0.0
 11
206.4294103140377
 21
397.4108232517089
 31
0.0
  0
LINE
  5
2AD6
330
1A
100
AcDbEntity
  8
150
  6
CONTINUOUS
100
AcDbLine
 10
206.4294103140377
 20
397.4108232517089
 30
0.0
 11
205.9697853140378
 21
397.8704482517089
 31
0.0
  0
LINE
  5
2AD7
330
1A
100
AcDbEntity
  8
150
  6
CONTINUOUS
100
AcDbLine
 10
205.9697853140378
 20
397.8704482517089
 30
0.0
 11
206.4293803140376
 21
398.3300432517087
 31
0.0
  0
LINE
  5
2AD8
330
1A
100
AcDbEntity
  8
150
  6
CONTINUOUS
100
AcDbLine
 10
206.4293803140376
 20
398.7896982517088
 30
0.0
 11
205.9697853140378
 21
399.2492932517086
 31
0.0
  0
LINE
  5
2AD9
330
1A
100
AcDbEntity
  8
150
  6
CONTINUOUS
100
AcDbLine
 10
205.9697853140378
 20
399.2492932517086
 30
0.0
 11
206.4294103140377
 21
399.7089182517086
 31
0.0
  0
LINE
  5
2ADA
330
1A
100
AcDbEntity
  8
150
  6
CONTINUOUS
100
AcDbLine
 10
206.4294103140377
 20
399.7089182517086
 30
0.0
 11
206.8890053140378
 21
399.2493242517086
 31
0.0
  0
LINE
  5
2ADB
330
1A
100
AcDbEntity
  8
150
  6
CONTINUOUS
100
AcDbLine
 10
207.3486613140378
 20
399.2493242517086
 30
0.0
 11
207.8082563140378
 21
399.7089182517086
 31
0.0
  0
ARC
  5
2ADC
330
1A
100
AcDbEntity
  8
150
  6
CONTINUOUS
100
AcDbCircle
 10
207.1188173140376
 20
397.6406422517086
 30
0.0
 40
0.325
100
AcDbArc
 50
45.00001599999972
 51
135.0000119999983
  0
ARC
  5
2ADD
330
1A
100
AcDbEntity
  8
150
  6
CONTINUOUS
100
AcDbCircle
 10
206.1995433140377
 20
398.5599152517086
 30
0.0
 40
0.325
100
AcDbArc
 50
315.0000069999989
 51
45.00001599999972
  0
ARC
  5
2ADE
330
1A
100
AcDbEntity
  8
150
  6
CONTINUOUS
100
AcDbCircle
 10
207.1188163140377
 20
399.4791892517089
 30
0.0
 40
0.325
100
AcDbArc
 50
225.0000140000002
 51
315.0000169999989
  0
ARC
  5
2ADF
330
1A
100
AcDbEntity
  8
150
  6
CONTINUOUS
100
AcDbCircle
 10
208.0380903140378
 20
398.5599162517089
 30
0.0
 40
0.325
100
AcDbArc
 50
135.0000119999983
 51
225.0000140000002
  0
CIRCLE
  5
2AE0
330
1A
100
AcDbEntity
  8
150
  6
CONTINUOUS
100
AcDbCircle
 10
207.1188163140377
 20
398.5599152517086
 30
0.0
 40
2.25
  0
ARC
  5
2AE1
330
1A
100
AcDbEntity
  8
150
  6
CONTINUOUS
 62
     7
100
AcDbCircle
 10
213.1188333140378
 20
406.0598702517088
 30
0.0
 40
3.0
100
AcDbArc
 50
273.8227759999996
 51
0.0000100000010064
  0
LINE
  5
2AE2
330
1A
100
AcDbEntity
  8
225
  6
CENTER
 62
     3
100
AcDbLine
 10
211.6188633140377
 20
427.5598702517088
 30
0.0
 11
224.6188633140377
 21
427.5598702517088
 31
0.0
  0
LINE
  5
2AE3
330
1A
100
AcDbEntity
  8
150
  6
CONTINUOUS
 62
     7
100
AcDbLine
 10
209.1188333140378
 20
407.1731212517086
 30
0.0
 11
211.6188333140378
 21
408.6164802517089
 31
0.0
  0
LINE
  5
2AE4
330
1A
100
AcDbEntity
  8
150
  6
CONTINUOUS
 62
     7
100
AcDbLine
 10
211.6188333140378
 20
411.5032602517088
 30
0.0
 11
209.1188333140378
 21
412.946620251709
 31
0.0
  0
LINE
  5
2AE5
330
1A
100
AcDbEntity
  8
150
  6
CONTINUOUS
 62
     7
100
AcDbLine
 10
206.6188333140378
 20
411.5032602517088
 30
0.0
 11
206.6188333140378
 21
408.6164802517089
 31
0.0
  0
LINE
  5
2AE6
330
1A
100
AcDbEntity
  8
150
  6
CONTINUOUS
 62
     7
100
AcDbLine
 10
206.6188333140378
 20
408.6164802517089
 30
0.0
 11
209.1188333140378
 21
407.1731212517086
 31
0.0
  0
LINE
  5
2AE7
330
1A
100
AcDbEntity
  8
150
  6
CONTINUOUS
 62
     7
100
AcDbLine
 10
209.1188333140378
 20
412.946620251709
 30
0.0
 11
206.6188333140378
 21
411.5032602517088
 31
0.0
  0
ARC
  5
2AE8
330
1A
100
AcDbEntity
  8
150
  6
CONTINUOUS
 62
     7
100
AcDbCircle
 10
213.1188333140378
 20
414.0598702517088
 30
0.0
 40
3.0
100
AcDbArc
 50
0.0
 51
86.17721399999934
  0
LINE
  5
2AE9
330
1A
100
AcDbEntity
  8
150
  6
CONTINUOUS
 62
     7
100
AcDbLine
 10
211.6188333140378
 20
408.6164802517089
 30
0.0
 11
211.6188333140378
 21
411.5032602517088
 31
0.0
  0
LINE
  5
2AEA
330
1A
100
AcDbEntity
  8
210
  6
CONTINUOUS
 62
     4
100
AcDbLine
 10
281.1188413140378
 20
384.8726722517087
 30
0.0
 11
281.1188413140378
 21
366.0072542517089
 31
0.0
  0
LINE
  5
2AEB
330
1A
100
AcDbEntity
  8
210
  6
CONTINUOUS
 62
     4
100
AcDbLine
 10
281.1188413140378
 20
370.0697542517088
 30
0.0
 11
283.0908673140377
 21
369.7364212517088
 31
0.0
  0
LINE
  5
2AEC
330
1A
100
AcDbEntity
  8
210
  6
CONTINUOUS
 62
     4
100
AcDbLine
 10
281.1188413140378
 20
370.0697542517088
 30
0.0
 11
283.0908673140377
 21
370.4030882517088
 31
0.0
  0
LINE
  5
2AED
330
1A
100
AcDbEntity
  8
225
  6
CENTER
 62
     3
100
AcDbLine
 10
174.1188023140377
 20
476.5598702517088
 30
0.0
 11
174.1188023140377
 21
458.5598702517088
 31
0.0
  0
LINE
  5
2AEE
330
1A
100
AcDbEntity
  8
225
  6
CENTER
 62
     3
100
AcDbLine
 10
209.1188333140378
 20
470.5598702517088
 30
0.0
 11
209.1188333140378
 21
489.5599012517088
 31
0.0
  0
ARC
  5
2AEF
330
1A
100
AcDbEntity
  8
150
  6
CONTINUOUS
 62
     7
100
AcDbCircle
 10
213.1188333140378
 20
476.0598702517088
 30
0.0
 40
3.0
100
AcDbArc
 50
273.8227759999996
 51
0.0000100000010064
  0
CIRCLE
  5
2AF0
330
1A
100
AcDbEntity
  8
150
  6
CONTINUOUS
 62
     7
100
AcDbCircle
 10
209.1188333140378
 20
480.0598702517088
 30
0.0
 40
6.5
  0
CIRCLE
  5
2AF1
330
1A
100
AcDbEntity
  8
150
  6
CONTINUOUS
 62
     7
100
AcDbCircle
 10
209.1188333140378
 20
480.0598702517088
 30
0.0
 40
5.0
  0
LINE
  5
2AF2
330
1A
100
AcDbEntity
  8
150
  6
HIDDEN2
 62
     7
100
AcDbLine
 10
198.6188333140378
 20
438.0598702517088
 30
0.0
 11
213.3188453140378
 21
438.0598702517088
 31
0.0
  0
LINE
  5
2AF3
330
1A
100
AcDbEntity
  8
150
  6
HIDDEN2
 62
     7
100
AcDbLine
 10
198.6188333140378
 20
452.0598702517088
 30
0.0
 11
213.3188453140378
 21
452.0598702517088
 31
0.0
  0
LINE
  5
2AF4
330
1A
100
AcDbEntity
  8
150
  6
HIDDEN2
 62
     7
100
AcDbLine
 10
198.6188333140378
 20
473.0598702517088
 30
0.0
 11
213.3188453140378
 21
473.0598702517088
 31
0.0
  0
LINE
  5
2AF5
330
1A
100
AcDbEntity
  8
225
  6
CONTINUOUS
 62
     3
100
AcDbLine
 10
199.6188633140377
 20
445.0598702517088
 30
0.0
 11
218.6188333140378
 21
445.0598702517088
 31
0.0
  0
ARC
  5
2AF6
330
1A
100
AcDbEntity
  8
0
  6
CONTINUOUS
 62
     2
100
AcDbCircle
 10
174.1188023140377
 20
467.5598702517088
 30
0.0
 40
7.0
100
AcDbArc
 50
270.0
 51
89.99999100000039
  0
CIRCLE
  5
2AF7
330
1A
100
AcDbEntity
  8
150
  6
CENTER
100
AcDbCircle
 10
174.1188113140376
 20
467.5598792517087
 30
0.0
 40
5.25
  0
ARC
  5
2AF8
330
1A
100
AcDbEntity
  8
150
  6
CENTER
100
AcDbCircle
 10
174.1188113140376
 20
465.4385582517086
 30
0.0
 40
0.75
100
AcDbArc
 50
44.99998300000108
 51
134.9999859999998
  0
LINE
  5
2AF9
330
1A
100
AcDbEntity
  8
150
  6
CENTER
100
AcDbLine
 10
176.8765233140377
 20
469.2569222517088
 30
0.0
 11
175.8158543140377
 21
470.3175912517088
 31
0.0
  0
LINE
  5
2AFA
330
1A
100
AcDbEntity
  8
150
  6
CENTER
100
AcDbLine
 10
175.8158543140377
 20
470.3175912517088
 30
0.0
 11
174.6491373140377
 21
469.1508742517087
 31
0.0
  0
LINE
  5
2AFB
330
1A
100
AcDbEntity
  8
150
  6
CENTER
100
AcDbLine
 10
173.5884683140377
 20
469.1508742517087
 30
0.0
 11
172.4217503140378
 21
470.3175912517088
 31
0.0
  0
LINE
  5
2AFC
330
1A
100
AcDbEntity
  8
150
  6
CENTER
100
AcDbLine
 10
172.4217503140378
 20
470.3175912517088
 30
0.0
 11
171.3610973140378
 21
469.2569222517088
 31
0.0
  0
LINE
  5
2AFD
330
1A
100
AcDbEntity
  8
150
  6
CENTER
100
AcDbLine
 10
171.3610973140378
 20
469.2569222517088
 30
0.0
 11
172.5278143140376
 21
468.0902052517088
 31
0.0
  0
LINE
  5
2AFE
330
1A
100
AcDbEntity
  8
150
  6
CENTER
100
AcDbLine
 10
172.5278143140376
 20
467.0295362517087
 30
0.0
 11
171.3610973140378
 21
465.8628182517088
 31
0.0
  0
LINE
  5
2AFF
330
1A
100
AcDbEntity
  8
150
  6
CENTER
100
AcDbLine
 10
171.3610973140378
 20
465.8628182517088
 30
0.0
 11
172.4217503140378
 21
464.8021492517089
 31
0.0
  0
LINE
  5
2B00
330
1A
100
AcDbEntity
  8
150
  6
CENTER
100
AcDbLine
 10
172.4217503140378
 20
464.8021492517089
 30
0.0
 11
173.5884683140377
 21
465.9688672517088
 31
0.0
  0
LINE
  5
2B01
330
1A
100
AcDbEntity
  8
150
  6
CENTER
100
AcDbLine
 10
174.6491373140377
 20
465.9688672517088
 30
0.0
 11
175.8158543140377
 21
464.8021492517089
 31
0.0
  0
LINE
  5
2B02
330
1A
100
AcDbEntity
  8
150
  6
CENTER
100
AcDbLine
 10
175.8158543140377
 20
464.8021492517089
 30
0.0
 11
176.8765233140377
 21
465.8628182517088
 31
0.0
  0
LINE
  5
2B03
330
1A
100
AcDbEntity
  8
150
  6
CENTER
100
AcDbLine
 10
176.8765233140377
 20
465.8628182517088
 30
0.0
 11
175.7098063140376
 21
467.0295362517087
 31
0.0
  0
LINE
  5
2B04
330
1A
100
AcDbEntity
  8
150
  6
CENTER
100
AcDbLine
 10
175.7098063140376
 20
468.0902052517088
 30
0.0
 11
176.8765233140377
 21
469.2569222517088
 31
0.0
  0
ARC
  5
2B05
330
1A
100
AcDbEntity
  8
150
  6
CENTER
100
AcDbCircle
 10
174.1188123140377
 20
469.6811992517089
 30
0.0
 40
0.75
100
AcDbArc
 50
224.9999880000004
 51
314.9999840000002
  0
ARC
  5
2B06
330
1A
100
AcDbEntity
  8
150
  6
CENTER
100
AcDbCircle
 10
171.9974913140377
 20
467.5598792517087
 30
0.0
 40
0.75
100
AcDbArc
 50
314.9999840000002
 51
44.99999300000106
  0
ARC
  5
2B07
330
1A
100
AcDbEntity
  8
150
  6
CENTER
100
AcDbCircle
 10
176.2401323140377
 20
467.5598782517088
 30
0.0
 40
0.75
100
AcDbArc
 50
134.9999859999998
 51
224.9999880000004
  0
LINE
  5
2B08
330
1A
100
AcDbEntity
  8
150
  6
CONTINUOUS
 62
     7
100
AcDbLine
 10
213.3188453140378
 20
473.0665542517088
 30
0.0
 11
213.3188453140378
 21
452.0531872517087
 31
0.0
  0
LINE
  5
2B09
330
1A
100
AcDbEntity
  8
225
  6
CENTER
 62
     3
100
AcDbLine
 10
209.1188333140378
 20
435.5598702517088
 30
0.0
 11
209.1188333140378
 21
454.5598702517088
 31
0.0
  0
LINE
  5
2B0A
330
1A
100
AcDbEntity
  8
150
  6
CONTINUOUS
 62
     7
100
AcDbLine
 10
216.1188333140378
 20
449.0598702517088
 30
0.0
 11
216.1188333140378
 21
441.0598702517088
 31
0.0
  0
CIRCLE
  5
2B0B
330
1A
100
AcDbEntity
  8
150
  6
CONTINUOUS
 62
     7
100
AcDbCircle
 10
209.1188333140378
 20
445.0598702517088
 30
0.0
 40
5.0
  0
CIRCLE
  5
2B0C
330
1A
100
AcDbEntity
  8
150
  6
CONTINUOUS
 62
     7
100
AcDbCircle
 10
209.1188333140378
 20
445.0598702517088
 30
0.0
 40
6.5
  0
ARC
  5
2B0D
330
1A
100
AcDbEntity
  8
150
  6
CONTINUOUS
 62
     7
100
AcDbCircle
 10
213.1188333140378
 20
441.0598702517088
 30
0.0
 40
3.0
100
AcDbArc
 50
273.8227759999996
 51
0.0000100000010064
  0
LINE
  5
2B0E
330
1A
100
AcDbEntity
  8
150
  6
CONTINUOUS
 62
     7
100
AcDbLine
 10
211.6188333140378
 20
446.5032602517087
 30
0.0
 11
209.1188333140378
 21
447.9466202517089
 31
0.0
  0
LINE
  5
2B0F
330
1A
100
AcDbEntity
  8
150
  6
CONTINUOUS
 62
     7
100
AcDbLine
 10
209.1188333140378
 20
442.1731212517086
 30
0.0
 11
211.6188333140378
 21
443.6164802517089
 31
0.0
  0
LINE
  5
2B10
330
1A
100
AcDbEntity
  8
150
  6
CONTINUOUS
 62
     7
100
AcDbLine
 10
209.1188333140378
 20
447.9466202517089
 30
0.0
 11
206.6188333140378
 21
446.5032602517087
 31
0.0
  0
LINE
  5
2B11
330
1A
100
AcDbEntity
  8
150
  6
CONTINUOUS
 62
     7
100
AcDbLine
 10
206.6188333140378
 20
443.6164802517089
 30
0.0
 11
209.1188333140378
 21
442.1731212517086
 31
0.0
  0
LINE
  5
2B12
330
1A
100
AcDbEntity
  8
150
  6
CONTINUOUS
 62
     7
100
AcDbLine
 10
206.6188333140378
 20
446.5032602517087
 30
0.0
 11
206.6188333140378
 21
443.6164802517089
 31
0.0
  0
ARC
  5
2B13
330
1A
100
AcDbEntity
  8
150
  6
CONTINUOUS
 62
     7
100
AcDbCircle
 10
213.1188333140378
 20
449.0598702517088
 30
0.0
 40
3.0
100
AcDbArc
 50
0.0
 51
86.17721399999934
  0
LINE
  5
2B14
330
1A
100
AcDbEntity
  8
150
  6
CONTINUOUS
 62
     7
100
AcDbLine
 10
211.6188333140378
 20
443.6164802517089
 30
0.0
 11
211.6188333140378
 21
446.5032602517087
 31
0.0
  0
LINE
  5
2B15
330
1A
100
AcDbEntity
  8
225
  6
CENTER
 62
     3
100
AcDbLine
 10
211.6188633140377
 20
462.5598702517088
 30
0.0
 11
224.6188633140377
 21
462.5598702517088
 31
0.0
  0
CIRCLE
  5
2B16
330
1A
100
AcDbEntity
  8
150
  6
CONTINUOUS
 62
     7
100
AcDbCircle
 10
218.1188633140377
 20
462.5598702517088
 30
0.0
 40
4.5
  0
LINE
  5
2B17
330
1A
100
AcDbEntity
  8
225
  6
CENTER
 62
     3
100
AcDbLine
 10
218.1188333140378
 20
469.0598702517088
 30
0.0
 11
218.1188333140378
 21
456.0598702517088
 31
0.0
  0
LINE
  5
2B18
330
1A
100
AcDbEntity
  8
0
  6
CONTINUOUS
 62
     2
100
AcDbLine
 10
191.6188333140378
 20
497.0599012517088
 30
0.0
 11
198.7528079102533
 21
497.0599012517088
 31
0.0
  0
LINE
  5
2B19
330
1A
100
AcDbEntity
  8
225
  6
CENTER
 62
     3
100
AcDbLine
 10
199.6188633140377
 20
480.0598702517088
 30
0.0
 11
218.6188333140378
 21
480.0598702517088
 31
0.0
  0
LINE
  5
2B1A
330
1A
100
AcDbEntity
  8
150
  6
HIDDEN2
 62
     7
100
AcDbLine
 10
198.6188333140378
 20
487.0599012517089
 30
0.0
 11
213.3188453140378
 21
487.0599012517089
 31
0.0
  0
LINE
  5
2B1B
330
1A
100
AcDbEntity
  8
0
  6
CONTINUOUS
 62
     2
100
AcDbLine
 10
187.6188333140378
 20
492.0598702517088
 30
0.0
 11
187.6188333140378
 21
489.0598702517088
 31
0.0
  0
LINE
  5
2B1C
330
1A
100
AcDbEntity
  8
0
  6
CONTINUOUS
 62
     2
100
AcDbLine
 10
187.6188333140378
 20
492.0598702517088
 30
0.0
 11
191.6188333140378
 21
492.0598702517088
 31
0.0
  0
LINE
  5
2B1D
330
1A
100
AcDbEntity
  8
0
  6
CONTINUOUS
 62
     2
100
AcDbLine
 10
187.6188333140378
 20
489.0598702517088
 30
0.0
 11
191.6188333140378
 21
489.0598702517088
 31
0.0
  0
ARC
  5
2B1E
330
1A
100
AcDbEntity
  8
0
  6
CONTINUOUS
 62
     2
100
AcDbCircle
 10
199.6188333140378
 20
496.5599012517088
 30
0.0
 40
1.0
100
AcDbArc
 50
90.0
 51
150.0000000000031
  0
LINE
  5
2B1F
330
1A
100
AcDbEntity
  8
150
  6
CONTINUOUS
 62
     7
100
AcDbLine
 10
213.3188453140378
 20
487.0531872517087
 30
0.0
 11
213.3188453140378
 21
497.0599012517088
 31
0.0
  0
LINE
  5
2B20
330
1A
100
AcDbEntity
  8
225
  6
CENTER
 62
     3
100
AcDbLine
 10
207.1188333140378
 20
495.709834251709
 30
0.0
 11
207.1188333140378
 21
487.4098462517088
 31
0.0
  0
ARC
  5
2B21
330
1A
100
AcDbEntity
  8
150
  6
CONTINUOUS
 62
     7
100
AcDbCircle
 10
213.1188333140378
 20
484.0598702517088
 30
0.0
 40
3.0
100
AcDbArc
 50
0.0
 51
86.17721399999934
  0
LINE
  5
2B22
330
1A
100
AcDbEntity
  8
150
  6
CONTINUOUS
 62
     7
100
AcDbLine
 10
211.6188333140378
 20
481.5032602517087
 30
0.0
 11
209.1188333140378
 21
482.9466202517089
 31
0.0
  0
LINE
  5
2B23
330
1A
100
AcDbEntity
  8
150
  6
CONTINUOUS
 62
     7
100
AcDbLine
 10
209.1188333140378
 20
477.1731212517086
 30
0.0
 11
211.6188333140378
 21
478.6164802517089
 31
0.0
  0
LINE
  5
2B24
330
1A
100
AcDbEntity
  8
150
  6
CONTINUOUS
 62
     7
100
AcDbLine
 10
209.1188333140378
 20
482.9466202517089
 30
0.0
 11
206.6188333140378
 21
481.5032602517087
 31
0.0
  0
LINE
  5
2B25
330
1A
100
AcDbEntity
  8
150
  6
CONTINUOUS
 62
     7
100
AcDbLine
 10
206.6188333140378
 20
478.6164802517089
 30
0.0
 11
209.1188333140378
 21
477.1731212517086
 31
0.0
  0
LINE
  5
2B26
330
1A
100
AcDbEntity
  8
150
  6
CONTINUOUS
 62
     7
100
AcDbLine
 10
206.6188333140378
 20
481.5032602517087
 30
0.0
 11
206.6188333140378
 21
478.6164802517089
 31
0.0
  0
LINE
  5
2B27
330
1A
100
AcDbEntity
  8
150
  6
CONTINUOUS
 62
     7
100
AcDbLine
 10
216.1188333140378
 20
476.0598702517088
 30
0.0
 11
216.1188333140378
 21
484.0598702517088
 31
0.0
  0
LINE
  5
2B28
330
1A
100
AcDbEntity
  8
150
  6
CONTINUOUS
 62
     7
100
AcDbLine
 10
211.6188333140378
 20
478.6164802517089
 30
0.0
 11
211.6188333140378
 21
481.5032602517087
 31
0.0
  0
LINE
  5
2B29
330
1A
100
AcDbEntity
  8
225
  6
CENTER
 62
     3
100
AcDbLine
 10
202.9688093140378
 20
491.5598702517088
 30
0.0
 11
211.2687963140376
 21
491.5598702517088
 31
0.0
  0
ARC
  5
2B2A
330
1A
100
AcDbEntity
  8
150
  6
CONTINUOUS
100
AcDbCircle
 10
208.0380963140378
 20
491.5598632517087
 30
0.0
 40
0.325
100
AcDbArc
 50
134.9999859999998
 51
224.9999880000004
  0
ARC
  5
2B2B
330
1A
100
AcDbEntity
  8
150
  6
CONTINUOUS
100
AcDbCircle
 10
207.1188223140377
 20
490.6405902517088
 30
0.0
 40
0.325
100
AcDbArc
 50
44.99998300000108
 51
134.9999859999998
  0
ARC
  5
2B2C
330
1A
100
AcDbEntity
  8
150
  6
CONTINUOUS
100
AcDbCircle
 10
206.1995493140377
 20
491.5598642517086
 30
0.0
 40
0.325
100
AcDbArc
 50
314.9999840000002
 51
44.99999300000106
  0
ARC
  5
2B2D
330
1A
100
AcDbEntity
  8
150
  6
CONTINUOUS
100
AcDbCircle
 10
207.1188233140378
 20
492.4791372517086
 30
0.0
 40
0.325
100
AcDbArc
 50
224.9999880000004
 51
314.9999840000002
  0
LINE
  5
2B2E
330
1A
100
AcDbEntity
  8
150
  6
CONTINUOUS
100
AcDbLine
 10
207.8082863140378
 20
491.7896982517088
 30
0.0
 11
208.2678813140378
 21
492.2492932517086
 31
0.0
  0
LINE
  5
2B2F
330
1A
100
AcDbEntity
  8
150
  6
CONTINUOUS
100
AcDbLine
 10
208.2678813140378
 20
490.8704482517089
 30
0.0
 11
207.8082863140378
 21
491.3300432517087
 31
0.0
  0
LINE
  5
2B30
330
1A
100
AcDbEntity
  8
150
  6
CONTINUOUS
100
AcDbLine
 10
207.8082563140378
 20
490.4108232517089
 30
0.0
 11
208.2678813140378
 21
490.8704482517089
 31
0.0
  0
LINE
  5
2B31
330
1A
100
AcDbEntity
  8
150
  6
CONTINUOUS
100
AcDbLine
 10
207.3486613140378
 20
490.8704172517088
 30
0.0
 11
207.8082563140378
 21
490.4108232517089
 31
0.0
  0
LINE
  5
2B32
330
1A
100
AcDbEntity
  8
150
  6
CONTINUOUS
100
AcDbLine
 10
206.4294103140377
 20
490.4108232517089
 30
0.0
 11
206.8890053140378
 21
490.8704172517088
 31
0.0
  0
LINE
  5
2B33
330
1A
100
AcDbEntity
  8
150
  6
CONTINUOUS
100
AcDbLine
 10
205.9697853140378
 20
490.8704482517089
 30
0.0
 11
206.4294103140377
 21
490.4108232517089
 31
0.0
  0
LINE
  5
2B34
330
1A
100
AcDbEntity
  8
150
  6
CONTINUOUS
100
AcDbLine
 10
206.4293803140376
 20
491.3300432517087
 30
0.0
 11
205.9697853140378
 21
490.8704482517089
 31
0.0
  0
LINE
  5
2B35
330
1A
100
AcDbEntity
  8
150
  6
CONTINUOUS
100
AcDbLine
 10
205.9697853140378
 20
492.2492932517086
 30
0.0
 11
206.4293803140376
 21
491.7896982517088
 31
0.0
  0
LINE
  5
2B36
330
1A
100
AcDbEntity
  8
150
  6
CONTINUOUS
100
AcDbLine
 10
206.4294103140377
 20
492.7089182517086
 30
0.0
 11
205.9697853140378
 21
492.2492932517086
 31
0.0
  0
LINE
  5
2B37
330
1A
100
AcDbEntity
  8
150
  6
CONTINUOUS
100
AcDbLine
 10
206.8890053140378
 20
492.2493242517086
 30
0.0
 11
206.4294103140377
 21
492.7089182517086
 31
0.0
  0
LINE
  5
2B38
330
1A
100
AcDbEntity
  8
150
  6
CONTINUOUS
100
AcDbLine
 10
207.8082563140378
 20
492.7089182517086
 30
0.0
 11
207.3486613140378
 21
492.2493242517086
 31
0.0
  0
LINE
  5
2B39
330
1A
100
AcDbEntity
  8
150
  6
CONTINUOUS
100
AcDbLine
 10
208.2678813140378
 20
492.2492932517086
 30
0.0
 11
207.8082563140378
 21
492.7089182517086
 31
0.0
  0
CIRCLE
  5
2B3A
330
1A
100
AcDbEntity
  8
150
  6
CONTINUOUS
100
AcDbCircle
 10
207.1188223140377
 20
491.5598632517087
 30
0.0
 40
2.25
  0
LINE
  5
2B3B
330
1A
100
AcDbEntity
  8
0
  6
CONTINUOUS
 62
     2
100
AcDbLine
 10
261.9419843140376
 20
440.0598702517088
 30
0.0
 11
276.2559793140378
 21
440.0598702517088
 31
0.0
  0
LINE
  5
2B3C
330
1A
100
AcDbEntity
  8
0
  6
CONTINUOUS
 62
     2
100
AcDbLine
 10
261.9419843140376
 20
450.0598702517088
 30
0.0
 11
276.2559793140378
 21
450.0598702517088
 31
0.0
  0
ARC
  5
2B3D
330
1A
100
AcDbEntity
  8
0
  6
CONTINUOUS
 62
     2
100
AcDbCircle
 10
266.9670393140377
 20
449.0598702517088
 30
0.0
 40
1.0
100
AcDbArc
 50
0.0
 51
90.00000300000095
  0
ARC
  5
2B3E
330
1A
100
AcDbEntity
  8
0
  6
CONTINUOUS
 62
     2
100
AcDbCircle
 10
266.9670393140377
 20
441.0598702517088
 30
0.0
 40
1.0
100
AcDbArc
 50
270.0
 51
0.000008999999603
  0
LINE
  5
2B3F
330
1A
100
AcDbEntity
  8
150
  6
CONTINUOUS
 62
     7
100
AcDbLine
 10
263.6188333140378
 20
439.0598702517088
 30
0.0
 11
298.1188333140378
 21
439.0598702517088
 31
0.0
  0
LINE
  5
2B40
330
1A
100
AcDbEntity
  8
150
  6
CONTINUOUS
 62
     7
100
AcDbLine
 10
263.6188333140378
 20
451.0598702517088
 30
0.0
 11
298.1188333140378
 21
451.0598702517088
 31
0.0
  0
LINE
  5
2B41
330
1A
100
AcDbEntity
  8
0
  6
CONTINUOUS
 62
     2
100
AcDbLine
 10
256.1188333140378
 20
455.0598702517088
 30
0.0
 11
256.1188333140378
 21
435.0598702517088
 31
0.0
  0
LINE
  5
2B42
330
1A
100
AcDbEntity
  8
0
  6
CONTINUOUS
 62
     2
100
AcDbLine
 10
260.9419843140376
 20
441.0598702517088
 30
0.0
 11
260.9419843140376
 21
449.0598702517088
 31
0.0
  0
ARC
  5
2B43
330
1A
100
AcDbEntity
  8
0
  6
CONTINUOUS
 62
     2
100
AcDbCircle
 10
257.1188333140378
 20
435.0598702517088
 30
0.0
 40
1.0
100
AcDbArc
 50
180.0000050000005
 51
270.0000009999997
  0
ARC
  5
2B44
330
1A
100
AcDbEntity
  8
0
  6
CONTINUOUS
 62
     2
100
AcDbCircle
 10
261.9419843140376
 20
441.0598702517088
 30
0.0
 40
1.0
100
AcDbArc
 50
180.0000050000005
 51
270.0000009999997
  0
ARC
  5
2B46
330
1A
100
AcDbEntity
  8
0
  6
CONTINUOUS
 62
     2
100
AcDbCircle
 10
261.9419843140376
 20
449.0598702517088
 30
0.0
 40
1.0
100
AcDbArc
 50
90.0
 51
180.0000029999976
  0
LINE
  5
2B47
330
1A
100
AcDbEntity
  8
150
  6
CONTINUOUS
 62
     7
100
AcDbLine
 10
263.6188333140378
 20
451.0598702517088
 30
0.0
 11
263.6188333140378
 21
450.0598702517088
 31
0.0
  0
ARC
  5
2B48
330
1A
100
AcDbEntity
  8
0
  6
CONTINUOUS
 62
     2
100
AcDbCircle
 10
257.1188333140378
 20
455.0598702517088
 30
0.0
 40
1.0
100
AcDbArc
 50
90.0
 51
180.0000029999976
  0
LINE
  5
2B49
330
1A
100
AcDbEntity
  8
0
  6
CONTINUOUS
 62
     2
100
AcDbLine
 10
276.2559793140378
 20
440.0598702517088
 30
0.0
 11
276.2559793140378
 21
450.0598702517088
 31
0.0
  0
LINE
  5
2B4A
330
1A
100
AcDbEntity
  8
0
  6
CONTINUOUS
 62
     2
100
AcDbLine
 10
267.9670393140377
 20
449.0598702517088
 30
0.0
 11
267.9670393140377
 21
441.0598702517088
 31
0.0
  0
LINE
  5
2B4B
330
1A
100
AcDbEntity
  8
150
  6
CONTINUOUS
 62
     7
100
AcDbLine
 10
298.1188333140378
 20
451.0598702517088
 30
0.0
 11
298.1188333140378
 21
439.0598702517088
 31
0.0
  0
TEXT
  5
2B4C
330
1A
100
AcDbEntity
  8
230
 62
     6
100
AcDbText
 10
273.7821713140376
 20
517.3573212517087
 30
0.0
 40
5.0
  1
ASL
100
AcDbText
  0
TEXT
  5
2B4D
330
1A
100
AcDbEntity
  8
210
  6
CONTINUOUS
 62
     4
100
AcDbText
 10
429.9938713140377
 20
423.0182002517087
 30
0.0
 40
5.0
  1
35
 50
90.00000300000095
100
AcDbText
  0
ARC
  5
2B4E
330
1A
100
AcDbEntity
  8
0
  6
CONTINUOUS
 62
     2
100
AcDbCircle
 10
395.1188333140377
 20
430.5598702517088
 30
0.0
 40
1.0
100
AcDbArc
 50
270.0
 51
0.000008999999603
  0
LINE
  5
2B4F
330
1A
100
AcDbEntity
  8
225
  6
CENTER
 62
     3
100
AcDbLine
 10
388.1188633140377
 20
431.5598402517086
 30
0.0
 11
388.1188633140377
 21
413.5598402517087
 31
0.0
  0
LINE
  5
2B50
330
1A
100
AcDbEntity
  8
0
  6
CONTINUOUS
 62
     2
100
AcDbLine
 10
365.1188333140377
 20
496.5599012517088
 30
0.0
 11
365.1188333140377
 21
393.5598702517088
 31
0.0
  0
LINE
  5
2B51
330
1A
100
AcDbEntity
  8
150
  6
PHANTOM2
 62
     7
100
AcDbLine
 10
348.9188213140376
 20
438.0665451440975
 30
0.0
 11
348.9188213140376
 21
417.0598702517088
 31
0.0
  0
LINE
  5
2B52
330
1A
100
AcDbEntity
  8
150
  6
PHANTOM2
 62
     7
100
AcDbLine
 10
418.6188333140377
 20
495.0599012517089
 30
0.0
 11
418.6188333140377
 21
395.0598702517088
 31
0.0
  0
LINE
  5
2B53
330
1A
100
AcDbEntity
  8
225
  6
CENTER
 62
     3
100
AcDbLine
 10
344.1188333140377
 20
421.0598702517088
 30
0.0
 11
344.1188333140377
 21
434.0598702517088
 31
0.0
  0
LINE
  5
2B54
330
1A
100
AcDbEntity
  8
0
  6
CONTINUOUS
100
AcDbLine
 10
363.6188333140377
 20
496.5599012517088
 30
0.0
 11
363.6188333140377
 21
393.5598702517088
 31
0.0
  0
LINE
  5
2B55
330
1A
100
AcDbEntity
  8
0
  6
CONTINUOUS
 62
     2
100
AcDbLine
 10
332.1188333140378
 20
497.5599012517088
 30
0.0
 11
332.1188333140378
 21
392.5598702517088
 31
0.0
  0
LINE
  5
2B56
330
1A
100
AcDbEntity
  8
0
  6
CONTINUOUS
 62
     2
100
AcDbLine
 10
396.1188333140377
 20
389.0598702517088
 30
0.0
 11
396.1188333140377
 21
501.0599012517088
 31
0.0
  0
CIRCLE
  5
2B57
330
1A
100
AcDbEntity
  8
150
  6
CONTINUOUS
 62
     7
100
AcDbCircle
 10
344.1188333140377
 20
427.5598702517088
 30
0.0
 40
4.5
  0
LINE
  5
2B58
330
1A
100
AcDbEntity
  8
150
  6
PHANTOM2
 62
     7
100
AcDbLine
 10
348.9188213140376
 20
393.0598702517088
 30
0.0
 11
416.6188333140377
 21
393.0598702517088
 31
0.0
  0
LINE
  5
2B59
330
1A
100
AcDbEntity
  8
210
  6
CONTINUOUS
 62
     4
100
AcDbLine
 10
353.1188413140378
 20
400.3726722517087
 30
0.0
 11
353.1188413140378
 21
366.0072542517089
 31
0.0
  0
TEXT
  5
2B5A
330
1A
100
AcDbEntity
  8
210
  6
CONTINUOUS
 62
     4
100
AcDbText
 10
312.9105073140376
 20
373.1947542517088
 30
0.0
 40
5.0
  1
72
100
AcDbText
  0
LINE
  5
2B5B
330
1A
100
AcDbEntity
  8
210
  6
CONTINUOUS
 62
     4
100
AcDbLine
 10
353.1188413140378
 20
370.0697542517088
 30
0.0
 11
351.1468143140376
 21
369.7364212517088
 31
0.0
  0
LINE
  5
2B5C
330
1A
100
AcDbEntity
  8
210
  6
CONTINUOUS
 62
     4
100
AcDbLine
 10
353.1188413140378
 20
370.0697542517088
 30
0.0
 11
351.1468143140376
 21
370.4030882517088
 31
0.0
  0
LINE
  5
2B5D
330
1A
100
AcDbEntity
  8
225
  6
CENTER
 62
     3
100
AcDbLine
 10
353.1188333140377
 20
400.5598702517088
 30
0.0
 11
353.1188333140377
 21
419.5598702517088
 31
0.0
  0
LINE
  5
2B5E
330
1A
100
AcDbEntity
  8
150
  6
CONTINUOUS
 62
     7
100
AcDbLine
 10
346.1188333140377
 20
414.0598702517088
 30
0.0
 11
346.1188333140377
 21
406.0598702517088
 31
0.0
  0
CIRCLE
  5
2B5F
330
1A
100
AcDbEntity
  8
150
  6
CONTINUOUS
 62
     7
100
AcDbCircle
 10
353.1188333140377
 20
410.0598702517088
 30
0.0
 40
6.5
  0
LINE
  5
2B60
330
1A
100
AcDbEntity
  8
150
  6
CONTINUOUS
 62
     7
100
AcDbLine
 10
363.6188333140377
 20
403.0598702517088
 30
0.0
 11
349.1188333140377
 21
403.0598702517088
 31
0.0
  0
LINE
  5
2B61
330
1A
100
AcDbEntity
  8
150
  6
PHANTOM2
 62
     7
100
AcDbLine
 10
348.9188213140376
 20
403.0665451440976
 30
0.0
 11
348.9188213140376
 21
393.0598702517088
 31
0.0
  0
ARC
  5
2B62
330
1A
100
AcDbEntity
  8
150
  6
CONTINUOUS
 62
     7
100
AcDbCircle
 10
349.1188333140377
 20
406.0598702517088
 30
0.0
 40
3.0
100
AcDbArc
 50
180.0000050000005
 51
270.0000009999997
  0
ARC
  5
2B63
330
1A
100
AcDbEntity
  8
0
  6
CONTINUOUS
 62
     2
100
AcDbCircle
 10
362.6188333140377
 20
393.5598702517088
 30
0.0
 40
1.0
100
AcDbArc
 50
270.0
 51
0.000008999999603
  0
LINE
  5
2B64
330
1A
100
AcDbEntity
  8
225
  6
CENTER
 62
     3
100
AcDbLine
 10
350.6188333140377
 20
427.5598702517088
 30
0.0
 11
337.6188333140377
 21
427.5598702517088
 31
0.0
  0
LINE
  5
2B65
330
1A
100
AcDbEntity
  8
225
  6
CONTINUOUS
 62
     3
100
AcDbLine
 10
362.6188333140377
 20
410.0598702517088
 30
0.0
 11
343.6188333140377
 21
410.0598702517088
 31
0.0
  0
LINE
  5
2B66
330
1A
100
AcDbEntity
  8
150
  6
CONTINUOUS
 62
     7
100
AcDbLine
 10
363.6188333140377
 20
417.0598702517088
 30
0.0
 11
349.1188333140377
 21
417.0598702517088
 31
0.0
  0
ARC
  5
2B67
330
1A
100
AcDbEntity
  8
150
  6
CONTINUOUS
 62
     7
100
AcDbCircle
 10
349.1188333140377
 20
414.0598702517088
 30
0.0
 40
3.0
100
AcDbArc
 50
90.0
 51
180.0000029999976
  0
LINE
  5
2B68
330
1A
100
AcDbEntity
  8
150
  6
CONTINUOUS
 62
     7
100
AcDbLine
 10
350.1188333140377
 20
408.3278152517088
 30
0.0
 11
353.1188333140377
 21
406.5957592517086
 31
0.0
  0
LINE
  5
2B69
330
1A
100
AcDbEntity
  8
150
  6
CONTINUOUS
 62
     7
100
AcDbLine
 10
350.1188333140377
 20
411.7919262517086
 30
0.0
 11
350.1188333140377
 21
408.3278152517088
 31
0.0
  0
LINE
  5
2B6A
330
1A
100
AcDbEntity
  8
150
  6
CONTINUOUS
 62
     7
100
AcDbLine
 10
353.1188333140377
 20
413.5239822517089
 30
0.0
 11
350.1188333140377
 21
411.7919262517086
 31
0.0
  0
LINE
  5
2B6B
330
1A
100
AcDbEntity
  8
150
  6
CONTINUOUS
 62
     7
100
AcDbLine
 10
356.1188333140377
 20
411.7919262517086
 30
0.0
 11
353.1188333140377
 21
413.5239822517089
 31
0.0
  0
LINE
  5
2B6C
330
1A
100
AcDbEntity
  8
150
  6
CONTINUOUS
 62
     7
100
AcDbLine
 10
356.1188333140377
 20
408.3278152517088
 30
0.0
 11
356.1188333140377
 21
411.7919262517086
 31
0.0
  0
LINE
  5
2B6D
330
1A
100
AcDbEntity
  8
150
  6
CONTINUOUS
 62
     7
100
AcDbLine
 10
353.1188333140377
 20
406.5957592517086
 30
0.0
 11
356.1188333140377
 21
408.3278152517088
 31
0.0
  0
ARC
  5
2B6E
330
1A
100
AcDbEntity
  8
0
  6
CONTINUOUS
 62
     2
100
AcDbCircle
 10
392.1188333140377
 20
389.0598702517088
 30
0.0
 40
4.0
100
AcDbArc
 50
270.0
 51
0.000008999999603
  0
ARC
  5
2B6F
330
1A
100
AcDbEntity
  8
0
  6
CONTINUOUS
 62
     2
100
AcDbCircle
 10
388.1188633140377
 20
422.5598402517086
 30
0.0
 40
7.0
100
AcDbArc
 50
90.0
 51
269.9999979999988
  0
LINE
  5
2B70
330
1A
100
AcDbEntity
  8
225
  6
CENTER
 62
     3
100
AcDbLine
 10
397.1188633140377
 20
422.5598402517086
 30
0.0
 11
379.1188633140377
 21
422.5598402517086
 31
0.0
  0
CIRCLE
  5
2B71
330
1A
100
AcDbEntity
  8
150
  6
CENTER
100
AcDbCircle
 10
388.1188863140378
 20
422.5598502517089
 30
0.0
 40
6.5
  0
CIRCLE
  5
2B72
330
1A
100
AcDbEntity
  8
150
  6
CENTER
100
AcDbCircle
 10
388.1188863140378
 20
422.5598502517089
 30
0.0
 40
5.25
  0
LINE
  5
2B73
330
1A
100
AcDbEntity
  8
0
  6
CONTINUOUS
 62
     2
100
AcDbLine
 10
388.1188633140377
 20
415.5598702517088
 30
0.0
 11
395.1188333140377
 21
415.5598702517088
 31
0.0
  0
ARC
  5
2B74
330
1A
100
AcDbEntity
  8
0
  6
CONTINUOUS
 62
     2
100
AcDbCircle
 10
395.1188333140377
 20
414.5598702517088
 30
0.0
 40
1.0
100
AcDbArc
 50
0.0
 51
90.00000300000095
  0
LINE
  5
2B75
330
1A
100
AcDbEntity
  8
0
  6
CONTINUOUS
 62
     2
100
AcDbLine
 10
388.1188633140377
 20
429.5598702517088
 30
0.0
 11
395.1188333140377
 21
429.5598702517088
 31
0.0
  0
LINE
  5
2B76
330
1A
100
AcDbEntity
  8
150
  6
CENTER
100
AcDbLine
 10
389.7098673140376
 20
423.0901742517087
 30
0.0
 11
390.8765843140376
 21
424.2568922517087
 31
0.0
  0
LINE
  5
2B77
330
1A
100
AcDbEntity
  8
150
  6
CENTER
100
AcDbLine
 10
390.8765843140376
 20
420.8627882517086
 30
0.0
 11
389.7098673140376
 21
422.0295052517087
 31
0.0
  0
LINE
  5
2B78
330
1A
100
AcDbEntity
  8
150
  6
CENTER
100
AcDbLine
 10
389.8159153140377
 20
419.8021192517087
 30
0.0
 11
390.8765843140376
 21
420.8627882517086
 31
0.0
  0
LINE
  5
2B79
330
1A
100
AcDbEntity
  8
150
  6
CENTER
100
AcDbLine
 10
390.8765843140376
 20
424.2568922517087
 30
0.0
 11
389.8159153140377
 21
425.3175612517086
 31
0.0
  0
ARC
  5
2B7A
330
1A
100
AcDbEntity
  8
150
  6
CENTER
100
AcDbCircle
 10
390.2402063140376
 20
422.5598492517089
 30
0.0
 40
0.75
100
AcDbArc
 50
134.9999859999998
 51
224.9999880000004
  0
ARC
  5
2B7B
330
1A
100
AcDbEntity
  8
150
  6
CENTER
100
AcDbCircle
 10
388.1188853140376
 20
420.4385292517088
 30
0.0
 40
0.75
100
AcDbArc
 50
44.99998300000108
 51
134.9999859999998
  0
LINE
  5
2B7C
330
1A
100
AcDbEntity
  8
150
  6
CENTER
100
AcDbLine
 10
388.6491983140377
 20
420.9688362517088
 30
0.0
 11
389.8159153140377
 21
419.8021192517087
 31
0.0
  0
LINE
  5
2B7D
330
1A
100
AcDbEntity
  8
150
  6
CENTER
100
AcDbLine
 10
386.4218113140377
 20
419.8021192517087
 30
0.0
 11
387.5885293140377
 21
420.9688362517088
 31
0.0
  0
LINE
  5
2B7E
330
1A
100
AcDbEntity
  8
150
  6
CENTER
100
AcDbLine
 10
385.3611433140376
 20
420.8627882517086
 30
0.0
 11
386.4218113140377
 21
419.8021192517087
 31
0.0
  0
LINE
  5
2B7F
330
1A
100
AcDbEntity
  8
150
  6
CENTER
100
AcDbLine
 10
386.5278603140377
 20
422.0295052517087
 30
0.0
 11
385.3611433140376
 21
420.8627882517086
 31
0.0
  0
LINE
  5
2B80
330
1A
100
AcDbEntity
  8
150
  6
CENTER
100
AcDbLine
 10
385.3611433140376
 20
424.2568922517087
 30
0.0
 11
386.5278603140377
 21
423.0901742517087
 31
0.0
  0
LINE
  5
2B81
330
1A
100
AcDbEntity
  8
150
  6
CENTER
100
AcDbLine
 10
389.8159153140377
 20
425.3175612517086
 30
0.0
 11
388.6491983140377
 21
424.1508432517086
 31
0.0
  0
LINE
  5
2B82
330
1A
100
AcDbEntity
  8
150
  6
CENTER
100
AcDbLine
 10
387.5885293140377
 20
424.1508432517086
 30
0.0
 11
386.4218113140377
 21
425.3175612517086
 31
0.0
  0
LINE
  5
2B83
330
1A
100
AcDbEntity
  8
150
  6
CENTER
100
AcDbLine
 10
386.4218113140377
 20
425.3175612517086
 30
0.0
 11
385.3611433140376
 21
424.2568922517087
 31
0.0
  0
ARC
  5
2B84
330
1A
100
AcDbEntity
  8
150
  6
CENTER
100
AcDbCircle
 10
388.1188863140378
 20
424.6811702517086
 30
0.0
 40
0.75
100
AcDbArc
 50
224.9999880000004
 51
314.9999840000002
  0
ARC
  5
2B85
330
1A
100
AcDbEntity
  8
150
  6
CENTER
100
AcDbCircle
 10
385.9975653140377
 20
422.5598502517089
 30
0.0
 40
0.75
100
AcDbArc
 50
314.9999840000002
 51
44.99999300000106
  0
ARC
  5
2B86
330
1A
100
AcDbEntity
  8
150
  6
PHANTOM2
 62
     7
100
AcDbCircle
 10
416.6188333140377
 20
395.0598702517088
 30
0.0
 40
2.0
100
AcDbArc
 50
270.0
 51
0.000008999999603
  0
LINE
  5
2B87
330
1A
100
AcDbEntity
  8
150
  6
PHANTOM2
 62
     7
100
AcDbLine
 10
348.9188213140376
 20
497.0599012517088
 30
0.0
 11
416.6188333140377
 21
497.0599012517088
 31
0.0
  0
LINE
  5
2B88
330
1A
100
AcDbEntity
  8
225
  6
CENTER
 62
     3
100
AcDbLine
 10
353.1188333140377
 20
470.5598702517088
 30
0.0
 11
353.1188333140377
 21
489.5599012517088
 31
0.0
  0
ARC
  5
2B89
330
1A
100
AcDbEntity
  8
150
  6
CONTINUOUS
 62
     7
100
AcDbCircle
 10
349.1188333140377
 20
476.0598702517088
 30
0.0
 40
3.0
100
AcDbArc
 50
180.0000050000005
 51
270.0000009999997
  0
CIRCLE
  5
2B8A
330
1A
100
AcDbEntity
  8
150
  6
CONTINUOUS
 62
     7
100
AcDbCircle
 10
353.1188333140377
 20
480.0598702517088
 30
0.0
 40
6.5
  0
LINE
  5
2B8B
330
1A
100
AcDbEntity
  8
0
  6
CONTINUOUS
 62
     2
100
AcDbLine
 10
306.1188333140378
 20
455.0598702517088
 30
0.0
 11
306.1188333140378
 21
435.0598702517088
 31
0.0
  0
ARC
  5
2B8C
330
1A
100
AcDbEntity
  8
0
  6
CONTINUOUS
 62
     2
100
AcDbCircle
 10
305.1188333140378
 20
435.0598702517088
 30
0.0
 40
1.0
100
AcDbArc
 50
270.0
 51
0.000008999999603
  0
ARC
  5
2B8D
330
1A
100
AcDbEntity
  8
0
  6
CONTINUOUS
 62
     2
100
AcDbCircle
 10
305.1188333140378
 20
455.0598702517088
 30
0.0
 40
1.0
100
AcDbArc
 50
0.0
 51
90.00000300000095
  0
LINE
  5
2B8E
330
1A
100
AcDbEntity
  8
150
  6
PHANTOM2
 62
     7
100
AcDbLine
 10
348.9188213140377
 20
473.0665451440976
 30
0.0
 11
348.9188213140376
 21
452.05319535932
 31
0.0
  0
LINE
  5
2B8F
330
1A
100
AcDbEntity
  8
225
  6
CENTER
 62
     3
100
AcDbLine
 10
353.1188333140377
 20
435.5598702517088
 30
0.0
 11
353.1188333140377
 21
454.5598702517088
 31
0.0
  0
LINE
  5
2B90
330
1A
100
AcDbEntity
  8
225
  6
CONTINUOUS
 62
     3
100
AcDbLine
 10
362.6188333140377
 20
445.0598702517088
 30
0.0
 11
343.6188333140377
 21
445.0598702517088
 31
0.0
  0
LINE
  5
2B91
330
1A
100
AcDbEntity
  8
150
  6
CONTINUOUS
 62
     7
100
AcDbLine
 10
363.6188333140377
 20
452.0598702517088
 30
0.0
 11
349.1188333140377
 21
452.0598702517088
 31
0.0
  0
LINE
  5
2B92
330
1A
100
AcDbEntity
  8
150
  6
CONTINUOUS
 62
     7
100
AcDbLine
 10
363.6188333140377
 20
438.0598702517088
 30
0.0
 11
349.1188333140377
 21
438.0598702517088
 31
0.0
  0
CIRCLE
  5
2B93
330
1A
100
AcDbEntity
  8
150
  6
CONTINUOUS
 62
     7
100
AcDbCircle
 10
353.1188333140377
 20
445.0598702517088
 30
0.0
 40
6.5
  0
LINE
  5
2B94
330
1A
100
AcDbEntity
  8
150
  6
CONTINUOUS
 62
     7
100
AcDbLine
 10
346.1188333140377
 20
449.0598702517088
 30
0.0
 11
346.1188333140377
 21
441.0598702517088
 31
0.0
  0
ARC
  5
2B95
330
1A
100
AcDbEntity
  8
150
  6
CONTINUOUS
 62
     7
100
AcDbCircle
 10
349.1188333140377
 20
441.0598702517088
 30
0.0
 40
3.0
100
AcDbArc
 50
180.0000050000005
 51
270.0000009999997
  0
ARC
  5
2B96
330
1A
100
AcDbEntity
  8
150
  6
CONTINUOUS
 62
     7
100
AcDbCircle
 10
349.1188333140377
 20
449.0598702517088
 30
0.0
 40
3.0
100
AcDbArc
 50
90.0
 51
180.0000029999976
  0
LINE
  5
2B97
330
1A
100
AcDbEntity
  8
150
  6
CONTINUOUS
 62
     7
100
AcDbLine
 10
353.1188333140377
 20
448.5239822517089
 30
0.0
 11
350.1188333140377
 21
446.7919262517086
 31
0.0
  0
LINE
  5
2B98
330
1A
100
AcDbEntity
  8
150
  6
CONTINUOUS
 62
     7
100
AcDbLine
 10
350.1188333140377
 20
446.7919262517086
 30
0.0
 11
350.1188333140377
 21
443.3278152517089
 31
0.0
  0
LINE
  5
2B99
330
1A
100
AcDbEntity
  8
150
  6
CONTINUOUS
 62
     7
100
AcDbLine
 10
350.1188333140377
 20
443.3278152517089
 30
0.0
 11
353.1188333140377
 21
441.5957592517086
 31
0.0
  0
LINE
  5
2B9A
330
1A
100
AcDbEntity
  8
150
  6
CONTINUOUS
 62
     7
100
AcDbLine
 10
353.1188333140377
 20
441.5957592517086
 30
0.0
 11
356.1188333140377
 21
443.3278152517089
 31
0.0
  0
LINE
  5
2B9B
330
1A
100
AcDbEntity
  8
150
  6
CONTINUOUS
 62
     7
100
AcDbLine
 10
356.1188333140377
 20
443.3278152517089
 30
0.0
 11
356.1188333140377
 21
446.7919262517086
 31
0.0
  0
LINE
  5
2B9C
330
1A
100
AcDbEntity
  8
150
  6
CONTINUOUS
 62
     7
100
AcDbLine
 10
356.1188333140377
 20
446.7919262517086
 30
0.0
 11
353.1188333140377
 21
448.5239822517089
 31
0.0
  0
LINE
  5
2B9D
330
1A
100
AcDbEntity
  8
225
  6
CENTER
 62
     3
100
AcDbLine
 10
350.6188333140377
 20
462.5598702517088
 30
0.0
 11
337.6188333140377
 21
462.5598702517088
 31
0.0
  0
LINE
  5
2B9E
330
1A
100
AcDbEntity
  8
150
  6
CONTINUOUS
 62
     7
100
AcDbLine
 10
363.6188333140377
 20
473.0598702517088
 30
0.0
 11
349.1188333140377
 21
473.0598702517088
 31
0.0
  0
LINE
  5
2B9F
330
1A
100
AcDbEntity
  8
225
  6
CENTER
 62
     3
100
AcDbLine
 10
344.1188333140377
 20
469.0598702517088
 30
0.0
 11
344.1188333140377
 21
456.0598702517088
 31
0.0
  0
CIRCLE
  5
2BA0
330
1A
100
AcDbEntity
  8
150
  6
CONTINUOUS
 62
     7
100
AcDbCircle
 10
344.1188333140377
 20
462.5598702517088
 30
0.0
 40
4.5
  0
LINE
  5
2BA1
330
1A
100
AcDbEntity
  8
225
  6
CENTER
 62
     3
100
AcDbLine
 10
362.6188333140377
 20
480.0598702517088
 30
0.0
 11
343.6188333140377
 21
480.0598702517088
 31
0.0
  0
LINE
  5
2BA2
330
1A
100
AcDbEntity
  8
150
  6
CONTINUOUS
 62
     7
100
AcDbLine
 10
363.6188333140377
 20
487.0599012517089
 30
0.0
 11
349.1188333140377
 21
487.0599012517089
 31
0.0
  0
LINE
  5
2BA3
330
1A
100
AcDbEntity
  8
150
  6
PHANTOM2
 62
     7
100
AcDbLine
 10
348.9188213140376
 20
487.0531953593201
 30
0.0
 11
348.9188213140376
 21
497.0599012517088
 31
0.0
  0
ARC
  5
2BA4
330
1A
100
AcDbEntity
  8
150
  6
CONTINUOUS
 62
     7
100
AcDbCircle
 10
349.1188333140377
 20
484.0598702517088
 30
0.0
 40
3.0
100
AcDbArc
 50
90.0
 51
180.0000029999976
  0
LINE
  5
2BA5
330
1A
100
AcDbEntity
  8
150
  6
CONTINUOUS
 62
     7
100
AcDbLine
 10
346.1188333140377
 20
484.0598702517088
 30
0.0
 11
346.1188333140377
 21
476.0598702517088
 31
0.0
  0
LINE
  5
2BA6
330
1A
100
AcDbEntity
  8
150
  6
CONTINUOUS
 62
     7
100
AcDbLine
 10
350.1188333140377
 20
481.7919262517087
 30
0.0
 11
350.1188333140377
 21
478.3278152517088
 31
0.0
  0
LINE
  5
2BA7
330
1A
100
AcDbEntity
  8
150
  6
CONTINUOUS
 62
     7
100
AcDbLine
 10
350.1188333140377
 20
478.3278152517088
 30
0.0
 11
353.1188333140377
 21
476.5957592517086
 31
0.0
  0
LINE
  5
2BA8
330
1A
100
AcDbEntity
  8
150
  6
CONTINUOUS
 62
     7
100
AcDbLine
 10
353.1188333140377
 20
476.5957592517086
 30
0.0
 11
356.1188333140377
 21
478.3278152517088
 31
0.0
  0
LINE
  5
2BA9
330
1A
100
AcDbEntity
  8
150
  6
CONTINUOUS
 62
     7
100
AcDbLine
 10
356.1188333140377
 20
478.3278152517088
 30
0.0
 11
356.1188333140377
 21
481.7919262517087
 31
0.0
  0
LINE
  5
2BAA
330
1A
100
AcDbEntity
  8
150
  6
CONTINUOUS
 62
     7
100
AcDbLine
 10
353.1188333140377
 20
483.5239822517089
 30
0.0
 11
350.1188333140377
 21
481.7919262517087
 31
0.0
  0
LINE
  5
2BAB
330
1A
100
AcDbEntity
  8
150
  6
CONTINUOUS
 62
     7
100
AcDbLine
 10
356.1188333140377
 20
481.7919262517087
 30
0.0
 11
353.1188333140377
 21
483.5239822517089
 31
0.0
  0
ARC
  5
2BAC
330
1A
100
AcDbEntity
  8
0
  6
CONTINUOUS
 62
     2
100
AcDbCircle
 10
362.6188333140377
 20
496.5599012517088
 30
0.0
 40
1.0
100
AcDbArc
 50
0.0
 51
90.00000300000095
  0
TEXT
  5
2BAD
330
1A
100
AcDbEntity
  8
210
  6
CONTINUOUS
 62
     4
100
AcDbText
 10
429.9938713140377
 20
458.0182002517087
 30
0.0
 40
5.0
  1
35
 50
90.00000300000095
100
AcDbText
  0
ARC
  5
2BAE
330
1A
100
AcDbEntity
  8
0
  6
CONTINUOUS
 62
     2
100
AcDbCircle
 10
392.1188333140377
 20
501.0599012517088
 30
0.0
 40
4.0
100
AcDbArc
 50
0.0
 51
90.00000300000095
  0
ARC
  5
2BAF
330
1A
100
AcDbEntity
  8
150
  6
PHANTOM2
 62
     7
100
AcDbCircle
 10
416.6188333140377
 20
495.0599012517089
 30
0.0
 40
2.0
100
AcDbArc
 50
0.0
 51
90.00000300000095
  0
TEXT
  5
2BBE
330
1A
100
AcDbEntity
  8
230
  6
CONTINUOUS
 62
     6
100
AcDbText
 10
448.9672989771731
 20
331.4053662671558
 30
0.0
 40
5.0
  1
端子カバー
100
AcDbText
  0
LINE
  5
2BC7
330
1A
100
AcDbEntity
  8
210
  6
CONTINUOUS
 62
     4
100
AcDbLine
 10
453.1188713140377
 20
173.6162022517088
 30
0.0
 11
453.1188713140377
 21
146.1162102517088
 31
0.0
  0
LINE
  5
2BC8
330
1A
100
AcDbEntity
  8
210
  6
CONTINUOUS
 62
     4
100
AcDbLine
 10
473.1188713140377
 20
173.6162022517088
 30
0.0
 11
473.1188713140377
 21
123.6162102517087
 31
0.0
  0
TEXT
  5
2BC9
330
1A
100
AcDbEntity
  8
210
  6
CONTINUOUS
 62
     4
100
AcDbText
 10
469.9938713140377
 20
144.0328762517087
 30
0.0
 40
5.0
  1
50
 50
90.00000300000095
100
AcDbText
  0
LINE
  5
2BCF
330
1A
100
AcDbEntity
  8
210
  6
CONTINUOUS
 62
     4
100
AcDbLine
 10
453.1188713140377
 20
146.1162102517088
 30
0.0
 11
452.7855383140376
 21
148.0882362517087
 31
0.0
  0
LINE
  5
2BD0
330
1A
100
AcDbEntity
  8
210
  6
CONTINUOUS
 62
     4
100
AcDbLine
 10
453.1188713140377
 20
146.1162102517088
 30
0.0
 11
453.4522043140377
 21
148.0882362517087
 31
0.0
  0
LINE
  5
2BD1
330
1A
100
AcDbEntity
  8
210
  6
CONTINUOUS
 62
     4
100
AcDbLine
 10
473.1188713140377
 20
123.6162102517087
 30
0.0
 11
472.7855383140377
 21
125.5882362517087
 31
0.0
  0
LINE
  5
2BD2
330
1A
100
AcDbEntity
  8
210
  6
CONTINUOUS
 62
     4
100
AcDbLine
 10
473.1188713140377
 20
123.6162102517087
 30
0.0
 11
473.4522043140377
 21
125.5882362517087
 31
0.0
  0
LINE
  5
2BDB
330
1A
100
AcDbEntity
  8
210
  6
CONTINUOUS
 62
     4
100
AcDbLine
 10
473.1188713140377
 20
298.6162022517087
 30
0.0
 11
473.1188713140377
 21
173.6162022517088
 31
0.0
  0
LINE
  5
2BDC
330
1A
100
AcDbEntity
  8
210
  6
CONTINUOUS
 62
     4
100
AcDbLine
 10
453.1188713140377
 20
235.6162022517087
 30
0.0
 11
453.1188713140377
 21
173.6162022517088
 31
0.0
  0
LINE
  5
2BDD
330
1A
100
AcDbEntity
  8
210
  6
CONTINUOUS
 62
     4
100
AcDbLine
 10
453.1188713140377
 20
173.6162022517088
 30
0.0
 11
452.7855383140376
 21
175.5882292517087
 31
0.0
  0
LINE
  5
2BDE
330
1A
100
AcDbEntity
  8
210
  6
CONTINUOUS
 62
     4
100
AcDbLine
 10
453.1188713140377
 20
173.6162022517088
 30
0.0
 11
453.4522043140377
 21
175.5882292517087
 31
0.0
  0
LINE
  5
2BDF
330
1A
100
AcDbEntity
  8
210
  6
CONTINUOUS
 62
     4
100
AcDbLine
 10
453.1188713140377
 20
173.6162022517088
 30
0.0
 11
452.7855383140376
 21
171.6441752517088
 31
0.0
  0
LINE
  5
2BE0
330
1A
100
AcDbEntity
  8
210
  6
CONTINUOUS
 62
     4
100
AcDbLine
 10
453.1188713140377
 20
173.6162022517088
 30
0.0
 11
453.4522043140377
 21
171.6441752517088
 31
0.0
  0
LINE
  5
2BE4
330
1A
100
AcDbEntity
  8
210
  6
CONTINUOUS
 62
     4
100
AcDbLine
 10
473.1188713140377
 20
173.6162022517088
 30
0.0
 11
472.7855383140377
 21
175.5882292517087
 31
0.0
  0
LINE
  5
2BE5
330
1A
100
AcDbEntity
  8
210
  6
CONTINUOUS
 62
     4
100
AcDbLine
 10
473.1188713140377
 20
173.6162022517088
 30
0.0
 11
473.4522043140377
 21
175.5882292517087
 31
0.0
  0
LINE
  5
2BE6
330
1A
100
AcDbEntity
  8
210
  6
CONTINUOUS
 62
     4
100
AcDbLine
 10
473.1188713140377
 20
173.6162022517088
 30
0.0
 11
472.7855383140377
 21
171.6441752517088
 31
0.0
  0
LINE
  5
2BE7
330
1A
100
AcDbEntity
  8
210
  6
CONTINUOUS
 62
     4
100
AcDbLine
 10
473.1188713140377
 20
173.6162022517088
 30
0.0
 11
473.4522043140377
 21
171.6441752517088
 31
0.0
  0
LINE
  5
2BE9
330
1A
100
AcDbEntity
  8
210
  6
CONTINUOUS
 62
     4
100
AcDbLine
 10
453.1188713140377
 20
235.6162022517087
 30
0.0
 11
452.7855383140376
 21
233.6441752517088
 31
0.0
  0
LINE
  5
2BEA
330
1A
100
AcDbEntity
  8
210
  6
CONTINUOUS
 62
     4
100
AcDbLine
 10
453.1188713140377
 20
235.6162022517087
 30
0.0
 11
453.4522043140377
 21
233.6441752517088
 31
0.0
  0
TEXT
  5
2BEB
330
1A
100
AcDbEntity
  8
210
  6
CONTINUOUS
 62
     4
100
AcDbText
 10
469.9938713140377
 20
230.7412022517087
 30
0.0
 40
5.0
  1
125
 50
90.00000300000095
100
AcDbText
  0
LINE
  5
2BED
330
1A
100
AcDbEntity
  8
230
  6
CONTINUOUS
 62
     6
100
AcDbLine
 10
444.2401569771732
 20
329.6637882671557
 30
0.0
 11
479.2708551012024
 21
329.6637882671557
 31
0.0
  0
LINE
  5
2BF6
330
1A
100
AcDbEntity
  8
210
  6
CONTINUOUS
 62
     4
100
AcDbLine
 10
473.1188713140377
 20
298.6162022517087
 30
0.0
 11
472.7855383140377
 21
296.6441752517088
 31
0.0
  0
LINE
  5
2BF7
330
1A
100
AcDbEntity
  8
210
  6
CONTINUOUS
 62
     4
100
AcDbLine
 10
473.1188713140377
 20
298.6162022517087
 30
0.0
 11
473.4522043140377
 21
296.6441752517088
 31
0.0
  0
LINE
  5
2C2B
330
1A
100
AcDbEntity
  8
210
  6
CONTINUOUS
 62
     4
100
AcDbLine
 10
453.0748653140376
 20
392.5598672517087
 30
0.0
 11
453.0748653140376
 21
497.5598972517088
 31
0.0
  0
LINE
  5
2C2C
330
1A
100
AcDbEntity
  8
210
  6
CONTINUOUS
 62
     4
100
AcDbLine
 10
433.1188713140377
 20
410.0598672517087
 30
0.0
 11
433.1188713140377
 21
445.0598672517087
 31
0.0
  0
LINE
  5
2C2F
330
1A
100
AcDbEntity
  8
210
  6
CONTINUOUS
 62
     4
100
AcDbLine
 10
453.0748653140376
 20
392.5598672517087
 30
0.0
 11
452.7415313140377
 21
394.5318932517086
 31
0.0
  0
LINE
  5
2C30
330
1A
100
AcDbEntity
  8
210
  6
CONTINUOUS
 62
     4
100
AcDbLine
 10
453.0748653140376
 20
392.5598672517087
 30
0.0
 11
453.4081983140376
 21
394.5318932517086
 31
0.0
  0
LINE
  5
2C31
330
1A
100
AcDbEntity
  8
210
  6
CONTINUOUS
 62
     4
100
AcDbLine
 10
433.1188713140377
 20
410.0598672517087
 30
0.0
 11
432.7855383140376
 21
412.0318932517086
 31
0.0
  0
LINE
  5
2C32
330
1A
100
AcDbEntity
  8
210
  6
CONTINUOUS
 62
     4
100
AcDbLine
 10
433.1188713140377
 20
410.0598672517087
 30
0.0
 11
433.4522043140378
 21
412.0318932517086
 31
0.0
  0
LINE
  5
2C33
330
1A
100
AcDbEntity
  8
210
  6
CONTINUOUS
 62
     4
100
AcDbLine
 10
433.1188713140377
 20
445.0598672517087
 30
0.0
 11
433.1188713140377
 21
480.0598672517087
 31
0.0
  0
TEXT
  5
2C34
330
1A
100
AcDbEntity
  8
210
  6
CONTINUOUS
 62
     4
100
AcDbText
 10
449.9498653140376
 20
439.2265632517089
 30
0.0
 40
5.0
  1
105
 50
90.00000300000095
100
AcDbText
  0
LINE
  5
2C35
330
1A
100
AcDbEntity
  8
210
  6
CONTINUOUS
 62
     4
100
AcDbLine
 10
433.1188713140377
 20
445.0598672517087
 30
0.0
 11
432.7855383140376
 21
443.0878402517089
 31
0.0
  0
LINE
  5
2C36
330
1A
100
AcDbEntity
  8
210
  6
CONTINUOUS
 62
     4
100
AcDbLine
 10
433.1188713140377
 20
445.0598672517087
 30
0.0
 11
433.4522043140378
 21
443.0878402517089
 31
0.0
  0
LINE
  5
2C37
330
1A
100
AcDbEntity
  8
210
  6
CONTINUOUS
 62
     4
100
AcDbLine
 10
433.1188713140377
 20
445.0598672517087
 30
0.0
 11
432.7855383140376
 21
447.0318932517086
 31
0.0
  0
LINE
  5
2C38
330
1A
100
AcDbEntity
  8
210
  6
CONTINUOUS
 62
     4
100
AcDbLine
 10
433.1188713140377
 20
445.0598672517087
 30
0.0
 11
433.4522043140378
 21
447.0318932517086
 31
0.0
  0
LINE
  5
2C39
330
1A
100
AcDbEntity
  8
210
  6
CONTINUOUS
 62
     4
100
AcDbLine
 10
433.1188713140377
 20
480.0598672517087
 30
0.0
 11
432.7855383140376
 21
478.0878402517089
 31
0.0
  0
LINE
  5
2C3A
330
1A
100
AcDbEntity
  8
210
  6
CONTINUOUS
 62
     4
100
AcDbLine
 10
433.1188713140377
 20
480.0598672517087
 30
0.0
 11
433.4522043140378
 21
478.0878402517089
 31
0.0
  0
LINE
  5
2C3B
330
1A
100
AcDbEntity
  8
210
  6
CONTINUOUS
 62
     4
100
AcDbLine
 10
453.0748653140376
 20
497.5598972517088
 30
0.0
 11
452.7415313140377
 21
495.587871251709
 31
0.0
  0
LINE
  5
2C3C
330
1A
100
AcDbEntity
  8
210
  6
CONTINUOUS
 62
     4
100
AcDbLine
 10
453.0748653140376
 20
497.5598972517088
 30
0.0
 11
453.4081983140376
 21
495.587871251709
 31
0.0
  0
LINE
  5
3039
330
1A
100
AcDbEntity
  8
0
  6
CONTINUOUS
 62
     2
100
AcDbLine
 10
306.1188333140377
 20
297.6162062517088
 30
0.0
 11
331.1188333140378
 21
297.6162062517088
 31
0.0
  0
LINE
  5
303A
330
1A
100
AcDbEntity
  8
150
 62
     7
100
AcDbLine
 10
306.1188333140377
 20
297.6162062517088
 30
0.0
 11
256.1188333140378
 21
297.6162062517088
 31
0.0
  0
LINE
  5
303B
330
1A
100
AcDbEntity
  8
150
  6
DASHED
100
AcDbLine
 10
385.6603373140376
 20
187.6162062517084
 30
0.0
 11
385.6603373140376
 21
165.1162062517084
 31
0.0
  0
LINE
  5
303C
330
1A
100
AcDbEntity
  8
150
  6
DASHED
100
AcDbLine
 10
390.5773293140378
 20
187.6162062517084
 30
0.0
 11
390.5773443140376
 21
165.1162062517084
 31
0.0
  0
LINE
  5
303D
330
1A
100
AcDbEntity
  8
150
  6
DASHED
100
AcDbLine
 10
391.1188333140376
 20
187.6162062517084
 30
0.0
 11
391.1188483140376
 21
165.6577102517085
 31
0.0
  0
LINE
  5
303E
330
1A
100
AcDbEntity
  8
150
  6
DASHED
100
AcDbLine
 10
385.1188333140376
 20
187.6162062517084
 30
0.0
 11
385.1188333140376
 21
165.6577102517085
 31
0.0
  0
LINE
  5
303F
330
1A
100
AcDbEntity
  8
225
  6
CENTER
 62
     3
100
AcDbLine
 10
388.1188333140375
 20
199.6162062517085
 30
0.0
 11
388.1188333140375
 21
160.6162062517084
 31
0.0
  0
LINE
  5
3040
330
1A
100
AcDbEntity
  8
150
  6
DASHED
100
AcDbLine
 10
391.1188483140376
 20
165.6577102517085
 30
0.0
 11
390.5773443140376
 21
165.1162062517084
 31
0.0
  0
LINE
  5
3041
330
1A
100
AcDbEntity
  8
150
  6
DASHED
100
AcDbLine
 10
390.5773443140376
 20
165.1162062517084
 30
0.0
 11
385.6603373140376
 21
165.1162062517084
 31
0.0
  0
LINE
  5
3042
330
1A
100
AcDbEntity
  8
150
  6
DASHED
100
AcDbLine
 10
391.1188483140376
 20
165.6577102517085
 30
0.0
 11
385.1188333140376
 21
165.6577102517085
 31
0.0
  0
LINE
  5
3043
330
1A
100
AcDbEntity
  8
150
  6
DASHED
100
AcDbLine
 10
385.1188333140376
 20
165.6577102517085
 30
0.0
 11
385.6603373140376
 21
165.1162062517084
 31
0.0
  0
ARC
  5
3044
330
1A
100
AcDbEntity
  8
150
  6
HIDDEN2
 62
     7
100
AcDbCircle
 10
395.1188333140376
 20
186.6162062517083
 30
0.0
 40
1.0
100
AcDbArc
 50
359.9999970000021
 51
89.99999999999985
  0
ARC
  5
3045
330
1A
100
AcDbEntity
  8
0
  6
CONTINUOUS
 62
     2
100
AcDbCircle
 10
394.1188333140376
 20
192.6162062517083
 30
0.0
 40
2.0
100
AcDbArc
 50
359.9999970000021
 51
89.99999999999985
  0
LINE
  5
3046
330
1A
100
AcDbEntity
  8
0
  6
CONTINUOUS
 62
     2
100
AcDbLine
 10
396.1188333140376
 20
192.6162062517083
 30
0.0
 11
396.1188333140376
 21
173.6162062517083
 31
0.0
  0
LINE
  5
3047
330
1A
100
AcDbEntity
  8
150
  6
HIDDEN2
100
AcDbLine
 10
382.8688333140376
 20
190.1162062517084
 30
0.0
 11
383.0294173140377
 21
191.9518992517084
 31
0.0
  0
LINE
  5
3048
330
1A
100
AcDbEntity
  8
150
  6
HIDDEN2
100
AcDbLine
 10
381.6188333140376
 20
187.6162062517084
 30
0.0
 11
381.6188333140376
 21
188.6162062517085
 31
0.0
  0
LINE
  5
3049
330
1A
100
AcDbEntity
  8
150
  6
HIDDEN2
100
AcDbLine
 10
382.0188273140377
 20
188.6162062517085
 30
0.0
 11
382.0188273140377
 21
190.1162062517084
 31
0.0
  0
LINE
  5
304A
330
1A
100
AcDbEntity
  8
150
  6
HIDDEN2
100
AcDbLine
 10
388.1188333140375
 20
188.6162062517085
 30
0.0
 11
388.8688333140376
 21
190.1162062517084
 31
0.0
  0
LINE
  5
304B
330
1A
100
AcDbEntity
  8
150
  6
HIDDEN2
100
AcDbLine
 10
387.3688333140376
 20
188.6162062517085
 30
0.0
 11
388.1188333140375
 21
190.1162062517084
 31
0.0
  0
LINE
  5
304C
330
1A
100
AcDbEntity
  8
150
  6
HIDDEN2
100
AcDbLine
 10
393.3688333140376
 20
190.1162062517083
 30
0.0
 11
393.2082343140377
 21
191.9518992517084
 31
0.0
  0
LINE
  5
304D
330
1A
100
AcDbEntity
  8
150
  6
HIDDEN2
100
AcDbLine
 10
394.6188333140375
 20
187.6162062517083
 30
0.0
 11
394.6188333140375
 21
188.6162062517083
 31
0.0
  0
LINE
  5
304E
330
1A
100
AcDbEntity
  8
150
  6
HIDDEN2
100
AcDbLine
 10
394.2188393140377
 20
188.6162062517083
 30
0.0
 11
394.2188393140377
 21
190.1162062517083
 31
0.0
  0
LINE
  5
304F
330
1A
100
AcDbEntity
  8
150
  6
HIDDEN2
 62
     7
100
AcDbLine
 10
395.1188333140376
 20
187.6162062517083
 30
0.0
 11
381.1188333140376
 21
187.6162062517084
 31
0.0
  0
LINE
  5
3050
330
1A
100
AcDbEntity
  8
150
  6
HIDDEN2
100
AcDbLine
 10
394.2188393140377
 20
190.1162062517083
 30
0.0
 11
382.0188273140377
 21
190.1162062517084
 31
0.0
  0
LINE
  5
3051
330
1A
100
AcDbEntity
  8
150
  6
HIDDEN2
100
AcDbLine
 10
394.6188333140375
 20
188.6162062517083
 30
0.0
 11
381.6188333140376
 21
188.6162062517085
 31
0.0
  0
ARC
  5
3052
330
1A
100
AcDbEntity
  8
150
  6
HIDDEN2
100
AcDbCircle
 10
384.9221953140377
 20
191.7863022517085
 30
0.0
 40
1.9
100
AcDbArc
 50
105.3185250000006
 51
175.0000869999977
  0
ARC
  5
3053
330
1A
100
AcDbEntity
  8
150
  6
HIDDEN2
100
AcDbCircle
 10
391.3154603140376
 20
191.7863062517085
 30
0.0
 40
1.9
100
AcDbArc
 50
4.999959999998673
 51
74.68155000000071
  0
ARC
  5
3054
330
1A
100
AcDbEntity
  8
150
  6
HIDDEN2
100
AcDbCircle
 10
388.1188263140377
 20
180.1161992517084
 30
0.0
 40
14.0
100
AcDbArc
 50
74.68154700000031
 51
105.3185250000006
  0
ARC
  5
3055
330
1A
100
AcDbEntity
  8
150
  6
HIDDEN2
 62
     7
100
AcDbCircle
 10
380.1188333140375
 20
193.6162062517085
 30
0.0
 40
1.0
100
AcDbArc
 50
359.9999970000021
 51
89.99999999999985
  0
LINE
  5
3056
330
1A
100
AcDbEntity
  8
150
  6
HIDDEN2
 62
     7
100
AcDbLine
 10
381.1188333140376
 20
193.6162062517085
 30
0.0
 11
381.1188333140376
 21
187.6162062517084
 31
0.0
  0
LINE
  5
33D3
330
1A
100
AcDbEntity
  8
170
  6
PHANTOM2
100
AcDbLine
 10
138.6188023140378
 20
298.6162062517088
 30
0.0
 11
235.1188333140378
 21
298.6162062517088
 31
0.0
  0
LINE
  5
33D5
330
1A
100
AcDbEntity
  8
170
  6
PHANTOM2
100
AcDbLine
 10
138.6188023140378
 20
300.6162062517088
 30
0.0
 11
235.1188333140378
 21
300.6162062517088
 31
0.0
  0
LINE
  5
34CB
330
1A
100
AcDbEntity
  8
170
  6
PHANTOM2
100
AcDbLine
 10
235.1188333140378
 20
300.6162062517088
 30
0.0
 11
235.1188333140378
 21
298.6162062517088
 31
0.0
  0
LINE
  5
3515
330
1A
100
AcDbEntity
  8
170
  6
PHANTOM2
100
AcDbLine
 10
327.1188333140378
 20
298.6162062517088
 30
0.0
 11
423.6188333140378
 21
298.6162062517088
 31
0.0
  0
LINE
  5
3516
330
1A
100
AcDbEntity
  8
170
  6
PHANTOM2
100
AcDbLine
 10
327.1188333140378
 20
300.6162062517088
 30
0.0
 11
423.6188333140378
 21
300.6162062517088
 31
0.0
  0
LINE
  5
3523
330
1A
100
AcDbEntity
  8
170
  6
PHANTOM2
100
AcDbLine
 10
327.1188333140378
 20
300.6162062517088
 30
0.0
 11
327.1188333140378
 21
298.6162062517088
 31
0.0
  0
LINE
  5
3586
330
1A
100
AcDbEntity
  8
170
  6
PHANTOM2
100
AcDbLine
 10
149.1188023140377
 20
173.6162062517087
 30
0.0
 11
149.1188023140377
 21
133.6162062517087
 31
0.0
  0
LINE
  5
3587
330
1A
100
AcDbEntity
  8
170
  6
PHANTOM2
100
AcDbLine
 10
154.1188023140378
 20
164.1162062517087
 30
0.0
 11
154.1188023140378
 21
136.6162062517087
 31
0.0
  0
LINE
  5
3588
330
1A
100
AcDbEntity
  8
170
  6
PHANTOM2
100
AcDbLine
 10
149.1188023140377
 20
133.6162062517087
 30
0.0
 11
151.1188023140378
 21
133.6162062517087
 31
0.0
  0
ARC
  5
3589
330
1A
100
AcDbEntity
  8
170
  6
PHANTOM2
100
AcDbCircle
 10
151.1188023140378
 20
136.6162062517087
 30
0.0
 40
3.0
100
AcDbArc
 50
270.0
 51
0.0000090000000101
  0
LINE
  5
358A
330
1A
100
AcDbEntity
  8
170
  6
PHANTOM2
100
AcDbLine
 10
158.6188023140377
 20
168.6162062517087
 30
0.0
 11
186.1188023140377
 21
168.6162062517087
 31
0.0
  0
ARC
  5
358B
330
1A
100
AcDbEntity
  8
170
  6
PHANTOM2
100
AcDbCircle
 10
158.6188023140377
 20
164.1162062517087
 30
0.0
 40
4.5
100
AcDbArc
 50
90.0
 51
180.0000030000001
  0
LINE
  5
358C
330
1A
100
AcDbEntity
  8
170
  6
PHANTOM2
100
AcDbLine
 10
149.1188023140377
 20
173.6162062517087
 30
0.0
 11
189.1188023140377
 21
173.6162062517087
 31
0.0
  0
ARC
  5
358D
330
1A
100
AcDbEntity
  8
170
  6
PHANTOM2
100
AcDbCircle
 10
186.1188023140377
 20
171.6162062517087
 30
0.0
 40
3.0
100
AcDbArc
 50
270.0
 51
0.0000090000000101
  0
LINE
  5
358E
330
1A
100
AcDbEntity
  8
170
  6
PHANTOM2
100
AcDbLine
 10
189.1188023140377
 20
173.6162062517087
 30
0.0
 11
189.1188023140377
 21
171.6162062517087
 31
0.0
  0
ARC
  5
358F
330
1A
100
AcDbEntity
  8
170
  6
PHANTOM2
100
AcDbCircle
 10
411.1188643140377
 20
136.6162062517087
 30
0.0
 40
3.0
100
AcDbArc
 50
179.9999909999999
 51
270.0
  0
LINE
  5
3590
330
1A
100
AcDbEntity
  8
170
  6
PHANTOM2
100
AcDbLine
 10
413.1188643140377
 20
173.6162062517087
 30
0.0
 11
413.1188643140377
 21
133.6162062517087
 31
0.0
  0
LINE
  5
3591
330
1A
100
AcDbEntity
  8
170
  6
PHANTOM2
100
AcDbLine
 10
413.1188643140377
 20
133.6162062517087
 30
0.0
 11
411.1188643140377
 21
133.6162062517087
 31
0.0
  0
LINE
  5
3592
330
1A
100
AcDbEntity
  8
170
  6
PHANTOM2
100
AcDbLine
 10
408.1188643140377
 20
164.1162062517087
 30
0.0
 11
408.1188643140377
 21
136.6162062517087
 31
0.0
  0
ARC
  5
3593
330
1A
100
AcDbEntity
  8
170
  6
PHANTOM2
100
AcDbCircle
 10
403.6188643140377
 20
164.1162062517087
 30
0.0
 40
4.5
100
AcDbArc
 50
359.9999969999998
 51
90.0
  0
LINE
  5
3594
330
1A
100
AcDbEntity
  8
170
  6
PHANTOM2
100
AcDbLine
 10
403.6188643140377
 20
168.6162062517087
 30
0.0
 11
376.1188643140377
 21
168.6162062517087
 31
0.0
  0
LINE
  5
3595
330
1A
100
AcDbEntity
  8
170
  6
PHANTOM2
100
AcDbLine
 10
413.1188643140377
 20
173.6162062517087
 30
0.0
 11
373.1188643140377
 21
173.6162062517087
 31
0.0
  0
ARC
  5
3596
330
1A
100
AcDbEntity
  8
170
  6
PHANTOM2
100
AcDbCircle
 10
376.1188643140377
 20
171.6162062517087
 30
0.0
 40
3.0
100
AcDbArc
 50
179.9999909999999
 51
270.0
  0
LINE
  5
3597
330
1A
100
AcDbEntity
  8
170
  6
PHANTOM2
100
AcDbLine
 10
373.1188643140377
 20
173.6162062517087
 30
0.0
 11
373.1188643140377
 21
171.6162062517087
 31
0.0
  0
TEXT
  5
3598
330
1A
100
AcDbEntity
  8
230
  6
CONTINUOUS
 62
     6
100
AcDbText
 10
424.1656372908168
 20
361.5935199472812
 30
0.0
 40
5.0
  1
負荷側接続ねじ
100
AcDbText
  0
TEXT
  5
3599
330
1A
100
AcDbEntity
  8
230
  6
CONTINUOUS
 62
     6
100
AcDbText
 10
424.194532780819
 20
353.6684792517087
 30
0.0
 40
5.0
  1
六角穴付　M8
100
AcDbText
  0
LINE
  5
359A
330
1A
100
AcDbEntity
  8
230
 62
     6
100
AcDbLine
 10
418.2699357391197
 20
351.844535251709
 30
0.0
 11
469.1144236763393
 21
351.844535251709
 31
0.0
  0
LINE
  5
359E
330
1A
100
AcDbEntity
  8
230
  6
CONTINUOUS
100
AcDbLine
 10
170.420268695407
 20
193.6188126277134
 30
0.0
 11
154.8237876954069
 21
248.9958876277134
 31
0.0
  0
LINE
  5
359F
330
1A
100
AcDbEntity
  8
230
  6
CONTINUOUS
 62
     6
100
AcDbLine
 10
154.8237876954069
 20
248.9958876277134
 30
0.0
 11
105.1137886150886
 21
248.9958876277134
 31
0.0
  0
TEXT
  5
35A0
330
1A
100
AcDbEntity
  8
230
  6
CONTINUOUS
 62
     6
100
AcDbText
 10
106.1746616869102
 20
259.2750776277133
 30
0.0
 40
5.0
  1
差込台取付けねじ
100
AcDbText
  0
TEXT
  5
35A1
330
1A
100
AcDbEntity
  8
230
  6
CONTINUOUS
 62
     6
100
AcDbText
 10
106.9458484595029
 20
251.6584236277133
 30
0.0
 40
5.0
  1
ナベM6
100
AcDbText
  0
LINE
  5
35A2
330
1A
100
AcDbEntity
  8
230
  6
CONTINUOUS
100
AcDbLine
 10
170.420268695407
 20
193.6188126277134
 30
0.0
 11
169.5648126954069
 21
195.4266266277132
 31
0.0
  0
LINE
  5
35A3
330
1A
100
AcDbEntity
  8
230
  6
CONTINUOUS
100
AcDbLine
 10
170.420268695407
 20
193.6188126277134
 30
0.0
 11
170.206513695407
 21
195.6073566277133
 31
0.0
  0
TEXT
  5
35A4
330
1A
100
AcDbEntity
  8
230
  6
CONTINUOUS
 62
     6
100
AcDbText
 10
138.063860648552
 20
324.3380772517088
 30
0.0
 40
5.0
  1
標準装備
100
AcDbText
  0
LINE
  5
35A5
330
1A
100
AcDbEntity
  8
230
  6
CONTINUOUS
 62
     6
100
AcDbLine
 10
170.4683503140377
 20
322.8520842517088
 30
0.0
 11
136.7721479418946
 21
322.8520842517088
 31
0.0
  0
LINE
  5
35A6
330
1A
100
AcDbEntity
  8
230
  6
CONTINUOUS
 62
     6
100
AcDbLine
 10
196.6188023140377
 20
286.1453582517087
 30
0.0
 11
170.4683503140377
 21
322.8520842517088
 31
0.0
  0
TEXT
  5
35A7
330
1A
100
AcDbEntity
  8
230
  6
CONTINUOUS
 62
     6
100
AcDbText
 10
138.0902540142842
 20
331.4485022517087
 30
0.0
 40
5.0
  1
端子カバー
100
AcDbText
  0
LINE
  5
35A8
330
1A
100
AcDbEntity
  8
230
  6
CONTINUOUS
 62
     6
100
AcDbLine
 10
196.6188023140377
 20
286.1453582517087
 30
0.0
 11
195.2030903140378
 21
287.5580722517088
 31
0.0
  0
LINE
  5
35A9
330
1A
100
AcDbEntity
  8
230
  6
CONTINUOUS
 62
     6
100
AcDbLine
 10
196.6188023140377
 20
286.1453582517087
 30
0.0
 11
195.7460583140377
 21
287.9448912517087
 31
0.0
  0
TEXT
  5
3976
330
1A
100
AcDbEntity
  8
230
 62
     6
100
AcDbText
 10
556.7716881274516
 20
442.3348975473916
 30
0.0
 40
5.0
  1
L
100
AcDbText
  0
TEXT
  5
3977
330
1A
100
AcDbEntity
  8
230
 62
     6
100
AcDbText
 10
555.1747688075129
 20
444.3137307606325
 30
0.0
 40
5.0
  1
H
100
AcDbText
  0
LINE
  5
3985
330
1A
100
AcDbEntity
  8
170
  6
PHANTOM2
 62
     1
100
AcDbLine
 10
629.6215109914351
 20
132.1764205908766
 30
0.0
 11
845.6215109914351
 21
132.1764205908766
 31
0.0
  0
LINE
  5
3986
330
1A
100
AcDbEntity
  8
170
  6
PHANTOM2
 62
     1
100
AcDbLine
 10
629.6215109914351
 20
252.1764505908766
 30
0.0
 11
845.6215109914351
 21
252.1764505908766
 31
0.0
  0
LINE
  5
3987
330
1A
100
AcDbEntity
  8
225
  6
CENTER
 62
     3
100
AcDbLine
 10
565.621510991435
 20
192.1764505908765
 30
0.0
 11
909.6215109914352
 21
192.1764505908765
 31
0.0
  0
LINE
  5
3989
330
1A
100
AcDbEntity
  8
170
  6
PHANTOM2
 62
     1
100
AcDbLine
 10
622.6215109914351
 20
139.1764205908766
 30
0.0
 11
622.6215109914351
 21
245.1764505908765
 31
0.0
  0
LINE
  5
398A
330
1A
100
AcDbEntity
  8
225
  6
CENTER
 62
     3
100
AcDbLine
 10
737.6215109914351
 20
262.1764505908765
 30
0.0
 11
737.6215109914351
 21
119.6764205908766
 31
0.0
  0
LINE
  5
398B
330
1A
100
AcDbEntity
  8
10
  6
CONTINUOUS
100
AcDbLine
 10
691.6215109914351
 20
272.1764505908765
 30
0.0
 11
691.6215109914351
 21
119.6764205908766
 31
0.0
  0
LINE
  5
398C
330
1A
100
AcDbEntity
  8
10
  6
CONTINUOUS
100
AcDbLine
 10
783.6215109914351
 20
272.1764505908765
 30
0.0
 11
783.6215109914351
 21
119.6764205908766
 31
0.0
  0
ARC
  5
398D
330
1A
100
AcDbEntity
  8
170
  6
PHANTOM2
 62
     1
100
AcDbCircle
 10
629.6215109914351
 20
139.1764205908766
 30
0.0
 40
7.0
100
AcDbArc
 50
180.0000050000005
 51
270.0000010000014
  0
ARC
  5
3990
330
1A
100
AcDbEntity
  8
170
  6
PHANTOM2
 62
     1
100
AcDbCircle
 10
629.6215109914351
 20
245.1764505908765
 30
0.0
 40
7.0
100
AcDbArc
 50
90.0
 51
180.0000029999976
  0
LINE
  5
399A
330
1A
100
AcDbEntity
  8
170
  6
PHANTOM2
 62
     1
100
AcDbLine
 10
852.6215109914351
 20
139.1764205908766
 30
0.0
 11
852.6215109914351
 21
245.1764505908765
 31
0.0
  0
ARC
  5
399B
330
1A
100
AcDbEntity
  8
170
  6
PHANTOM2
 62
     1
100
AcDbCircle
 10
845.6215109914351
 20
139.1764205908766
 30
0.0
 40
7.0
100
AcDbArc
 50
270.0
 51
0.000008999999603
  0
ARC
  5
399C
330
1A
100
AcDbEntity
  8
170
  6
PHANTOM2
 62
     1
100
AcDbCircle
 10
845.6215109914351
 20
245.1764505908765
 30
0.0
 40
7.0
100
AcDbArc
 50
0.0
 51
90.00000299999769
  0
LINE
  5
399E
330
1A
100
AcDbEntity
  8
170
  6
PHANTOM2
 62
     1
100
AcDbLine
 10
629.6215109914351
 20
385.0598782517088
 30
0.0
 11
845.6215109914351
 21
385.0598782517088
 31
0.0
  0
LINE
  5
399F
330
1A
100
AcDbEntity
  8
170
  6
PHANTOM2
 62
     1
100
AcDbLine
 10
629.6215109914351
 20
505.0599092517088
 30
0.0
 11
845.6215109914351
 21
505.0599092517088
 31
0.0
  0
LINE
  5
39A0
330
1A
100
AcDbEntity
  8
225
  6
CENTER
 62
     3
100
AcDbLine
 10
565.621510991435
 20
445.0599092517088
 30
0.0
 11
909.6215109914352
 21
445.0599092517088
 31
0.0
  0
ARC
  5
39A2
330
1A
100
AcDbEntity
  8
170
  6
PHANTOM2
 62
     1
100
AcDbCircle
 10
629.6215109914351
 20
498.0599092517088
 30
0.0
 40
7.0
100
AcDbArc
 50
90.0
 51
180.0000029999976
  0
LINE
  5
39A3
330
1A
100
AcDbEntity
  8
170
  6
CONTINUOUS
100
AcDbLine
 10
605.6215109914351
 20
525.0599092517088
 30
0.0
 11
605.6215109914351
 21
365.0598482517086
 31
0.0
  0
LINE
  5
39A5
330
1A
100
AcDbEntity
  8
170
  6
DASHED
100
AcDbLine
 10
610.621571991435
 20
528.4974092517088
 30
0.0
 11
610.621571991435
 21
368.4973482517087
 31
0.0
  0
LINE
  5
39A6
330
1A
100
AcDbEntity
  8
170
  6
CONTINUOUS
100
AcDbLine
 10
645.6215109914351
 20
525.0599092517088
 30
0.0
 11
645.6215109914351
 21
365.0598782517088
 31
0.0
  0
LINE
  5
39AA
330
1A
100
AcDbEntity
  8
170
  6
PHANTOM2
 62
     1
100
AcDbLine
 10
622.6215109914351
 20
392.0598782517088
 30
0.0
 11
622.6215109914351
 21
498.0599092517088
 31
0.0
  0
LINE
  5
39AB
330
1A
100
AcDbEntity
  8
170
  6
CONTINUOUS
100
AcDbLine
 10
615.621571991435
 20
372.5598482517086
 30
0.0
 11
625.6215719914351
 21
365.0598482517086
 31
0.0
  0
LINE
  5
39AC
330
1A
100
AcDbEntity
  8
170
  6
CONTINUOUS
100
AcDbLine
 10
608.9548239914352
 20
367.5598482517086
 30
0.0
 11
615.621571991435
 21
372.5598482517086
 31
0.0
  0
LINE
  5
39AD
330
1A
100
AcDbEntity
  8
170
  6
CONTINUOUS
100
AcDbLine
 10
605.6215109914351
 20
365.0598482517086
 30
0.0
 11
608.9548239914352
 21
367.5598482517086
 31
0.0
  0
LINE
  5
39AE
330
1A
100
AcDbEntity
  8
170
  6
CONTINUOUS
100
AcDbLine
 10
642.2881979914352
 20
362.5598482517086
 30
0.0
 11
645.6215109914351
 21
365.0598482517086
 31
0.0
  0
LINE
  5
39AF
330
1A
100
AcDbEntity
  8
170
  6
CONTINUOUS
100
AcDbLine
 10
625.6215719914351
 20
365.0598482517086
 30
0.0
 11
635.621571991435
 21
357.5598482517087
 31
0.0
  0
LINE
  5
39B0
330
1A
100
AcDbEntity
  8
170
  6
CONTINUOUS
100
AcDbLine
 10
635.621571991435
 20
357.5598482517087
 30
0.0
 11
642.2881979914352
 21
362.5598482517086
 31
0.0
  0
ARC
  5
39B1
330
1A
100
AcDbEntity
  8
170
  6
PHANTOM2
100
AcDbCircle
 10
629.6215109914351
 20
392.0598782517088
 30
0.0
 40
7.0
100
AcDbArc
 50
180.0000050000005
 51
270.0000010000014
  0
LINE
  5
39B2
330
1A
100
AcDbEntity
  8
225
  6
CONTINUOUS
 62
     3
100
AcDbLine
 10
630.6215719914351
 20
478.0599092517088
 30
0.0
 11
630.6215719914351
 21
457.0599092517088
 31
0.0
  0
CIRCLE
  5
39B5
330
1A
100
AcDbEntity
  8
10
  6
CONTINUOUS
100
AcDbCircle
 10
630.6215719914351
 20
467.5599092517088
 30
0.0
 40
2.458499999999999
  0
CIRCLE
  5
39B6
330
1A
100
AcDbEntity
  8
10
  6
CONTINUOUS
100
AcDbCircle
 10
630.6215719914351
 20
467.5599092517088
 30
0.0
 40
3.0
  0
LINE
  5
39B9
330
1A
100
AcDbEntity
  8
225
  6
CONTINUOUS
 62
     3
100
AcDbLine
 10
641.121571991435
 20
467.5599092517088
 30
0.0
 11
620.121571991435
 21
467.5599092517088
 31
0.0
  0
LINE
  5
39BA
330
1A
100
AcDbEntity
  8
225
  6
CENTER
 62
     3
100
AcDbLine
 10
737.6215109914351
 20
525.0599092517088
 30
0.0
 11
737.6215109914351
 21
365.0598782517088
 31
0.0
  0
LINE
  5
39BF
330
1A
100
AcDbEntity
  8
170
  6
CONTINUOUS
100
AcDbLine
 10
615.621571991435
 20
532.5599092517088
 30
0.0
 11
625.6215719914351
 21
525.0599092517088
 31
0.0
  0
LINE
  5
39C1
330
1A
100
AcDbEntity
  8
170
  6
CONTINUOUS
100
AcDbLine
 10
608.9548239914352
 20
527.5599092517088
 30
0.0
 11
615.621571991435
 21
532.5599092517088
 31
0.0
  0
LINE
  5
39C2
330
1A
100
AcDbEntity
  8
170
  6
CONTINUOUS
100
AcDbLine
 10
605.6215109914351
 20
525.0599092517088
 30
0.0
 11
608.9548239914352
 21
527.5599092517088
 31
0.0
  0
LINE
  5
39C4
330
1A
100
AcDbEntity
  8
170
  6
CONTINUOUS
100
AcDbLine
 10
642.2881979914352
 20
522.5599092517088
 30
0.0
 11
645.6215109914351
 21
525.0599092517088
 31
0.0
  0
LINE
  5
39C5
330
1A
100
AcDbEntity
  8
170
  6
CONTINUOUS
100
AcDbLine
 10
625.6215719914351
 20
525.0599092517088
 30
0.0
 11
635.621571991435
 21
517.5599092517088
 31
0.0
  0
LINE
  5
39C6
330
1A
100
AcDbEntity
  8
170
  6
CONTINUOUS
100
AcDbLine
 10
635.621571991435
 20
517.5599092517088
 30
0.0
 11
642.2881979914352
 21
522.5599092517088
 31
0.0
  0
TEXT
  5
39D0
330
1A
100
AcDbEntity
  8
230
 62
     6
100
AcDbText
 10
731.2564422627579
 20
530.8013182517088
 30
0.0
 40
5.0
  1
ASL
100
AcDbText
  0
ARC
  5
39D2
330
1A
100
AcDbEntity
  8
170
  6
PHANTOM2
 62
     1
100
AcDbCircle
 10
845.6215109914351
 20
498.0599092517088
 30
0.0
 40
7.0
100
AcDbArc
 50
0.0
 51
90.00000299999769
  0
LINE
  5
39D3
330
1A
100
AcDbEntity
  8
170
  6
CONTINUOUS
100
AcDbLine
 10
869.6215109914351
 20
525.0599092517088
 30
0.0
 11
869.6215109914351
 21
365.0598482517086
 31
0.0
  0
LINE
  5
39D4
330
1A
100
AcDbEntity
  8
170
  6
CONTINUOUS
100
AcDbLine
 10
829.6215109914351
 20
525.0599092517088
 30
0.0
 11
829.6215109914351
 21
365.0598782517088
 31
0.0
  0
LINE
  5
39D5
330
1A
100
AcDbEntity
  8
170
  6
DASHED
100
AcDbLine
 10
864.6215109914351
 20
521.6224092517088
 30
0.0
 11
864.6215109914351
 21
361.6223482517086
 31
0.0
  0
CIRCLE
  5
39D8
330
1A
100
AcDbEntity
  8
10
  6
CONTINUOUS
100
AcDbCircle
 10
844.6215109914351
 20
422.5599092517088
 30
0.0
 40
3.0
  0
CIRCLE
  5
39D9
330
1A
100
AcDbEntity
  8
10
  6
CONTINUOUS
100
AcDbCircle
 10
844.6215109914351
 20
422.5599092517088
 30
0.0
 40
2.458499999999999
  0
LINE
  5
39DA
330
1A
100
AcDbEntity
  8
225
  6
CONTINUOUS
 62
     3
100
AcDbLine
 10
844.6215109914351
 20
433.0599092517088
 30
0.0
 11
844.6215109914351
 21
412.0599092517088
 31
0.0
  0
LINE
  5
39DB
330
1A
100
AcDbEntity
  8
170
  6
PHANTOM2
 62
     1
100
AcDbLine
 10
852.6215109914351
 20
392.0598782517088
 30
0.0
 11
852.6215109914351
 21
498.0599092517088
 31
0.0
  0
LINE
  5
39DC
330
1A
100
AcDbEntity
  8
225
  6
CONTINUOUS
 62
     3
100
AcDbLine
 10
834.1215109914351
 20
422.5599092517088
 30
0.0
 11
855.121510991435
 21
422.5599092517088
 31
0.0
  0
ARC
  5
39DD
330
1A
100
AcDbEntity
  8
170
  6
PHANTOM2
100
AcDbCircle
 10
845.6215109914351
 20
392.0598782517088
 30
0.0
 40
7.0
100
AcDbArc
 50
270.0
 51
0.000008999999603
  0
LINE
  5
39DE
330
1A
100
AcDbEntity
  8
170
  6
CONTINUOUS
100
AcDbLine
 10
839.6215109914351
 20
372.5598482517086
 30
0.0
 11
849.621510991435
 21
365.0598482517086
 31
0.0
  0
LINE
  5
39DF
330
1A
100
AcDbEntity
  8
170
  6
CONTINUOUS
100
AcDbLine
 10
829.6215109914351
 20
365.0598482517086
 30
0.0
 11
832.9547629914353
 21
367.5598482517086
 31
0.0
  0
LINE
  5
39E0
330
1A
100
AcDbEntity
  8
170
  6
CONTINUOUS
100
AcDbLine
 10
832.9547629914353
 20
367.5598482517086
 30
0.0
 11
839.6215109914351
 21
372.5598482517086
 31
0.0
  0
LINE
  5
39E1
330
1A
100
AcDbEntity
  8
170
  6
CONTINUOUS
100
AcDbLine
 10
859.6215109914352
 20
357.5598482517087
 30
0.0
 11
866.288136991435
 21
362.5598482517086
 31
0.0
  0
LINE
  5
39E2
330
1A
100
AcDbEntity
  8
170
  6
CONTINUOUS
100
AcDbLine
 10
849.621510991435
 20
365.0598482517086
 30
0.0
 11
859.6215109914352
 21
357.5598482517087
 31
0.0
  0
LINE
  5
39E3
330
1A
100
AcDbEntity
  8
170
  6
CONTINUOUS
100
AcDbLine
 10
866.288136991435
 20
362.5598482517086
 30
0.0
 11
869.6215109914351
 21
365.0598482517086
 31
0.0
  0
LINE
  5
39EA
330
1A
100
AcDbEntity
  8
170
  6
CONTINUOUS
100
AcDbLine
 10
839.6215109914351
 20
532.5599092517088
 30
0.0
 11
849.621510991435
 21
525.0599092517088
 31
0.0
  0
LINE
  5
39EC
330
1A
100
AcDbEntity
  8
170
  6
CONTINUOUS
100
AcDbLine
 10
829.6215109914351
 20
525.0599092517088
 30
0.0
 11
832.9547629914353
 21
527.5599092517088
 31
0.0
  0
LINE
  5
39ED
330
1A
100
AcDbEntity
  8
170
  6
CONTINUOUS
100
AcDbLine
 10
832.9547629914353
 20
527.5599092517088
 30
0.0
 11
839.6215109914351
 21
532.5599092517088
 31
0.0
  0
LINE
  5
39F7
330
1A
100
AcDbEntity
  8
170
  6
CONTINUOUS
100
AcDbLine
 10
859.6215109914352
 20
517.5599092517088
 30
0.0
 11
866.288136991435
 21
522.5599092517088
 31
0.0
  0
LINE
  5
39F8
330
1A
100
AcDbEntity
  8
170
  6
CONTINUOUS
100
AcDbLine
 10
849.621510991435
 20
525.0599092517088
 30
0.0
 11
859.6215109914352
 21
517.5599092517088
 31
0.0
  0
LINE
  5
39F9
330
1A
100
AcDbEntity
  8
170
  6
CONTINUOUS
100
AcDbLine
 10
866.288136991435
 20
522.5599092517088
 30
0.0
 11
869.6215109914351
 21
525.0599092517088
 31
0.0
  0
HATCH
  5
3A32
330
1A
100
AcDbEntity
  8
170
100
AcDbHatch
 10
0.0
 20
0.0
 30
0.0
210
0.0
220
0.0
230
1.0
  2
ANSI31
 70
     0
 71
     0
 91
        8
 92
        7
 72
     1
 73
     1
 93
        7
 10
691.6215109914351
 20
244.6764505908766
 42
0.0
 10
691.6215109914351
 20
257.1764505908766
 42
0.0
 10
603.6215109914349
 20
257.1764505908765
 42
0.0
 10
603.6215109914349
 20
192.1764505908765
 42
0.0
 10
623.6215109914351
 20
192.1764505908767
 42
0.0
 10
623.6215109914351
 20
237.6764505908766
 42
-0.4142135623730946
 10
630.6215109914351
 20
244.6764505908765
 42
0.0
 97
        0
 92
       22
 72
     1
 73
     1
 93
        5
 10
630.6215109914351
 20
244.6764505908765
 42
0.4142135623730946
 10
623.6215109914351
 20
237.6764505908766
 42
0.0
 10
623.6215109914351
 20
192.1764505908765
 42
0.0
 10
691.6215109914351
 20
192.1764505908765
 42
0.0
 10
691.6215109914351
 20
244.6764505908765
 42
0.0
 97
        0
 92
       22
 72
     1
 73
     1
 93
        5
 10
623.6215109914351
 20
146.6764205908766
 42
0.414213562373101
 10
630.6215109914352
 20
139.6764205908766
 42
0.0
 10
691.6215109914351
 20
139.6764205908766
 42
0.0
 10
691.6215109914351
 20
192.1764505908765
 42
0.0
 10
623.6215109914351
 20
192.1764505908765
 42
0.0
 97
        0
 92
        7
 72
     1
 73
     1
 93
        7
 10
623.6215109914351
 20
192.1764505908765
 42
0.0
 10
603.6215109914351
 20
192.1764505908765
 42
0.0
 10
603.6215109914351
 20
127.1764205908766
 42
0.0
 10
691.6215109914351
 20
127.1764205908766
 42
0.0
 10
691.6215109914351
 20
139.6764205908766
 42
0.0
 10
630.6215109914351
 20
139.6764205908766
 42
-0.4142135623730944
 10
623.6215109914351
 20
146.6764205908766
 42
0.0
 97
        0
 92
        7
 72
     1
 73
     1
 93
        7
 10
844.6215109914351
 20
244.6764505908765
 42
-0.4142135623730946
 10
851.6215109914352
 20
237.6764505908766
 42
0.0
 10
851.6215109914352
 20
192.1764505908765
 42
0.0
 10
871.6215109914351
 20
192.1764505908765
 42
0.0
 10
871.6215109914351
 20
257.1764505908766
 42
0.0
 10
783.6215109914351
 20
257.1764505908766
 42
0.0
 10
783.6215109914351
 20
244.6764505908766
 42
0.0
 97
        0
 92
        7
 72
     1
 73
     1
 93
        5
 10
783.6215109914351
 20
244.6764505908765
 42
0.0
 10
783.6215109914351
 20
192.1764505908765
 42
0.0
 10
851.6215109914352
 20
192.1764505908765
 42
0.0
 10
851.6215109914352
 20
237.6764505908766
 42
0.4142135623730946
 10
844.6215109914351
 20
244.6764505908765
 42
0.0
 97
        0
 92
        7
 72
     1
 73
     1
 93
        5
 10
783.6215109914351
 20
192.1764505908765
 42
0.0
 10
783.6215109914351
 20
139.6764205908766
 42
0.0
 10
844.6215109914351
 20
139.6764205908766
 42
0.4142135623730955
 10
851.6215109914352
 20
146.6764205908765
 42
0.0
 10
851.6215109914352
 20
192.1764505908765
 42
0.0
 97
        0
 92
        7
 72
     1
 73
     1
 93
        7
 10
871.6215109914351
 20
127.1764205908766
 42
0.0
 10
871.6215109914351
 20
192.1764505908765
 42
0.0
 10
851.6215109914352
 20
192.1764505908765
 42
0.0
 10
851.6215109914352
 20
146.6764205908766
 42
-0.414213562373096
 10
844.6215109914351
 20
139.6764205908766
 42
0.0
 10
783.6215109914351
 20
139.6764205908766
 42
0.0
 10
783.6215109914351
 20
127.1764205908766
 42
0.0
 97
        0
 75
     0
 76
     1
 52
0.0
 41
50.0
 77
     0
 78
     1
 53
45.0
 43
1220.85098709814
 44
43.94665965112176
 45
-4.419417382415921
 46
4.419417382415922
 79
     0
 47
0.4287675970109315
 98
        8
 10
658.285008509262
 20
248.4414386634041
 10
653.1355900564419
 20
224.4304454874243
 10
644.5532538551967
 20
162.6878881971813
 10
615.3732856728354
 20
155.8276146600717
 10
809.3343097040094
 20
250.1565010816654
 10
809.3343097040094
 20
227.860570323947
 10
809.3343097040094
 20
174.6933967172033
 10
857.3954509932489
 20
133.5317077664174
  0
TEXT
  5
3A33
330
1A
100
AcDbEntity
  8
230
 62
     6
100
AcDbText
 10
716.1445651261463
 20
287.8451597436423
 30
0.0
 40
5.0
  1
パネルカット幅
100
AcDbText
  0
TEXT
  5
3A3C
330
1A
100
AcDbEntity
  8
230
 62
     6
100
AcDbText
 10
731.1570413170054
 20
267.7469974372673
 30
0.0
 40
5.0
  1
ASL
100
AcDbText
  0
LINE
  5
3A3D
330
1A
100
AcDbEntity
  8
230
  6
CONTINUOUS
 62
     6
100
AcDbLine
 10
681.5428351864036
 20
95.92642059087665
 30
0.0
 11
795.2087973601708
 21
95.92642059087665
 31
0.0
  0
TEXT
  5
3A3E
330
1A
100
AcDbEntity
  8
230
 62
     6
100
AcDbText
 10
685.2979144572118
 20
99.77554059087651
 30
0.0
 40
10.0
  1
パネルカット寸法図
100
AcDbText
  0
TEXT
  5
3A44
330
1A
100
AcDbEntity
  8
230
 62
     6
100
AcDbText
 10
709.866580659964
 20
343.2344382517087
 30
0.0
 40
10.0
  1
取付寸法図
100
AcDbText
  0
LINE
  5
3A45
330
1A
100
AcDbEntity
  8
230
  6
CONTINUOUS
 62
     6
100
AcDbLine
 10
696.6289168266996
 20
339.3853182517089
 30
0.0
 11
778.6141051561705
 21
339.3853182517089
 31
0.0
  0
LINE
  5
3A47
330
1A
100
AcDbEntity
  8
230
  6
CONTINUOUS
 62
     6
100
AcDbLine
 10
864.6215109914351
 20
486.5328539088018
 30
0.0
 11
865.8961986120894
 21
488.0740125069587
 31
0.0
  0
LINE
  5
3A48
330
1A
100
AcDbEntity
  8
230
  6
CONTINUOUS
 62
     6
100
AcDbLine
 10
864.6215109914351
 20
486.5328539088018
 30
0.0
 11
865.3188487844014
 21
488.4073458086145
 31
0.0
  0
LINE
  5
3A49
330
1A
100
AcDbEntity
  8
230
  6
CONTINUOUS
 62
     6
100
AcDbLine
 10
864.6215109914351
 20
486.5328539088018
 30
0.0
 11
890.2428264519761
 21
530.9102740432085
 31
0.0
  0
TEXT
  5
3A4A
330
1A
100
AcDbEntity
  8
230
  6
CONTINUOUS
 62
     6
100
AcDbText
 10
894.969968451976
 20
532.6518520432086
 30
0.0
 40
5.0
  1
取付アングル
100
AcDbText
  0
LINE
  5
3A4B
330
1A
100
AcDbEntity
  8
230
  6
CONTINUOUS
 62
     6
100
AcDbLine
 10
890.2428264519761
 20
530.9102740432085
 30
0.0
 11
932.4734994082394
 21
530.9102740432085
 31
0.0
  0
LINE
  5
3A62
330
1A
100
AcDbEntity
  8
230
100
AcDbLine
 10
629.6419579914349
 20
470.3954802517086
 30
0.0
 11
628.6829849914349
 21
472.1505792517088
 31
0.0
  0
LINE
  5
3A63
330
1A
100
AcDbEntity
  8
230
100
AcDbLine
 10
629.6419579914349
 20
470.3954802517086
 30
0.0
 11
629.3131119914351
 21
472.3682602517087
 31
0.0
  0
LINE
  5
3A64
330
1A
100
AcDbEntity
  8
230
 62
     6
100
AcDbLine
 10
629.6419579914349
 20
470.3954802517086
 30
0.0
 11
608.7965027072441
 21
530.7373325393814
 31
0.0
  0
TEXT
  5
3A65
330
1A
100
AcDbEntity
  8
230
 62
     6
100
AcDbText
 10
582.8945922706359
 20
533.8434902058459
 30
0.0
 40
5.0
  1
2-M6
100
AcDbText
  0
LINE
  5
3A66
330
1A
100
AcDbEntity
  8
230
  6
CONTINUOUS
 62
     6
100
AcDbLine
 10
608.7965027072441
 20
530.7373325393814
 30
0.0
 11
582.0015837241378
 21
530.7373325393814
 31
0.0
  0
TEXT
  5
3C23
330
1A
100
AcDbEntity
  8
230
 62
     6
100
AcDbText
 10
555.1747688075129
 20
191.4302720998005
 30
0.0
 40
5.0
  1
H
100
AcDbText
  0
TEXT
  5
3C24
330
1A
100
AcDbEntity
  8
230
 62
     6
100
AcDbText
 10
556.7716881274516
 20
189.4514388865595
 30
0.0
 40
5.0
  1
L
100
AcDbText
  0
LINE
  5
3C27
330
1A
100
AcDbEntity
  8
210
 62
     4
100
AcDbLine
 10
829.6215109914351
 20
525.1224092517088
 30
0.0
 11
829.6215109914351
 21
549.8425172517088
 31
0.0
  0
LINE
  5
3C28
330
1A
100
AcDbEntity
  8
210
 62
     4
100
AcDbLine
 10
844.6215109914351
 20
433.1224092517088
 30
0.0
 11
844.6215109914351
 21
549.8425172517088
 31
0.0
  0
LINE
  5
3C29
330
1A
100
AcDbEntity
  8
210
 62
     4
100
AcDbLine
 10
831.8215109914351
 20
547.3425172517088
 30
0.0
 11
842.4215109914351
 21
547.3425172517088
 31
0.0
  0
INSERT
  5
3C2A
330
1A
100
AcDbEntity
  8
210
 62
     4
100
AcDbBlockReference
  2
_OPEN30
 10
829.6215109914351
 20
547.3425172517088
 30
0.0
 41
2.2
 42
2.2
 43
2.2
 50
180.0
  0
INSERT
  5
3C2B
330
1A
100
AcDbEntity
  8
210
 62
     4
100
AcDbBlockReference
  2
_OPEN30
 10
844.6215109914351
 20
547.3425172517088
 30
0.0
 41
2.2
 42
2.2
 43
2.2
  0
MTEXT
  5
3C2C
330
1A
100
AcDbEntity
  8
210
 62
     4
100
AcDbMText
 10
837.121510991435
 20
551.8425172517088
 30
0.0
 40
5.0
 41
0.0
 71
     5
 72
     1
  1
\A1;15
1001
ACAD
1000
MTEXTBEGIN
1070
    73
1070
     1
1070
    44
1040
1.0
1070
    74
1070
     0
1000
MTEXTEND
1000
MTEXTBEGIN
1070
    73
1070
     1
1070
    44
1040
1.0
1070
    74
1070
     0
1000
MTEXTEND
1000
MTEXTBEGIN
1070
    73
1070
     1
1070
    44
1040
1.0
1070
    74
1070
     0
1000
MTEXTEND
1000
MTEXTBEGIN
1070
    73
1070
     1
1070
    44
1040
1.0
1070
    74
1070
     0
1000
MTEXTEND
  0
LINE
  5
3C2D
330
1A
100
AcDbEntity
  8
210
 62
     4
100
AcDbLine
 10
691.6215109914351
 20
265.4889505908765
 30
0.0
 11
691.6215109914351
 21
298.6120505643327
 31
0.0
  0
LINE
  5
3C2E
330
1A
100
AcDbEntity
  8
210
 62
     4
100
AcDbLine
 10
783.6215109914351
 20
265.4889505908765
 30
0.0
 11
783.6215109914351
 21
298.6120505643327
 31
0.0
  0
LINE
  5
3C2F
330
1A
100
AcDbEntity
  8
210
 62
     4
100
AcDbLine
 10
693.8215109914351
 20
296.1120505643327
 30
0.0
 11
781.4215109914351
 21
296.1120505643327
 31
0.0
  0
INSERT
  5
3C30
330
1A
100
AcDbEntity
  8
210
 62
     4
100
AcDbBlockReference
  2
_OPEN30
 10
691.6215109914351
 20
296.1120505643327
 30
0.0
 41
2.2
 42
2.2
 43
2.2
 50
180.0
  0
INSERT
  5
3C31
330
1A
100
AcDbEntity
  8
210
 62
     4
100
AcDbBlockReference
  2
_OPEN30
 10
783.6215109914351
 20
296.1120505643327
 30
0.0
 41
2.2
 42
2.2
 43
2.2
  0
MTEXT
  5
3C32
330
1A
100
AcDbEntity
  8
210
 62
     4
100
AcDbMText
 10
737.6215109914351
 20
300.6120505643327
 30
0.0
 40
5.0
 41
0.0
 71
     5
 72
     1
  1
\A1;92
1001
ACAD
1000
MTEXTBEGIN
1070
    73
1070
     1
1070
    44
1040
1.0
1070
    74
1070
     0
1000
MTEXTEND
1000
MTEXTBEGIN
1070
    73
1070
     1
1070
    44
1040
1.0
1070
    74
1070
     0
1000
MTEXTEND
1000
MTEXTBEGIN
1070
    73
1070
     1
1070
    44
1040
1.0
1070
    74
1070
     0
1000
MTEXTEND
1000
MTEXTBEGIN
1070
    73
1070
     1
1070
    44
1040
1.0
1070
    74
1070
     0
1000
MTEXTEND
  0
LINE
  5
3C33
330
1A
100
AcDbEntity
  8
210
 62
     4
100
AcDbLine
 10
174.1188023140377
 20
476.6223702517088
 30
0.0
 11
174.1188023140377
 21
527.5598972517088
 31
0.0
  0
LINE
  5
3C34
330
1A
100
AcDbEntity
  8
210
 62
     4
100
AcDbLine
 10
388.1188633140377
 20
431.6223402517087
 30
0.0
 11
388.1188633140377
 21
527.5598972517088
 31
0.0
  0
LINE
  5
3C35
330
1A
100
AcDbEntity
  8
210
 62
     4
100
AcDbLine
 10
176.3188023140377
 20
525.0598972517089
 30
0.0
 11
385.9188633140377
 21
525.0598972517089
 31
0.0
  0
INSERT
  5
3C36
330
1A
100
AcDbEntity
  8
210
 62
     4
100
AcDbBlockReference
  2
_OPEN30
 10
174.1188023140377
 20
525.0598972517089
 30
0.0
 41
2.2
 42
2.2
 43
2.2
 50
180.0
  0
INSERT
  5
3C37
330
1A
100
AcDbEntity
  8
210
 62
     4
100
AcDbBlockReference
  2
_OPEN30
 10
388.1188633140377
 20
525.0598972517089
 30
0.0
 41
2.2
 42
2.2
 43
2.2
  0
MTEXT
  5
3C38
330
1A
100
AcDbEntity
  8
210
 62
     4
100
AcDbMText
 10
281.1188328140378
 20
529.5598972517089
 30
0.0
 40
5.0
 41
0.0
 71
     5
 72
     1
  1
\A1;214
1001
ACAD
1000
MTEXTBEGIN
1070
    73
1070
     1
1070
    44
1040
1.0
1070
    74
1070
     0
1000
MTEXTEND
1000
MTEXTBEGIN
1070
    73
1070
     1
1070
    44
1040
1.0
1070
    74
1070
     0
1000
MTEXTEND
1000
MTEXTBEGIN
1070
    73
1070
     1
1070
    44
1040
1.0
1070
    74
1070
     0
1000
MTEXTEND
1000
MTEXTBEGIN
1070
    73
1070
     1
1070
    44
1040
1.0
1070
    74
1070
     0
1000
MTEXTEND
  0
LINE
  5
3C39
330
1A
100
AcDbEntity
  8
210
 62
     4
100
AcDbLine
 10
166.1188023140377
 20
501.1224010422695
 30
0.0
 11
166.1188023140377
 21
547.5598972517088
 31
0.0
  0
LINE
  5
3C3A
330
1A
100
AcDbEntity
  8
210
 62
     4
100
AcDbLine
 10
395.9472603647358
 20
503.9508284505029
 30
0.0
 11
395.9472603647358
 21
547.5598972517088
 31
0.0
  0
LINE
  5
3C3B
330
1A
100
AcDbEntity
  8
210
 62
     4
100
AcDbLine
 10
168.3188023140377
 20
545.0598972517089
 30
0.0
 11
393.7472603647358
 21
545.0598972517089
 31
0.0
  0
INSERT
  5
3C3C
330
1A
100
AcDbEntity
  8
210
 62
     4
100
AcDbBlockReference
  2
_OPEN30
 10
166.1188023140377
 20
545.0598972517089
 30
0.0
 41
2.2
 42
2.2
 43
2.2
 50
180.0
  0
INSERT
  5
3C3D
330
1A
100
AcDbEntity
  8
210
 62
     4
100
AcDbBlockReference
  2
_OPEN30
 10
395.9472603647358
 20
545.0598972517089
 30
0.0
 41
2.2
 42
2.2
 43
2.2
  0
MTEXT
  5
3C3E
330
1A
100
AcDbEntity
  8
210
 62
     4
100
AcDbMText
 10
280.5330313393868
 20
549.5598972517089
 30
0.0
 40
5.0
 41
0.0
 71
     5
 72
     1
  1
230
1001
ACAD
1000
MTEXTBEGIN
1070
    73
1070
     1
1070
    44
1040
1.0
1070
    74
1070
     0
1000
MTEXTEND
1000
MTEXTBEGIN
1070
    73
1070
     1
1070
    44
1040
1.0
1070
    74
1070
     0
1000
MTEXTEND
1000
MTEXTBEGIN
1070
    73
1070
     1
1070
    44
1040
1.0
1070
    74
1070
     0
1000
MTEXTEND
1000
MTEXTBEGIN
1070
    73
1070
     1
1070
    44
1040
1.0
1070
    74
1070
     0
1000
MTEXTEND
  0
LINE
  5
3C3F
330
1A
100
AcDbEntity
  8
210
 62
     4
100
AcDbLine
 10
619.7471519914349
 20
467.5599242517087
 30
0.0
 11
543.6233742885276
 21
467.5599242517087
 31
0.0
  0
LINE
  5
3C40
330
1A
100
AcDbEntity
  8
210
 62
     4
100
AcDbLine
 10
834.1215109914351
 20
422.5599092517088
 30
0.0
 11
543.6233742885276
 21
422.559909251709
 31
0.0
  0
LINE
  5
3C41
330
1A
100
AcDbEntity
  8
210
 62
     4
100
AcDbLine
 10
546.1233742885276
 20
465.3599242517087
 30
0.0
 11
546.1233742885276
 21
424.7599092517091
 31
0.0
  0
INSERT
  5
3C42
330
1A
100
AcDbEntity
  8
210
 62
     4
100
AcDbBlockReference
  2
_OPEN30
 10
546.1233742885276
 20
467.5599242517087
 30
0.0
 41
2.2
 42
2.2
 43
2.2
 50
90.0
  0
INSERT
  5
3C43
330
1A
100
AcDbEntity
  8
210
 62
     4
100
AcDbBlockReference
  2
_OPEN30
 10
546.1233742885276
 20
422.559909251709
 30
0.0
 41
2.2
 42
2.2
 43
2.2
 50
270.0
  0
MTEXT
  5
3C44
330
1A
100
AcDbEntity
  8
210
 62
     4
100
AcDbMText
 10
541.6233742885274
 20
445.0599167517089
 30
0.0
 40
5.0
 41
0.0
 71
     5
 72
     1
  1
\A1;45
 11
0.0000000000000001
 21
1.0
 31
0.0
1001
ACAD
1000
MTEXTBEGIN
1070
    73
1070
     1
1070
    44
1040
1.0
1070
    74
1070
     0
1000
MTEXTEND
1000
MTEXTBEGIN
1070
    73
1070
     1
1070
    44
1040
1.0
1070
    74
1070
     0
1000
MTEXTEND
1000
MTEXTBEGIN
1070
    73
1070
     1
1070
    44
1040
1.0
1070
    74
1070
     0
1000
MTEXTEND
1000
MTEXTBEGIN
1070
    73
1070
     1
1070
    44
1040
1.0
1070
    74
1070
     0
1000
MTEXTEND
  0
LINE
  5
3C45
330
1A
100
AcDbEntity
  8
210
 62
     4
100
AcDbLine
 10
645.6215109914351
 20
543.7882277210844
 30
0.0
 11
645.6215109914351
 21
549.8425172517088
 31
0.0
  0
LINE
  5
3C46
330
1A
100
AcDbEntity
  8
210
 62
     4
100
AcDbLine
 10
829.6215109914351
 20
543.7882277210844
 30
0.0
 11
829.6215109914351
 21
549.8425172517088
 31
0.0
  0
LINE
  5
3C47
330
1A
100
AcDbEntity
  8
210
 62
     4
100
AcDbLine
 10
647.8215109914351
 20
547.3425172517088
 30
0.0
 11
827.4215109914351
 21
547.3425172517088
 31
0.0
  0
INSERT
  5
3C48
330
1A
100
AcDbEntity
  8
210
 62
     4
100
AcDbBlockReference
  2
_OPEN30
 10
645.6215109914351
 20
547.3425172517088
 30
0.0
 41
2.2
 42
2.2
 43
2.2
 50
180.0
  0
INSERT
  5
3C49
330
1A
100
AcDbEntity
  8
210
 62
     4
100
AcDbBlockReference
  2
_OPEN30
 10
829.6215109914351
 20
547.3425172517088
 30
0.0
 41
2.2
 42
2.2
 43
2.2
  0
MTEXT
  5
3C4A
330
1A
100
AcDbEntity
  8
210
 62
     4
100
AcDbMText
 10
737.6215109914351
 20
551.8425172517088
 30
0.0
 40
5.0
 41
0.0
 71
     5
 72
     1
  1
\A1;184
1001
ACAD
1000
MTEXTBEGIN
1070
    73
1070
     1
1070
    44
1040
1.0
1070
    74
1070
     0
1000
MTEXTEND
1000
MTEXTBEGIN
1070
    73
1070
     1
1070
    44
1040
1.0
1070
    74
1070
     0
1000
MTEXTEND
1000
MTEXTBEGIN
1070
    73
1070
     1
1070
    44
1040
1.0
1070
    74
1070
     0
1000
MTEXTEND
1000
MTEXTBEGIN
1070
    73
1070
     1
1070
    44
1040
1.0
1070
    74
1070
     0
1000
MTEXTEND
  0
LINE
  5
3C4B
330
1A
100
AcDbEntity
  8
210
 62
     4
100
AcDbLine
 10
630.6215719914351
 20
478.1224092517089
 30
0.0
 11
630.6215719914351
 21
549.8425172517088
 31
0.0
  0
LINE
  5
3C4C
330
1A
100
AcDbEntity
  8
210
 62
     4
100
AcDbLine
 10
645.6215109914351
 20
525.1224092517088
 30
0.0
 11
645.6215109914351
 21
549.8425172517088
 31
0.0
  0
LINE
  5
3C4D
330
1A
100
AcDbEntity
  8
210
 62
     4
100
AcDbLine
 10
632.8215719914351
 20
547.3425172517088
 30
0.0
 11
643.421510991435
 21
547.3425172517088
 31
0.0
  0
INSERT
  5
3C4E
330
1A
100
AcDbEntity
  8
210
 62
     4
100
AcDbBlockReference
  2
_OPEN30
 10
630.6215719914351
 20
547.3425172517088
 30
0.0
 41
2.2
 42
2.2
 43
2.2
 50
180.0
  0
INSERT
  5
3C4F
330
1A
100
AcDbEntity
  8
210
 62
     4
100
AcDbBlockReference
  2
_OPEN30
 10
645.6215109914351
 20
547.3425172517088
 30
0.0
 41
2.2
 42
2.2
 43
2.2
  0
MTEXT
  5
3C50
330
1A
100
AcDbEntity
  8
210
 62
     4
100
AcDbMText
 10
638.121541491435
 20
551.8425172517088
 30
0.0
 40
5.0
 41
0.0
 71
     5
 72
     1
  1
\A1;15
1001
ACAD
1000
MTEXTBEGIN
1070
    73
1070
     1
1070
    44
1040
1.0
1070
    74
1070
     0
1000
MTEXTEND
1000
MTEXTBEGIN
1070
    73
1070
     1
1070
    44
1040
1.0
1070
    74
1070
     0
1000
MTEXTEND
1000
MTEXTBEGIN
1070
    73
1070
     1
1070
    44
1040
1.0
1070
    74
1070
     0
1000
MTEXTEND
1000
MTEXTBEGIN
1070
    73
1070
     1
1070
    44
1040
1.0
1070
    74
1070
     0
1000
MTEXTEND
  0
LINE
  5
3C68
330
1A
100
AcDbEntity
  8
210
 62
     4
100
AcDbLine
 10
630.6215719914351
 20
534.6161564732117
 30
0.0
 11
630.6215719914351
 21
569.8425172517088
 31
0.0
  0
LINE
  5
3C69
330
1A
100
AcDbEntity
  8
210
 62
     4
100
AcDbLine
 10
844.6215109914351
 20
534.6161564732117
 30
0.0
 11
844.6215109914351
 21
569.8425172517088
 31
0.0
  0
LINE
  5
3C6A
330
1A
100
AcDbEntity
  8
210
 62
     4
100
AcDbLine
 10
632.8215719914351
 20
567.3425172517088
 30
0.0
 11
842.4215109914351
 21
567.3425172517088
 31
0.0
  0
INSERT
  5
3C6B
330
1A
100
AcDbEntity
  8
210
 62
     4
100
AcDbBlockReference
  2
_OPEN30
 10
630.6215719914351
 20
567.3425172517088
 30
0.0
 41
2.2
 42
2.2
 43
2.2
 50
180.0
  0
INSERT
  5
3C6C
330
1A
100
AcDbEntity
  8
210
 62
     4
100
AcDbBlockReference
  2
_OPEN30
 10
844.6215109914351
 20
567.3425172517088
 30
0.0
 41
2.2
 42
2.2
 43
2.2
  0
MTEXT
  5
3C6D
330
1A
100
AcDbEntity
  8
210
 62
     4
100
AcDbMText
 10
737.6215414914351
 20
571.8425172517088
 30
0.0
 40
5.0
 41
0.0
 71
     5
 72
     1
  1
\A1;214
1001
ACAD
1000
MTEXTBEGIN
1070
    73
1070
     1
1070
    44
1040
1.0
1070
    74
1070
     0
1000
MTEXTEND
1000
MTEXTBEGIN
1070
    73
1070
     1
1070
    44
1040
1.0
1070
    74
1070
     0
1000
MTEXTEND
1000
MTEXTBEGIN
1070
    73
1070
     1
1070
    44
1040
1.0
1070
    74
1070
     0
1000
MTEXTEND
1000
MTEXTBEGIN
1070
    73
1070
     1
1070
    44
1040
1.0
1070
    74
1070
     0
1000
MTEXTEND
  0
LINE
  5
3F09
330
1A
100
AcDbEntity
  8
210
 62
     4
100
AcDbLine
 10
148.0563103140377
 20
173.6162022517088
 30
0.0
 11
126.6188023140377
 21
173.6162022517088
 31
0.0
  0
LINE
  5
3F0A
330
1A
100
AcDbEntity
  8
210
 62
     4
100
AcDbLine
 10
168.1188333140378
 20
194.6162062517087
 30
0.0
 11
126.6188023140377
 21
194.6162062517087
 31
0.0
  0
LINE
  5
3F0B
330
1A
100
AcDbEntity
  8
210
 62
     4
100
AcDbLine
 10
129.1188023140377
 20
175.8162022517088
 30
0.0
 11
129.1188023140378
 21
192.4162062517087
 31
0.0
  0
INSERT
  5
3F0C
330
1A
100
AcDbEntity
  8
210
 62
     4
100
AcDbBlockReference
  2
_OPEN30
 10
129.1188023140377
 20
173.6162022517088
 30
0.0
 41
2.2
 42
2.2
 43
2.2
 50
270.0
  0
INSERT
  5
3F0D
330
1A
100
AcDbEntity
  8
210
 62
     4
100
AcDbBlockReference
  2
_OPEN30
 10
129.1188023140378
 20
194.6162062517087
 30
0.0
 41
2.2
 42
2.2
 43
2.2
 50
90.0
  0
MTEXT
  5
3F0E
330
1A
100
AcDbEntity
  8
210
 62
     4
100
AcDbMText
 10
124.6188023140377
 20
184.1162042517088
 30
0.0
 40
5.0
 41
0.0
 71
     5
 72
     1
  1
\A1;21
 11
0.0000000000000001
 21
1.0
 31
0.0
1001
ACAD
1000
MTEXTBEGIN
1070
    73
1070
     1
1070
    44
1040
1.0
1070
    74
1070
     0
1000
MTEXTEND
1000
MTEXTBEGIN
1070
    73
1070
     1
1070
    44
1040
1.0
1070
    74
1070
     0
1000
MTEXTEND
1000
MTEXTBEGIN
1070
    73
1070
     1
1070
    44
1040
1.0
1070
    74
1070
     0
1000
MTEXTEND
1000
MTEXTBEGIN
1070
    73
1070
     1
1070
    44
1040
1.0
1070
    74
1070
     0
1000
MTEXTEND
  0
LINE
  5
3F17
330
1A
100
AcDbEntity
  8
150
  6
CONTINUOUS
 62
     7
100
AcDbLine
 10
198.7528079102533
 20
497.0599012517088
 30
0.0
 11
213.3188453140378
 21
497.0599012517088
 31
0.0
  0
ARC
  5
3F18
330
1A
100
AcDbEntity
  8
150
  6
HIDDEN2
 62
     7
100
AcDbCircle
 10
199.6188333140378
 20
496.5599012517088
 30
0.0
 40
1.0
100
AcDbArc
 50
150.0000000000031
 51
180.0
  0
LINE
  5
3F19
330
1A
100
AcDbEntity
  8
150
  6
CONTINUOUS
 62
     7
100
AcDbLine
 10
198.7528079102533
 20
393.0598392517088
 30
0.0
 11
213.3188453140378
 21
393.0598392517088
 31
0.0
  0
ARC
  5
3F1A
330
1A
100
AcDbEntity
  8
150
  6
HIDDEN2
 62
     7
100
AcDbCircle
 10
199.6188333140378
 20
393.5598392517088
 30
0.0
 40
1.0
100
AcDbArc
 50
180.0
 51
209.9999999999969
  0
ARC
  5
3F1B
330
1A
100
AcDbEntity
  8
0
  6
CONTINUOUS
 62
     2
100
AcDbCircle
 10
199.6188333140378
 20
393.5598392517088
 30
0.0
 40
1.0
100
AcDbArc
 50
209.9979490776988
 51
270.0
  0
LINE
  5
3F1C
330
1A
100
AcDbEntity
  8
0
  6
CONTINUOUS
 62
     2
100
AcDbLine
 10
365.1188333140377
 20
496.5599012517088
 30
0.0
 11
363.6188333140377
 21
496.5599012517088
 31
0.0
  0
LINE
  5
3F1D
330
1A
100
AcDbEntity
  8
0
  6
CONTINUOUS
 62
     2
100
AcDbLine
 10
365.1188333140377
 20
393.5598702517088
 30
0.0
 11
363.6188333140376
 21
393.5598702517088
 31
0.0
  0
LINE
  5
3F1E
330
1A
100
AcDbEntity
  8
0
  6
CONTINUOUS
 62
     2
100
AcDbLine
 10
365.1188333140377
 20
211.6162062517087
 30
0.0
 11
363.6188333140377
 21
211.6162062517087
 31
0.0
  0
LINE
  5
3F1F
330
1A
100
AcDbEntity
  8
150
  6
CONTINUOUS
 62
     7
100
AcDbLine
 10
215.8188153140377
 20
292.6162062517088
 30
0.0
 11
213.6188023140377
 21
292.6162062517088
 31
0.0
  0
LINE
  5
3F20
330
1A
100
AcDbEntity
  8
0
  6
CONTINUOUS
 62
     2
100
AcDbLine
 10
191.6188333140378
 20
393.0598702517088
 30
0.0
 11
198.7527900131347
 21
393.0598702517088
 31
0.0
  0
LINE
  5
3F21
330
1A
100
AcDbEntity
  8
150
  6
CONTINUOUS
 62
     7
100
AcDbLine
 10
263.6188333140378
 20
440.0598702517088
 30
0.0
 11
263.6188333140378
 21
439.0598702517088
 31
0.0
  0
LINE
  5
3F22
330
1A
100
AcDbEntity
  8
150
  6
HIDDEN2
 62
     7
100
AcDbLine
 10
263.6188333140378
 20
440.0598702517088
 30
0.0
 11
263.6188333140378
 21
450.0598702517088
 31
0.0
  0
CIRCLE
  5
3F37
330
1A
100
AcDbEntity
  8
10
100
AcDbCircle
 10
388.1188633140377
 20
422.5598402517086
 30
0.0
 40
2.999985000000037
  0
CIRCLE
  5
3F38
330
1A
100
AcDbEntity
  8
10
100
AcDbCircle
 10
174.1188023140377
 20
467.5598702517088
 30
0.0
 40
2.999985000000037
  0
LWPOLYLINE
  5
3F3F
330
1A
100
AcDbEntity
  8
10
  6
HIDDEN2
100
AcDbPolyline
 90
        4
 70
     1
 43
0.0
 10
385.1188333140376
 20
168.6162062517087
 10
391.1188333140376
 20
168.6162062517087
 10
391.1188333140376
 20
187.6162062517084
 10
385.1188333140376
 20
187.6162062517084
  0
LWPOLYLINE
  5
3F40
330
1A
100
AcDbEntity
  8
10
  6
HIDDEN2
100
AcDbPolyline
 90
        4
 70
     1
 43
0.0
 10
177.118833314038
 20
168.6162062517087
 10
171.118833314038
 20
168.6162062517087
 10
171.118833314038
 20
187.6162062517084
 10
177.118833314038
 20
187.6162062517084
  0
LWPOLYLINE
  5
3F59
330
1A
100
AcDbEntity
  8
230
 62
     6
100
AcDbPolyline
 90
        4
 70
     1
 43
0.0
 10
688.8948018010726
 20
48.50686952190688
 10
778.3778064542887
 20
48.50686952190688
 10
778.3778064542887
 20
65.78818775273726
 10
688.8948018010726
 20
65.78818775273726
  0
TEXT
  5
3F5A
330
1A
100
AcDbEntity
  8
230
 62
     6
100
AcDbText
 10
702.1324656343369
 20
52.35598952190674
 30
0.0
 40
10.0
  1
XDI3S
100
AcDbText
  0
LINE
  5
3F94
330
1A
100
AcDbEntity
  8
150
  6
CONTINUOUS
100
AcDbLine
 10
208.6188023140377
 20
293.0162002517087
 30
0.0
 11
203.6188023140378
 21
293.0162002517087
 31
0.0
  0
ENDSEC
  0
SECTION
  2
OBJECTS
  0
DICTIONARY
  5
C
330
0
100
AcDbDictionary
  3
ACAD_GROUP
350
D
  3
ACAD_LAYOUT
350
1B83
  3
ACAD_MLINESTYLE
350
E
  3
ACAD_PLOTSETTINGS
350
1B84
  3
ACAD_PLOTSTYLENAME
350
1B81
  3
ACDBHEADERROUNDTRIPXREC
350
4003
  3
ACDBVARIABLEDICTIONARY
350
E7A
  0
DICTIONARY
  5
1BF7
330
1A
100
AcDbDictionary
280
     1
  3
ACAD_LAYOUTSELFREF
360
4025
  0
DICTIONARY
  5
1BF5
330
17
100
AcDbDictionary
280
     1
  3
ACAD_LAYOUTSELFREF
360
4024
  0
DICTIONARY
  5
D
102
{ACAD_REACTORS
330
C
102
}
330
C
100
AcDbDictionary
  0
DICTIONARY
  5
1B83
102
{ACAD_REACTORS
330
C
102
}
330
C
100
AcDbDictionary
  0
DICTIONARY
  5
E
102
{ACAD_REACTORS
330
C
102
}
330
C
100
AcDbDictionary
  3
STANDARD
350
13
  0
DICTIONARY
  5
1B84
102
{ACAD_REACTORS
330
C
102
}
330
C
100
AcDbDictionary
  0
ACDBDICTIONARYWDFLT
  5
1B81
102
{ACAD_REACTORS
330
C
102
}
330
C
100
AcDbDictionary
281
     1
  3
Normal
350
1B82
100
AcDbDictionaryWithDefault
340
1B82
  0
DICTIONARY
  5
4003
102
{ACAD_REACTORS
330
C
102
}
330
C
100
AcDbDictionary
  3
CEPSNTYPE
350
400D
  3
DIMSTYLEDATA
350
4011
  3
FINGERPRINTGUID
350
400E
  3
HYPERLINKBASE
350
4006
  3
INSUNITS
350
400C
  3
LAYOUTDICT
350
4008
  3
LWETCUNION
350
400B
  3
PLOTSETDICT
350
4009
  3
PLOTSTYLNAMDICT
350
400A
  3
PSVPSCALE
350
4010
  3
PUCSBASE
350
4014
  3
PUCSORGBACK
350
401A
  3
PUCSORGBOTTOM
350
4016
  3
PUCSORGFRONT
350
4019
  3
PUCSORGLEFT
350
4017
  3
PUCSORGRIGHT
350
4018
  3
PUCSORGTOP
350
4015
  3
PUCSORTHOREF
350
4012
  3
PUCSORTHOVIEW
350
4013
  3
STYLESHEET
350
4007
  3
TSTACKALIGN
350
4004
  3
TSTACKSIZE
350
4005
  3
UCSBASE
350
401D
  3
UCSORGBACK
350
4023
  3
UCSORGBOTTOM
350
401F
  3
UCSORGFRONT
350
4022
  3
UCSORGLEFT
350
4020
  3
UCSORGRIGHT
350
4021
  3
UCSORGTOP
350
401E
  3
UCSORTHOREF
350
401B
  3
UCSORTHOVIEW
350
401C
  3
VERSIONGUID
350
400F
  0
DICTIONARY
  5
E7A
102
{ACAD_REACTORS
330
C
102
}
330
C
100
AcDbDictionary
  3
SORTENTS
350
E7B
  0
XRECORD
  5
4025
102
{ACAD_REACTORS
330
1BF7
102
}
330
1BF7
100
AcDbXrecord
340
1A
  0
XRECORD
  5
4024
102
{ACAD_REACTORS
330
1BF5
102
}
330
1BF5
100
AcDbXrecord
340
17
  0
MLINESTYLE
  5
13
102
{ACAD_REACTORS
330
E
102
}
330
E
100
AcDbMlineStyle
  2
STANDARD
 70
     0
  3

 62
     0
 51
90.0
 52
90.0
 71
     2
 49
0.5
 62
   256
  6
BYLAYER
 49
-0.5
 62
   256
  6
BYLAYER
  0
ACDBPLACEHOLDER
  5
1B82
102
{ACAD_REACTORS
330
1B81
102
}
330
1B81
100
AcDbPlaceHolder
280
     0
  0
XRECORD
  5
400D
102
{ACAD_REACTORS
330
4003
102
}
330
4003
100
AcDbXrecord
 90
        0
  0
XRECORD
  5
4011
102
{ACAD_REACTORS
330
4003
102
}
330
4003
100
AcDbXrecord
1000
DSTYLE
1002
{
1070
   341
340
3A8D
1070
   342
340
3A8D
1002
}
  0
XRECORD
  5
400E
102
{ACAD_REACTORS
330
4003
102
}
330
4003
100
AcDbXrecord
  1
{D592FCE0-8350-11D5-ACAE-009099148E29}
  0
XRECORD
  5
4006
102
{ACAD_REACTORS
330
4003
102
}
330
4003
100
AcDbXrecord
  1

  0
XRECORD
  5
400C
102
{ACAD_REACTORS
330
4003
102
}
330
4003
100
AcDbXrecord
 90
        0
  0
XRECORD
  5
4008
102
{ACAD_REACTORS
330
4003
102
}
330
4003
100
AcDbXrecord
340
1B83
  0
XRECORD
  5
400B
102
{ACAD_REACTORS
330
4003
102
}
330
4003
100
AcDbXrecord
 90
    10781
  0
XRECORD
  5
4009
102
{ACAD_REACTORS
330
4003
102
}
330
4003
100
AcDbXrecord
340
1B84
  0
XRECORD
  5
400A
102
{ACAD_REACTORS
330
4003
102
}
330
4003
100
AcDbXrecord
340
1B81
  0
XRECORD
  5
4010
102
{ACAD_REACTORS
330
4003
102
}
330
4003
100
AcDbXrecord
 40
0.0
  0
XRECORD
  5
4014
102
{ACAD_REACTORS
330
4003
102
}
330
4003
100
AcDbXrecord
340
0
  0
XRECORD
  5
401A
102
{ACAD_REACTORS
330
4003
102
}
330
4003
100
AcDbXrecord
 10
0.0
 20
0.0
 30
0.0
  0
XRECORD
  5
4016
102
{ACAD_REACTORS
330
4003
102
}
330
4003
100
AcDbXrecord
 10
0.0
 20
0.0
 30
0.0
  0
XRECORD
  5
4019
102
{ACAD_REACTORS
330
4003
102
}
330
4003
100
AcDbXrecord
 10
0.0
 20
0.0
 30
0.0
  0
XRECORD
  5
4017
102
{ACAD_REACTORS
330
4003
102
}
330
4003
100
AcDbXrecord
 10
0.0
 20
0.0
 30
0.0
  0
XRECORD
  5
4018
102
{ACAD_REACTORS
330
4003
102
}
330
4003
100
AcDbXrecord
 10
0.0
 20
0.0
 30
0.0
  0
XRECORD
  5
4015
102
{ACAD_REACTORS
330
4003
102
}
330
4003
100
AcDbXrecord
 10
0.0
 20
0.0
 30
0.0
  0
XRECORD
  5
4012
102
{ACAD_REACTORS
330
4003
102
}
330
4003
100
AcDbXrecord
340
0
  0
XRECORD
  5
4013
102
{ACAD_REACTORS
330
4003
102
}
330
4003
100
AcDbXrecord
 70
     0
  0
XRECORD
  5
4007
102
{ACAD_REACTORS
330
4003
102
}
330
4003
100
AcDbXrecord
  1
機械図面設定（みずいろ細線）.ctb
  0
XRECORD
  5
4004
102
{ACAD_REACTORS
330
4003
102
}
330
4003
100
AcDbXrecord
 90
        1
  0
XRECORD
  5
4005
102
{ACAD_REACTORS
330
4003
102
}
330
4003
100
AcDbXrecord
 90
       70
  0
XRECORD
  5
401D
102
{ACAD_REACTORS
330
4003
102
}
330
4003
100
AcDbXrecord
340
0
  0
XRECORD
  5
4023
102
{ACAD_REACTORS
330
4003
102
}
330
4003
100
AcDbXrecord
 10
0.0
 20
0.0
 30
0.0
  0
XRECORD
  5
401F
102
{ACAD_REACTORS
330
4003
102
}
330
4003
100
AcDbXrecord
 10
0.0
 20
0.0
 30
0.0
  0
XRECORD
  5
4022
102
{ACAD_REACTORS
330
4003
102
}
330
4003
100
AcDbXrecord
 10
0.0
 20
0.0
 30
0.0
  0
XRECORD
  5
4020
102
{ACAD_REACTORS
330
4003
102
}
330
4003
100
AcDbXrecord
 10
0.0
 20
0.0
 30
0.0
  0
XRECORD
  5
4021
102
{ACAD_REACTORS
330
4003
102
}
330
4003
100
AcDbXrecord
 10
0.0
 20
0.0
 30
0.0
  0
XRECORD
  5
401E
102
{ACAD_REACTORS
330
4003
102
}
330
4003
100
AcDbXrecord
 10
0.0
 20
0.0
 30
0.0
  0
XRECORD
  5
401B
102
{ACAD_REACTORS
330
4003
102
}
330
4003
100
AcDbXrecord
340
0
  0
XRECORD
  5
401C
102
{ACAD_REACTORS
330
4003
102
}
330
4003
100
AcDbXrecord
 70
     0
  0
XRECORD
  5
400F
102
{ACAD_REACTORS
330
4003
102
}
330
4003
100
AcDbXrecord
  1
{8C8829F5-97E0-11D5-A38A-00B0D0356B67}
  0
DICTIONARYVAR
  5
E7B
102
{ACAD_REACTORS
330
E7A
102
}
330
E7A
100
DictionaryVariables
280
     0
  1
96
  0
ENDSEC
  0
EOF
