  0
SECTION
  2
HEADER
  9
$ACADVER
  1
AC1014
  9
$ACADMAINTVER
 70
     9
  9
$DWGCODEPAGE
  3
ANSI_932
  9
$INSBASE
 10
0.0
 20
0.0
 30
0.0
  9
$EXTMIN
 10
157.9308733542226
 20
82.10696316475411
 30
0.0
  9
$EXTMAX
 10
979.5774527841681
 20
599.4057181647541
 30
0.0
  9
$LIMMIN
 10
0.0
 20
0.0
  9
$LIMMAX
 10
554.0
 20
395.0
  9
$ORTHOMODE
 70
     1
  9
$REGENMODE
 70
     1
  9
$FILLMODE
 70
     1
  9
$QTEXTMODE
 70
     0
  9
$MIRRTEXT
 70
     0
  9
$DRAGMODE
 70
     2
  9
$LTSCALE
 40
12.0
  9
$OSMODE
 70
    37
  9
$ATTMODE
 70
     1
  9
$TEXTSIZE
 40
3.0
  9
$TRACEWID
 40
0.05
  9
$TEXTSTYLE
  7
KANJI
  9
$CLAYER
  8
10
  9
$CELTYPE
  6
BYLAYER
  9
$CECOLOR
 62
   256
  9
$CELTSCALE
 40
1.0
  9
$DELOBJ
 70
     1
  9
$DISPSILH
 70
     0
  9
$DIMSCALE
 40
1.0
  9
$DIMASZ
 40
2.2
  9
$DIMEXO
 40
0.0625
  9
$DIMDLI
 40
0.38
  9
$DIMRND
 40
0.05
  9
$DIMDLE
 40
0.0
  9
$DIMEXE
 40
2.5
  9
$DIMTP
 40
0.0
  9
$DIMTM
 40
0.0
  9
$DIMTXT
 40
5.0
  9
$DIMCEN
 40
0.09
  9
$DIMTSZ
 40
0.0
  9
$DIMTOL
 70
     0
  9
$DIMLIM
 70
     0
  9
$DIMTIH
 70
     0
  9
$DIMTOH
 70
     0
  9
$DIMSE1
 70
     0
  9
$DIMSE2
 70
     0
  9
$DIMTAD
 70
     1
  9
$DIMZIN
 70
     0
  9
$DIMBLK
  1
OPEN30
  9
$DIMASO
 70
     1
  9
$DIMSHO
 70
     1
  9
$DIMPOST
  1

  9
$DIMAPOST
  1

  9
$DIMALT
 70
     0
  9
$DIMALTD
 70
     2
  9
$DIMALTF
 40
25.4
  9
$DIMLFAC
 40
1.0
  9
$DIMTOFL
 70
     0
  9
$DIMTVP
 40
0.0
  9
$DIMTIX
 70
     0
  9
$DIMSOXD
 70
     0
  9
$DIMSAH
 70
     0
  9
$DIMBLK1
  1

  9
$DIMBLK2
  1

  9
$DIMSTYLE
  2
STANDARD
  9
$DIMCLRD
 70
     4
  9
$DIMCLRE
 70
     4
  9
$DIMCLRT
 70
     4
  9
$DIMTFAC
 40
1.0
  9
$DIMGAP
 40
2.0
  9
$DIMJUST
 70
     0
  9
$DIMSD1
 70
     0
  9
$DIMSD2
 70
     0
  9
$DIMTOLJ
 70
     1
  9
$DIMTZIN
 70
     0
  9
$DIMALTZ
 70
     0
  9
$DIMALTTZ
 70
     0
  9
$DIMFIT
 70
     3
  9
$DIMUPT
 70
     0
  9
$DIMUNIT
 70
     2
  9
$DIMDEC
 70
     0
  9
$DIMTDEC
 70
     0
  9
$DIMALTU
 70
     2
  9
$DIMALTTD
 70
     2
  9
$DIMTXSTY
  7
STANDARD
  9
$DIMAUNIT
 70
     0
  9
$LUNITS
 70
     2
  9
$LUPREC
 70
     4
  9
$SKETCHINC
 40
0.1
  9
$FILLETRAD
 40
0.0
  9
$AUNITS
 70
     0
  9
$AUPREC
 70
     0
  9
$MENU
  1
C:\Tcad\TCAD\tcad-s
  9
$ELEVATION
 40
0.0
  9
$PELEVATION
 40
0.0
  9
$THICKNESS
 40
0.0
  9
$LIMCHECK
 70
     0
  9
$BLIPMODE
 70
     0
  9
$CHAMFERA
 40
0.0
  9
$CHAMFERB
 40
0.0
  9
$CHAMFERC
 40
0.0
  9
$CHAMFERD
 40
0.0
  9
$SKPOLY
 70
     0
  9
$TDCREATE
 40
2450752.336623958
  9
$TDUPDATE
 40
2452145.678483680
  9
$TDINDWG
 40
0.4800113426
  9
$TDUSRTIMER
 40
0.4800113426
  9
$USRTIMER
 70
     1
  9
$ANGBASE
 50
0.0
  9
$ANGDIR
 70
     0
  9
$PDMODE
 70
    35
  9
$PDSIZE
 40
23.99999999999998
  9
$PLINEWID
 40
0.0
  9
$COORDS
 70
     1
  9
$SPLFRAME
 70
     0
  9
$SPLINETYPE
 70
     6
  9
$SPLINESEGS
 70
     8
  9
$ATTDIA
 70
     0
  9
$ATTREQ
 70
     1
  9
$HANDLING
 70
-16383
  9
$HANDSEED
  5
6B8E
  9
$SURFTAB1
 70
     6
  9
$SURFTAB2
 70
     6
  9
$SURFTYPE
 70
     6
  9
$SURFU
 70
     6
  9
$SURFV
 70
     6
  9
$UCSNAME
  2

  9
$UCSORG
 10
0.0
 20
0.0
 30
0.0
  9
$UCSXDIR
 10
1.0
 20
0.0
 30
0.0
  9
$UCSYDIR
 10
0.0
 20
1.0
 30
0.0
  9
$PUCSNAME
  2

  9
$PUCSORG
 10
0.0
 20
0.0
 30
0.0
  9
$PUCSXDIR
 10
1.0
 20
0.0
 30
0.0
  9
$PUCSYDIR
 10
0.0
 20
1.0
 30
0.0
  9
$USERI1
 70
     0
  9
$USERI2
 70
     0
  9
$USERI3
 70
     0
  9
$USERI4
 70
     0
  9
$USERI5
 70
     0
  9
$USERR1
 40
0.0
  9
$USERR2
 40
0.0
  9
$USERR3
 40
0.0
  9
$USERR4
 40
0.0
  9
$USERR5
 40
0.0
  9
$WORLDVIEW
 70
     1
  9
$SHADEDGE
 70
     3
  9
$SHADEDIF
 70
    70
  9
$TILEMODE
 70
     1
  9
$MAXACTVP
 70
    16
  9
$PINSBASE
 10
0.0
 20
0.0
 30
0.0
  9
$PLIMCHECK
 70
     0
  9
$PEXTMIN
 10
1.000000000000000E+20
 20
1.000000000000000E+20
 30
1.000000000000000E+20
  9
$PEXTMAX
 10
-1.000000000000000E+20
 20
-1.000000000000000E+20
 30
-1.000000000000000E+20
  9
$PLIMMIN
 10
0.0
 20
0.0
  9
$PLIMMAX
 10
12.0
 20
9.0
  9
$UNITMODE
 70
     0
  9
$VISRETAIN
 70
     0
  9
$PLINEGEN
 70
     0
  9
$PSLTSCALE
 70
     1
  9
$TREEDEPTH
 70
  3020
  9
$PICKSTYLE
 70
     1
  9
$CMLSTYLE
  2
STANDARD
  9
$CMLJUST
 70
     0
  9
$CMLSCALE
 40
1.0
  9
$PROXYGRAPHICS
 70
     1
  9
$MEASUREMENT
 70
     0
  0
ENDSEC
  0
SECTION
  2
CLASSES
  0
CLASS
  1
LWPOLYLINE
  2
AcDbPolyline
  3
AutoCAD 2000
 90
        0
280
     0
281
     1
  0
CLASS
  1
DICTIONARYVAR
  2
AcDbDictionaryVar
  3
AutoCAD 2000
 90
        0
280
     0
281
     0
  0
CLASS
  1
HATCH
  2
AcDbHatch
  3
AutoCAD 2000
 90
        0
280
     0
281
     1
  0
CLASS
  1
ACDBDICTIONARYWDFLT
  2
AcDbDictionaryWithDefault
  3
AutoCAD 2000
 90
        0
280
     0
281
     0
  0
CLASS
  1
ACDBPLACEHOLDER
  2
AcDbPlaceHolder
  3
AutoCAD 2000
 90
        0
280
     0
281
     0
  0
CLASS
  1
LAYOUT
  2
AcDbLayout
  3
AutoCAD 2000
 90
        0
280
     0
281
     0
  0
CLASS
  1
LONG_TRANSACTION
  2
AcDbLongTransaction
  3
AutoCAD 2000
 90
        0
280
     0
281
     0
  0
CLASS
  1
LWPOLYLINE
  2
AcDbPolyline
  3
AutoCAD 2000
 90
        0
280
     0
281
     1
  0
CLASS
  1
HATCH
  2
AcDbHatch
  3
AutoCAD 2000
 90
        0
280
     0
281
     1
  0
CLASS
  1
XRECORD
  2
AcDbXrecord
  3
AutoCAD 2000
 90
        0
280
     0
281
     0
  0
CLASS
  1
LONG_TRANSACTION
  2
AcDbLongTransaction
  3
AutoCAD 2000
 90
        0
280
     0
281
     0
  0
CLASS
  1
LWPOLYLINE
  2
AcDbPolyline
  3
AutoCAD 2000
 90
        0
280
     0
281
     1
  0
CLASS
  1
HATCH
  2
AcDbHatch
  3
AutoCAD 2000
 90
        0
280
     0
281
     1
  0
CLASS
  1
XRECORD
  2
AcDbXrecord
  3
AutoCAD 2000
 90
        0
280
     0
281
     0
  0
CLASS
  1
LONG_TRANSACTION
  2
AcDbLongTransaction
  3
AutoCAD 2000
 90
        0
280
     0
281
     0
  0
CLASS
  1
LWPOLYLINE
  2
AcDbPolyline
  3
AutoCAD 2000
 90
        0
280
     0
281
     1
  0
CLASS
  1
HATCH
  2
AcDbHatch
  3
AutoCAD 2000
 90
        0
280
     0
281
     1
  0
CLASS
  1
XRECORD
  2
AcDbXrecord
  3
AutoCAD 2000
 90
        0
280
     0
281
     0
  0
CLASS
  1
LONG_TRANSACTION
  2
AcDbLongTransaction
  3
AutoCAD 2000
 90
        0
280
     0
281
     0
  0
CLASS
  1
LWPOLYLINE
  2
AcDbPolyline
  3
AutoCAD 2000
 90
        0
280
     0
281
     1
  0
CLASS
  1
HATCH
  2
AcDbHatch
  3
AutoCAD 2000
 90
        0
280
     0
281
     1
  0
CLASS
  1
XRECORD
  2
AcDbXrecord
  3
AutoCAD 2000
 90
        0
280
     0
281
     0
  0
CLASS
  1
LONG_TRANSACTION
  2
AcDbLongTransaction
  3
AutoCAD 2000
 90
        0
280
     0
281
     0
  0
CLASS
  1
LWPOLYLINE
  2
AcDbPolyline
  3
AutoCAD 2000
 90
        0
280
     0
281
     1
  0
CLASS
  1
HATCH
  2
AcDbHatch
  3
AutoCAD 2000
 90
        0
280
     0
281
     1
  0
CLASS
  1
XRECORD
  2
AcDbXrecord
  3
AutoCAD 2000
 90
        0
280
     0
281
     0
  0
ENDSEC
  0
SECTION
  2
TABLES
  0
TABLE
  2
VPORT
  5
8
330
0
100
AcDbSymbolTable
 70
     2
  0
VPORT
  5
6B6A
330
8
100
AcDbSymbolTableRecord
100
AcDbViewportTableRecord
  2
*ACTIVE
 70
     0
 10
0.0
 20
0.0
 11
1.0
 21
1.0
 12
707.0073737239365
 22
284.7167593404541
 13
0.0
 23
0.0
 14
1.0
 24
1.0
 15
0.0
 25
0.0
 16
0.0
 26
0.0
 36
1.0
 17
0.0
 27
0.0
 37
0.0
 40
300.2551487507605
 41
1.862823061630218
 42
50.0
 43
0.0
 44
0.0
 50
0.0
 51
0.0
 71
     0
 72
  1000
 73
     1
 74
     1
 75
     0
 76
     0
 77
     0
 78
     0
  0
ENDTAB
  0
TABLE
  2
LTYPE
  5
5
330
0
100
AcDbSymbolTable
 70
     5
  0
LTYPE
  5
14
330
5
100
AcDbSymbolTableRecord
100
AcDbLinetypeTableRecord
  2
BYBLOCK
 70
     0
  3

 72
    65
 73
     0
 40
0.0
  0
LTYPE
  5
15
330
5
100
AcDbSymbolTableRecord
100
AcDbLinetypeTableRecord
  2
BYLAYER
 70
     0
  3

 72
    65
 73
     0
 40
0.0
  0
LTYPE
  5
16
330
5
100
AcDbSymbolTableRecord
100
AcDbLinetypeTableRecord
  2
CONTINUOUS
 70
     0
  3
Solid line
 72
    65
 73
     0
 40
0.0
  0
LTYPE
  5
37
330
5
100
AcDbSymbolTableRecord
100
AcDbLinetypeTableRecord
  2
CENTER
 70
     0
  3
____ _ ____ _ ____ _ ____ _ ____ _ ____ _ ____ 
 72
    65
 73
     4
 40
2.0
 49
1.25
 74
     0
 49
-0.25
 74
     0
 49
0.25
 74
     0
 49
-0.25
 74
     0
  0
LTYPE
  5
1FC
330
5
100
AcDbSymbolTableRecord
100
AcDbLinetypeTableRecord
  2
HIDDEN2
 70
     0
  3
_ _ _ _ _ _ _ _ _ _ _ _ _ _ _ _ _ _ _ _ _ _ _ _
 72
    65
 73
     2
 40
0.1875
 49
0.125
 74
     0
 49
-0.0625
 74
     0
  0
LTYPE
  5
1FE
330
5
100
AcDbSymbolTableRecord
100
AcDbLinetypeTableRecord
  2
PHANTOM2
 70
     0
  3
___ _ _ ___ _ _ ___ _ _ ___ _ _ ___ _ _ ___ _ _
 72
    65
 73
     6
 40
1.25
 49
0.625
 74
     0
 49
-0.125
 74
     0
 49
0.125
 74
     0
 49
-0.125
 74
     0
 49
0.125
 74
     0
 49
-0.125
 74
     0
  0
LTYPE
  5
3E5
330
5
100
AcDbSymbolTableRecord
100
AcDbLinetypeTableRecord
  2
DASHED
 70
     0
  3
Dashed line
 72
    65
 73
     2
 40
0.75
 49
0.5
 74
     0
 49
-0.25
 74
     0
  0
ENDTAB
  0
TABLE
  2
LAYER
  5
2
330
0
100
AcDbSymbolTable
 70
     9
  0
LAYER
  5
F
330
2
100
AcDbSymbolTableRecord
100
AcDbLayerTableRecord
  2
0
 70
     0
 62
     2
  6
CONTINUOUS
  0
LAYER
  5
40
330
2
100
AcDbSymbolTableRecord
100
AcDbLayerTableRecord
  2
パターン
 70
     0
 62
     8
  6
CONTINUOUS
  0
LAYER
  5
3E7
330
2
100
AcDbSymbolTableRecord
100
AcDbLayerTableRecord
  2
210
 70
     0
 62
     4
  6
CONTINUOUS
  0
LAYER
  5
3E8
330
2
100
AcDbSymbolTableRecord
100
AcDbLayerTableRecord
  2
170
 70
     0
 62
     1
  6
CONTINUOUS
  0
LAYER
  5
3EA
330
2
100
AcDbSymbolTableRecord
100
AcDbLayerTableRecord
  2
150
 70
     0
 62
     7
  6
CONTINUOUS
  0
LAYER
  5
3EC
330
2
100
AcDbSymbolTableRecord
100
AcDbLayerTableRecord
  2
225
 70
     0
 62
     3
  6
CONTINUOUS
  0
LAYER
  5
3ED
330
2
100
AcDbSymbolTableRecord
100
AcDbLayerTableRecord
  2
230
 70
     0
 62
     6
  6
CONTINUOUS
  0
LAYER
  5
3EF
330
2
100
AcDbSymbolTableRecord
100
AcDbLayerTableRecord
  2
10
 70
     0
 62
     7
  6
CONTINUOUS
  0
LAYER
  5
3F0
330
2
100
AcDbSymbolTableRecord
100
AcDbLayerTableRecord
  2
DEFPOINTS
 70
     0
 62
     7
  6
CONTINUOUS
  0
ENDTAB
  0
TABLE
  2
STYLE
  5
3
330
0
100
AcDbSymbolTable
 70
     2
  0
STYLE
  5
10
330
3
100
AcDbSymbolTableRecord
100
AcDbTextStyleTableRecord
  2
STANDARD
 70
     0
 40
0.0
 41
1.0
 50
0.0
 71
     0
 42
30.0
  3
ROMANS
  4
BIGFONT
  0
STYLE
  5
108
330
3
100
AcDbSymbolTableRecord
100
AcDbTextStyleTableRecord
  2
KANJI
 70
     0
 40
0.0
 41
0.8
 50
0.0
 71
     0
 42
3.0
  3
romans
  4
bigfont
  0
ENDTAB
  0
TABLE
  2
VIEW
  5
6
330
0
100
AcDbSymbolTable
 70
     0
  0
ENDTAB
  0
TABLE
  2
UCS
  5
7
330
0
100
AcDbSymbolTable
 70
     0
  0
ENDTAB
  0
TABLE
  2
APPID
  5
9
330
0
100
AcDbSymbolTable
 70
     1
  0
APPID
  5
11
330
9
100
AcDbSymbolTableRecord
100
AcDbRegAppTableRecord
  2
ACAD
 70
     0
  0
ENDTAB
  0
TABLE
  2
DIMSTYLE
  5
A
330
0
100
AcDbSymbolTable
 70
     1
  0
DIMSTYLE
105
1D
330
A
100
AcDbSymbolTableRecord
100
AcDbDimStyleTableRecord
  2
STANDARD
 70
     0
  3

  4

  5
OPEN30
  6

  7

 40
1.0
 41
2.2
 42
0.0625
 43
0.38
 44
2.5
 45
0.05
 46
0.0
 47
0.0
 48
0.0
140
5.0
141
0.09
142
0.0
143
25.4
144
1.0
145
0.0
146
1.0
147
2.0
 71
     0
 72
     0
 73
     0
 74
     0
 75
     0
 76
     0
 77
     1
 78
     0
170
     0
171
     2
172
     0
173
     0
174
     0
175
     0
176
     4
177
     4
178
     4
270
     2
271
     0
272
     0
273
     2
274
     2
340
10
275
     0
280
     0
281
     0
282
     0
283
     1
284
     0
285
     0
286
     0
287
     3
288
     0
  0
ENDTAB
  0
TABLE
  2
BLOCK_RECORD
  5
1
330
0
100
AcDbSymbolTable
 70
     2
  0
BLOCK_RECORD
  5
1A
102
{ACAD_XDICTIONARY
360
1BF7
102
}
330
1
100
AcDbSymbolTableRecord
100
AcDbBlockTableRecord
  2
*MODEL_SPACE
  0
BLOCK_RECORD
  5
17
102
{ACAD_XDICTIONARY
360
1BF5
102
}
330
1
100
AcDbSymbolTableRecord
100
AcDbBlockTableRecord
  2
*PAPER_SPACE
  0
BLOCK_RECORD
  5
32
330
1
100
AcDbSymbolTableRecord
100
AcDbBlockTableRecord
  2
TCAD
  0
BLOCK_RECORD
  5
3A8D
330
1
100
AcDbSymbolTableRecord
100
AcDbBlockTableRecord
  2
_OPEN30
  0
ENDTAB
  0
ENDSEC
  0
SECTION
  2
BLOCKS
  0
BLOCK
  5
1B
330
1A
100
AcDbEntity
  8
0
100
AcDbBlockBegin
  2
*MODEL_SPACE
 70
     0
 10
0.0
 20
0.0
 30
0.0
  3
*MODEL_SPACE
  1

  0
ENDBLK
  5
1C
330
1A
100
AcDbEntity
  8
0
100
AcDbBlockEnd
  0
BLOCK
  5
18
330
17
100
AcDbEntity
 67
     1
  8
0
100
AcDbBlockBegin
  2
*PAPER_SPACE
 70
     0
 10
0.0
 20
0.0
 30
0.0
  3
*PAPER_SPACE
  1

  0
ENDBLK
  5
19
330
17
100
AcDbEntity
 67
     1
  8
0
100
AcDbBlockEnd
  0
BLOCK
  5
33
330
32
100
AcDbEntity
  8
0
100
AcDbBlockBegin
  2
TCAD
 70
     0
 10
0.0
 20
0.0
 30
0.0
  3
TCAD
  1

  0
ENDBLK
  5
34
330
32
100
AcDbEntity
  8
0
100
AcDbBlockEnd
  0
BLOCK
  5
3A91
330
3A8D
100
AcDbEntity
  8
0
 62
     2
100
AcDbBlockBegin
  2
_OPEN30
 70
     0
 10
0.0
 20
0.0
 30
0.0
  3
_OPEN30
  1

  0
LINE
  5
3A8E
330
3A8D
100
AcDbEntity
  8
0
  6
BYBLOCK
 62
     0
100
AcDbLine
 10
-1.0
 20
0.26794919
 30
0.0
 11
0.0
 21
0.0
 31
0.0
  0
LINE
  5
3A8F
330
3A8D
100
AcDbEntity
  8
0
  6
BYBLOCK
 62
     0
100
AcDbLine
 10
0.0
 20
0.0
 30
0.0
 11
-1.0
 21
-0.26794919
 31
0.0
  0
LINE
  5
3A90
330
3A8D
100
AcDbEntity
  8
0
  6
BYBLOCK
 62
     0
100
AcDbLine
 10
0.0
 20
0.0
 30
0.0
 11
-1.0
 21
0.0
 31
0.0
  0
ENDBLK
  5
3A92
330
3A8D
100
AcDbEntity
  8
0
 62
     2
100
AcDbBlockEnd
  0
ENDSEC
  0
SECTION
  2
ENTITIES
  0
INSERT
  5
109
330
1A
100
AcDbEntity
  8
パターン
100
AcDbBlockReference
  2
TCAD
 10
0.0
 20
0.0
 30
0.0
  0
INSERT
  5
10A
330
1A
100
AcDbEntity
  8
パターン
100
AcDbBlockReference
  2
TCAD
 10
0.0
 20
0.0
 30
0.0
  0
LINE
  5
5F8F
330
1A
100
AcDbEntity
  8
210
  6
CONTINUOUS
 62
     4
100
AcDbLine
 10
409.1005833542229
 20
527.6231371647541
 30
0.0
 11
504.6631133542227
 21
527.6231371647541
 31
0.0
  0
LINE
  5
5F90
330
1A
100
AcDbEntity
  8
210
  6
CONTINUOUS
 62
     4
100
AcDbLine
 10
409.1005833542229
 20
422.6231071647541
 30
0.0
 11
504.6631133542227
 21
422.6231071647541
 31
0.0
  0
LINE
  5
5F91
330
1A
100
AcDbEntity
  8
210
  6
CONTINUOUS
 62
     4
100
AcDbLine
 10
445.7877773542228
 20
475.123107164754
 30
0.0
 11
484.6631133542228
 21
475.123107164754
 31
0.0
  0
LINE
  5
5F92
330
1A
100
AcDbEntity
  8
210
  6
CONTINUOUS
 62
     4
100
AcDbLine
 10
408.2877773542227
 20
440.1231071647541
 30
0.0
 11
484.6631133542228
 21
440.1231071647541
 31
0.0
  0
TEXT
  5
5F93
330
1A
100
AcDbEntity
  8
210
  6
CONTINUOUS
 62
     4
100
AcDbText
 10
477.4756133542227
 20
453.081440164754
 30
0.0
 40
5.0
  1
35
 50
90.00000300000015
100
AcDbText
  0
LINE
  5
5F94
330
1A
100
AcDbEntity
  8
210
  6
CONTINUOUS
 62
     4
100
AcDbLine
 10
408.2877773542227
 20
510.1231071647541
 30
0.0
 11
484.6631133542228
 21
510.1231071647541
 31
0.0
  0
LINE
  5
5F95
330
1A
100
AcDbEntity
  8
210
  6
CONTINUOUS
 62
     4
100
AcDbLine
 10
445.7877773542228
 20
475.123107164754
 30
0.0
 11
484.6631133542228
 21
475.123107164754
 31
0.0
  0
TEXT
  5
5F96
330
1A
100
AcDbEntity
  8
210
  6
CONTINUOUS
 62
     4
100
AcDbText
 10
477.4756133542227
 20
488.081440164754
 30
0.0
 40
5.0
  1
35
 50
90.00000300000015
100
AcDbText
  0
LINE
  5
5F97
330
1A
100
AcDbEntity
  8
210
  6
CONTINUOUS
 62
     4
100
AcDbLine
 10
397.6005833542228
 20
176.179450164754
 30
0.0
 11
496.3832161534969
 21
176.179450164754
 31
0.0
  0
LINE
  5
5F98
330
1A
100
AcDbEntity
  8
210
  6
CONTINUOUS
 62
     4
100
AcDbLine
 10
459.6006133542228
 20
203.6794421647541
 30
0.0
 11
496.3832161534969
 21
203.6794421647541
 31
0.0
  0
LINE
  5
5F99
330
1A
100
AcDbEntity
  8
210
  6
CONTINUOUS
 62
     4
100
AcDbLine
 10
459.6006133542228
 20
203.6794421647541
 30
0.0
 11
496.3832161534969
 21
203.6794421647541
 31
0.0
  0
LINE
  5
5F9A
330
1A
100
AcDbEntity
  8
210
  6
CONTINUOUS
 62
     4
100
AcDbLine
 10
409.1005833542229
 20
248.679442164754
 30
0.0
 11
496.3832161534969
 21
248.679442164754
 31
0.0
  0
LINE
  5
5F9B
330
1A
100
AcDbEntity
  8
210
  6
CONTINUOUS
 62
     4
100
AcDbLine
 10
417.6005523542228
 20
153.679450164754
 30
0.0
 11
516.3832161534969
 21
153.679450164754
 31
0.0
  0
LINE
  5
5F9C
330
1A
100
AcDbEntity
  8
210
  6
CONTINUOUS
 62
     4
100
AcDbLine
 10
459.6006133542228
 20
203.6794421647541
 30
0.0
 11
516.3832161534969
 21
203.679442164754
 31
0.0
  0
LINE
  5
5FA1
330
1A
100
AcDbEntity
  8
210
  6
CONTINUOUS
 62
     4
100
AcDbLine
 10
459.6006133542228
 20
203.6794421647541
 30
0.0
 11
516.3832161534969
 21
203.6794421647541
 31
0.0
  0
LINE
  5
5FB5
330
1A
100
AcDbEntity
  8
0
  6
CONTINUOUS
 62
     2
100
AcDbLine
 10
409.1005753542228
 20
224.679446164754
 30
0.0
 11
439.6005753542228
 21
224.679446164754
 31
0.0
  0
LINE
  5
5FB7
330
1A
100
AcDbEntity
  8
170
  6
PHANTOM2
100
AcDbLine
 10
184.1005443542228
 20
328.6794461647541
 30
0.0
 11
284.6005753542228
 21
328.6794461647541
 31
0.0
  0
LINE
  5
5FB8
330
1A
100
AcDbEntity
  8
170
  6
PHANTOM2
100
AcDbLine
 10
184.1005443542228
 20
330.6794461647541
 30
0.0
 11
284.6005753542228
 21
330.6794461647541
 31
0.0
  0
LINE
  5
5FB9
330
1A
100
AcDbEntity
  8
170
  6
PHANTOM2
100
AcDbLine
 10
204.1005443542228
 20
198.679446164754
 30
0.0
 11
231.6005443542228
 21
198.679446164754
 31
0.0
  0
LINE
  5
5FBA
330
1A
100
AcDbEntity
  8
0
  6
CONTINUOUS
 62
     2
100
AcDbLine
 10
441.6005753542228
 20
203.679446164754
 30
0.0
 11
211.6005753542228
 21
203.679446164754
 31
0.0
  0
LINE
  5
5FBB
330
1A
100
AcDbEntity
  8
170
  6
PHANTOM2
100
AcDbLine
 10
194.6005443542228
 20
203.679446164754
 30
0.0
 11
194.6005443542228
 21
163.679446164754
 31
0.0
  0
LINE
  5
5FBC
330
1A
100
AcDbEntity
  8
170
  6
PHANTOM2
100
AcDbLine
 10
199.6005443542228
 20
194.179446164754
 30
0.0
 11
199.6005443542228
 21
166.679446164754
 31
0.0
  0
ARC
  5
5FBD
330
1A
100
AcDbEntity
  8
170
  6
PHANTOM2
100
AcDbCircle
 10
196.6005443542228
 20
166.679446164754
 30
0.0
 40
3.0
100
AcDbArc
 50
270.0
 51
0.000008999999603
  0
LINE
  5
5FBE
330
1A
100
AcDbEntity
  8
170
  6
PHANTOM2
100
AcDbLine
 10
194.6005443542228
 20
163.679446164754
 30
0.0
 11
196.6005443542228
 21
163.679446164754
 31
0.0
  0
LINE
  5
5FD1
330
1A
100
AcDbEntity
  8
0
  6
CONTINUOUS
 62
     2
100
AcDbLine
 10
211.6005753542228
 20
222.679446164754
 30
0.0
 11
211.6005753542228
 21
203.679446164754
 31
0.0
  0
LINE
  5
5FD2
330
1A
100
AcDbEntity
  8
170
  6
PHANTOM2
100
AcDbLine
 10
194.6005443542228
 20
203.679446164754
 30
0.0
 11
234.6005443542228
 21
203.679446164754
 31
0.0
  0
ARC
  5
5FD3
330
1A
100
AcDbEntity
  8
170
  6
PHANTOM2
100
AcDbCircle
 10
204.1005443542228
 20
194.179446164754
 30
0.0
 40
4.5
100
AcDbArc
 50
90.0
 51
180.0000029999993
  0
ARC
  5
5FD7
330
1A
100
AcDbEntity
  8
0
  6
CONTINUOUS
 62
     2
100
AcDbCircle
 10
213.6005753542228
 20
222.679446164754
 30
0.0
 40
2.0
100
AcDbArc
 50
90.0
 51
180.0000029999993
  0
LINE
  5
5FE3
330
1A
100
AcDbEntity
  8
0
  6
CONTINUOUS
 62
     2
100
AcDbLine
 10
258.1005753542228
 20
178.679446164754
 30
0.0
 11
258.1005753542228
 21
203.679446164754
 31
0.0
  0
LINE
  5
5FE4
330
1A
100
AcDbEntity
  8
0
  6
CONTINUOUS
 62
     2
100
AcDbLine
 10
255.1005753542228
 20
178.679446164754
 30
0.0
 11
255.1005753542228
 21
203.679446164754
 31
0.0
  0
LINE
  5
5FE5
330
1A
100
AcDbEntity
  8
0
  6
CONTINUOUS
 62
     2
100
AcDbLine
 10
398.1005753542228
 20
178.679446164754
 30
0.0
 11
398.1005753542228
 21
203.679446164754
 31
0.0
  0
LINE
  5
5FE6
330
1A
100
AcDbEntity
  8
0
  6
CONTINUOUS
 62
     2
100
AcDbLine
 10
395.1005753542228
 20
178.679446164754
 30
0.0
 11
395.1005753542228
 21
203.679446164754
 31
0.0
  0
LINE
  5
5FE7
330
1A
100
AcDbEntity
  8
170
  6
PHANTOM2
100
AcDbLine
 10
458.6006053542227
 20
203.679446164754
 30
0.0
 11
458.6006053542227
 21
163.679446164754
 31
0.0
  0
LINE
  5
5FE8
330
1A
100
AcDbEntity
  8
0
  6
CONTINUOUS
 62
     2
100
AcDbLine
 10
417.6005753542228
 20
154.679446164754
 30
0.0
 11
417.6005753542228
 21
203.679446164754
 31
0.0
  0
LINE
  5
5FE9
330
1A
100
AcDbEntity
  8
0
  6
CONTINUOUS
 62
     2
100
AcDbLine
 10
235.6005443542228
 20
154.679446164754
 30
0.0
 11
235.6005443542228
 21
203.679446164754
 31
0.0
  0
LINE
  5
5FEA
330
1A
100
AcDbEntity
  8
0
  6
CONTINUOUS
 62
     2
100
AcDbLine
 10
325.1005753542228
 20
178.679446164754
 30
0.0
 11
325.1005753542228
 21
203.679446164754
 31
0.0
  0
LINE
  5
5FEB
330
1A
100
AcDbEntity
  8
0
  6
CONTINUOUS
 62
     2
100
AcDbLine
 10
328.1005753542228
 20
178.679446164754
 30
0.0
 11
328.1005753542228
 21
203.679446164754
 31
0.0
  0
LINE
  5
5FEC
330
1A
100
AcDbEntity
  8
225
  6
CENTER
 62
     3
100
AcDbLine
 10
326.6005753542228
 20
348.6794461647541
 30
0.0
 11
326.6005753542228
 21
102.1794611647541
 31
0.0
  0
LINE
  5
5FED
330
1A
100
AcDbEntity
  8
225
  6
CENTER
 62
     3
100
AcDbLine
 10
256.6005443542228
 20
189.179446164754
 30
0.0
 11
256.6005443542228
 21
102.1794611647541
 31
0.0
  0
LINE
  5
5FEE
330
1A
100
AcDbEntity
  8
225
  6
CENTER
 62
     3
100
AcDbLine
 10
396.6005753542228
 20
189.179446164754
 30
0.0
 11
396.6005753542228
 21
102.1794611647541
 31
0.0
  0
LINE
  5
5FEF
330
1A
100
AcDbEntity
  8
170
  6
PHANTOM2
100
AcDbLine
 10
453.6006053542227
 20
194.179446164754
 30
0.0
 11
453.6006053542227
 21
166.679446164754
 31
0.0
  0
LINE
  5
5FF2
330
1A
100
AcDbEntity
  8
0
  6
CONTINUOUS
 62
     2
100
AcDbLine
 10
334.6005443542228
 20
153.679446164754
 30
0.0
 11
346.6005443542228
 21
153.679446164754
 31
0.0
  0
LINE
  5
5FF5
330
1A
100
AcDbEntity
  8
0
  6
CONTINUOUS
 62
     2
100
AcDbLine
 10
375.6005443542228
 20
178.679446164754
 30
0.0
 11
235.6005443542228
 21
178.679446164754
 31
0.0
  0
LINE
  5
5FFE
330
1A
100
AcDbEntity
  8
170
  6
PHANTOM2
100
AcDbLine
 10
261.6005443542228
 20
171.179446164754
 30
0.0
 11
261.6005443542228
 21
126.1794611647541
 31
0.0
  0
LINE
  5
5FFF
330
1A
100
AcDbEntity
  8
170
  6
PHANTOM2
100
AcDbLine
 10
251.6005443542228
 20
171.179446164754
 30
0.0
 11
251.6005443542228
 21
126.1794611647541
 31
0.0
  0
LINE
  5
6002
330
1A
100
AcDbEntity
  8
0
  6
CONTINUOUS
 62
     2
100
AcDbLine
 10
248.6005443542228
 20
153.679446164754
 30
0.0
 11
236.6005443542228
 21
153.679446164754
 31
0.0
  0
ARC
  5
6003
330
1A
100
AcDbEntity
  8
0
  6
CONTINUOUS
 62
     2
100
AcDbCircle
 10
236.6005443542228
 20
154.679446164754
 30
0.0
 40
1.0
100
AcDbArc
 50
180.0000050000005
 51
270.0000009999997
  0
LINE
  5
6004
330
1A
100
AcDbEntity
  8
0
  6
CONTINUOUS
 62
     2
100
AcDbLine
 10
277.6005443542228
 20
154.679446164754
 30
0.0
 11
277.6005443542228
 21
178.679446164754
 31
0.0
  0
LINE
  5
6005
330
1A
100
AcDbEntity
  8
0
  6
CONTINUOUS
 62
     2
100
AcDbLine
 10
262.3970233542228
 20
175.727053164754
 30
0.0
 11
262.8505443542228
 21
156.679446164754
 31
0.0
  0
LINE
  5
6006
330
1A
100
AcDbEntity
  8
0
  6
CONTINUOUS
 62
     2
100
AcDbLine
 10
250.8040663542228
 20
175.727053164754
 30
0.0
 11
250.3505443542228
 21
156.679446164754
 31
0.0
  0
LINE
  5
6007
330
1A
100
AcDbEntity
  8
0
  6
CONTINUOUS
 62
     2
100
AcDbLine
 10
262.8505443542228
 20
156.679446164754
 30
0.0
 11
264.6005443542228
 21
153.679446164754
 31
0.0
  0
LINE
  5
6008
330
1A
100
AcDbEntity
  8
0
  6
CONTINUOUS
 62
     2
100
AcDbLine
 10
250.3505443542228
 20
156.679446164754
 30
0.0
 11
248.6005443542228
 21
153.679446164754
 31
0.0
  0
LINE
  5
6009
330
1A
100
AcDbEntity
  8
0
  6
CONTINUOUS
 62
     2
100
AcDbLine
 10
264.6005443542228
 20
153.679446164754
 30
0.0
 11
276.6005443542228
 21
153.679446164754
 31
0.0
  0
ARC
  5
600A
330
1A
100
AcDbEntity
  8
0
  6
CONTINUOUS
 62
     2
100
AcDbCircle
 10
276.6005443542228
 20
154.679446164754
 30
0.0
 40
1.0
100
AcDbArc
 50
270.0
 51
359.9999959999992
  0
ARC
  5
600B
330
1A
100
AcDbEntity
  8
170
  6
PHANTOM2
100
AcDbCircle
 10
256.6005443542228
 20
171.179446164754
 30
0.0
 40
5.0
100
AcDbArc
 50
0.0
 51
180.0000050000005
  0
LINE
  5
600C
330
1A
100
AcDbEntity
  8
0
  6
CONTINUOUS
 62
     2
100
AcDbLine
 10
260.3976033542228
 20
177.679446164754
 30
0.0
 11
252.8034863542227
 21
177.679446164754
 31
0.0
  0
ARC
  5
600D
330
1A
100
AcDbEntity
  8
0
  6
CONTINUOUS
 62
     2
100
AcDbCircle
 10
252.8034863542227
 20
175.679446164754
 30
0.0
 40
2.0
100
AcDbArc
 50
90.0
 51
178.6360679999999
  0
ARC
  5
600E
330
1A
100
AcDbEntity
  8
0
  6
CONTINUOUS
 62
     2
100
AcDbCircle
 10
260.3976033542228
 20
175.679446164754
 30
0.0
 40
2.0
100
AcDbArc
 50
1.363928999999205
 51
89.99999699999987
  0
LINE
  5
6010
330
1A
100
AcDbEntity
  8
170
  6
PHANTOM2
100
AcDbLine
 10
331.6005753542228
 20
171.179446164754
 30
0.0
 11
331.6005753542228
 21
126.1794611647541
 31
0.0
  0
LINE
  5
6011
330
1A
100
AcDbEntity
  8
170
  6
PHANTOM2
100
AcDbLine
 10
321.6005753542228
 20
171.179446164754
 30
0.0
 11
321.6005753542228
 21
126.1794611647541
 31
0.0
  0
LINE
  5
601F
330
1A
100
AcDbEntity
  8
0
  6
CONTINUOUS
 62
     2
100
AcDbLine
 10
318.6005443542228
 20
153.679446164754
 30
0.0
 11
306.6005443542228
 21
153.679446164754
 31
0.0
  0
LINE
  5
6020
330
1A
100
AcDbEntity
  8
0
  6
CONTINUOUS
 62
     2
100
AcDbLine
 10
305.6005443542228
 20
154.679446164754
 30
0.0
 11
305.6005443542228
 21
178.679446164754
 31
0.0
  0
ARC
  5
6021
330
1A
100
AcDbEntity
  8
0
  6
CONTINUOUS
 62
     2
100
AcDbCircle
 10
306.6005443542228
 20
154.679446164754
 30
0.0
 40
1.0
100
AcDbArc
 50
180.0000050000005
 51
270.0000009999997
  0
LINE
  5
6022
330
1A
100
AcDbEntity
  8
0
  6
CONTINUOUS
 62
     2
100
AcDbLine
 10
332.3970233542228
 20
175.727053164754
 30
0.0
 11
332.8505443542228
 21
156.679446164754
 31
0.0
  0
LINE
  5
6023
330
1A
100
AcDbEntity
  8
0
  6
CONTINUOUS
 62
     2
100
AcDbLine
 10
320.8040663542228
 20
175.727053164754
 30
0.0
 11
320.3505443542228
 21
156.679446164754
 31
0.0
  0
LINE
  5
6024
330
1A
100
AcDbEntity
  8
0
  6
CONTINUOUS
 62
     2
100
AcDbLine
 10
320.3505443542228
 20
156.679446164754
 30
0.0
 11
318.6005443542228
 21
153.679446164754
 31
0.0
  0
LINE
  5
6025
330
1A
100
AcDbEntity
  8
0
  6
CONTINUOUS
 62
     2
100
AcDbLine
 10
332.8505443542228
 20
156.679446164754
 30
0.0
 11
334.6005443542228
 21
153.679446164754
 31
0.0
  0
LINE
  5
6026
330
1A
100
AcDbEntity
  8
0
  6
CONTINUOUS
 62
     2
100
AcDbLine
 10
330.3976033542228
 20
177.679446164754
 30
0.0
 11
322.8034863542228
 21
177.679446164754
 31
0.0
  0
ARC
  5
6027
330
1A
100
AcDbEntity
  8
170
  6
PHANTOM2
100
AcDbCircle
 10
326.6005753542228
 20
171.179446164754
 30
0.0
 40
5.0
100
AcDbArc
 50
0.0
 51
180.0000050000005
  0
ARC
  5
6028
330
1A
100
AcDbEntity
  8
0
  6
CONTINUOUS
 62
     2
100
AcDbCircle
 10
322.8034863542228
 20
175.679446164754
 30
0.0
 40
2.0
100
AcDbArc
 50
90.0
 51
178.6360679999999
  0
ARC
  5
6029
330
1A
100
AcDbEntity
  8
0
  6
CONTINUOUS
 62
     2
100
AcDbCircle
 10
330.3976033542228
 20
175.679446164754
 30
0.0
 40
2.0
100
AcDbArc
 50
1.363928999999205
 51
89.99999699999987
  0
LINE
  5
602D
330
1A
100
AcDbEntity
  8
0
  6
CONTINUOUS
 62
     2
100
AcDbLine
 10
404.6005443542227
 20
153.679446164754
 30
0.0
 11
416.6005443542228
 21
153.679446164754
 31
0.0
  0
LINE
  5
602E
330
1A
100
AcDbEntity
  8
170
  6
PHANTOM2
100
AcDbLine
 10
401.6005753542228
 20
171.179446164754
 30
0.0
 11
401.6005753542228
 21
126.1794611647541
 31
0.0
  0
LINE
  5
602F
330
1A
100
AcDbEntity
  8
170
  6
PHANTOM2
100
AcDbLine
 10
391.6005753542228
 20
171.179446164754
 30
0.0
 11
391.6005753542228
 21
126.1794611647541
 31
0.0
  0
LINE
  5
6033
330
1A
100
AcDbEntity
  8
0
  6
CONTINUOUS
 62
     2
100
AcDbLine
 10
388.6005443542228
 20
153.679446164754
 30
0.0
 11
376.6005443542228
 21
153.679446164754
 31
0.0
  0
LINE
  5
6034
330
1A
100
AcDbEntity
  8
0
  6
CONTINUOUS
 62
     2
100
AcDbLine
 10
375.6005443542228
 20
154.679446164754
 30
0.0
 11
375.6005443542228
 21
178.679446164754
 31
0.0
  0
LINE
  5
6035
330
1A
100
AcDbEntity
  8
0
  6
CONTINUOUS
 62
     2
100
AcDbLine
 10
347.6005443542228
 20
154.679446164754
 30
0.0
 11
347.6005443542228
 21
178.679446164754
 31
0.0
  0
ARC
  5
6036
330
1A
100
AcDbEntity
  8
0
  6
CONTINUOUS
 62
     2
100
AcDbCircle
 10
346.6005443542228
 20
154.679446164754
 30
0.0
 40
1.0
100
AcDbArc
 50
270.0
 51
359.9999959999992
  0
ARC
  5
6037
330
1A
100
AcDbEntity
  8
0
  6
CONTINUOUS
 62
     2
100
AcDbCircle
 10
376.6005443542228
 20
154.679446164754
 30
0.0
 40
1.0
100
AcDbArc
 50
180.0000050000005
 51
270.0000009999997
  0
LINE
  5
6038
330
1A
100
AcDbEntity
  8
0
  6
CONTINUOUS
 62
     2
100
AcDbLine
 10
402.3970233542227
 20
175.727053164754
 30
0.0
 11
402.8505443542227
 21
156.679446164754
 31
0.0
  0
LINE
  5
6039
330
1A
100
AcDbEntity
  8
0
  6
CONTINUOUS
 62
     2
100
AcDbLine
 10
390.8040663542228
 20
175.727053164754
 30
0.0
 11
390.3505443542227
 21
156.679446164754
 31
0.0
  0
LINE
  5
603A
330
1A
100
AcDbEntity
  8
0
  6
CONTINUOUS
 62
     2
100
AcDbLine
 10
390.3505443542227
 20
156.679446164754
 30
0.0
 11
388.6005443542228
 21
153.679446164754
 31
0.0
  0
LINE
  5
603B
330
1A
100
AcDbEntity
  8
0
  6
CONTINUOUS
 62
     2
100
AcDbLine
 10
402.8505443542227
 20
156.679446164754
 30
0.0
 11
404.6005443542227
 21
153.679446164754
 31
0.0
  0
LINE
  5
603C
330
1A
100
AcDbEntity
  8
0
  6
CONTINUOUS
 62
     2
100
AcDbLine
 10
400.3976033542228
 20
177.679446164754
 30
0.0
 11
392.8034863542228
 21
177.679446164754
 31
0.0
  0
ARC
  5
603D
330
1A
100
AcDbEntity
  8
170
  6
PHANTOM2
100
AcDbCircle
 10
396.6005753542228
 20
171.179446164754
 30
0.0
 40
5.0
100
AcDbArc
 50
0.0
 51
180.0000050000005
  0
ARC
  5
603E
330
1A
100
AcDbEntity
  8
0
  6
CONTINUOUS
 62
     2
100
AcDbCircle
 10
392.8034863542228
 20
175.679446164754
 30
0.0
 40
2.0
100
AcDbArc
 50
90.0
 51
178.6360679999999
  0
ARC
  5
603F
330
1A
100
AcDbEntity
  8
0
  6
CONTINUOUS
 62
     2
100
AcDbCircle
 10
400.3976033542228
 20
175.679446164754
 30
0.0
 40
2.0
100
AcDbArc
 50
1.363928999999205
 51
89.99999699999987
  0
LINE
  5
6040
330
1A
100
AcDbEntity
  8
0
  6
CONTINUOUS
 62
     2
100
AcDbLine
 10
395.1005753542228
 20
178.679446164754
 30
0.0
 11
398.1005753542228
 21
178.679446164754
 31
0.0
  0
ARC
  5
6042
330
1A
100
AcDbEntity
  8
0
  6
CONTINUOUS
 62
     2
100
AcDbCircle
 10
416.6005443542228
 20
154.679446164754
 30
0.0
 40
1.0
100
AcDbArc
 50
270.0
 51
359.9999959999992
  0
ARC
  5
6043
330
1A
100
AcDbEntity
  8
170
  6
PHANTOM2
100
AcDbCircle
 10
456.6006053542228
 20
166.679446164754
 30
0.0
 40
3.0
100
AcDbArc
 50
179.9999899999989
 51
269.9999990000002
  0
LINE
  5
6044
330
1A
100
AcDbEntity
  8
170
  6
PHANTOM2
100
AcDbLine
 10
458.6006053542227
 20
163.679446164754
 30
0.0
 11
456.6006053542228
 21
163.679446164754
 31
0.0
  0
LINE
  5
6046
330
1A
100
AcDbEntity
  8
0
  6
CONTINUOUS
 62
     2
100
AcDbLine
 10
276.6005753542228
 20
327.679446164754
 30
0.0
 11
301.6005753542228
 21
327.679446164754
 31
0.0
  0
LINE
  5
6047
330
1A
100
AcDbEntity
  8
0
  6
CONTINUOUS
 62
     2
100
AcDbLine
 10
302.6005753542228
 20
331.679446164754
 30
0.0
 11
350.6005753542228
 21
331.679446164754
 31
0.0
  0
LINE
  5
604E
330
1A
100
AcDbEntity
  8
150
  6
CONTINUOUS
100
AcDbLine
 10
244.1005443542228
 20
320.0794401647541
 30
0.0
 11
244.1005443542228
 21
224.679446164754
 31
0.0
  0
LINE
  5
604F
330
1A
100
AcDbEntity
  8
0
  6
CONTINUOUS
 62
     2
100
AcDbLine
 10
242.1005443542228
 20
321.079440164754
 30
0.0
 11
242.1005443542228
 21
227.579440164754
 31
0.0
  0
ARC
  5
6050
330
1A
100
AcDbEntity
  8
0
  6
CONTINUOUS
 62
     2
100
AcDbCircle
 10
234.1005753542228
 20
226.679446164754
 30
0.0
 40
1.0
100
AcDbArc
 50
90.0
 51
180.0000029999993
  0
LINE
  5
6052
330
1A
100
AcDbEntity
  8
0
  6
CONTINUOUS
 62
     2
100
AcDbLine
 10
237.1005443542228
 20
227.579440164754
 30
0.0
 11
237.1005443542228
 21
227.679446164754
 31
0.0
  0
LINE
  5
605B
330
1A
100
AcDbEntity
  8
170
  6
PHANTOM2
100
AcDbLine
 10
234.6005443542228
 20
203.679446164754
 30
0.0
 11
234.6005443542228
 21
201.679446164754
 31
0.0
  0
ARC
  5
605C
330
1A
100
AcDbEntity
  8
170
  6
PHANTOM2
100
AcDbCircle
 10
231.6005443542228
 20
201.679446164754
 30
0.0
 40
3.0
100
AcDbArc
 50
270.0
 51
0.000008999999603
  0
LINE
  5
606B
330
1A
100
AcDbEntity
  8
0
  6
CONTINUOUS
 62
     2
100
AcDbLine
 10
242.1005443542228
 20
227.579440164754
 30
0.0
 11
237.1005443542228
 21
227.579440164754
 31
0.0
  0
LINE
  5
606C
330
1A
100
AcDbEntity
  8
150
  6
CONTINUOUS
100
AcDbLine
 10
242.1005443542228
 20
225.579440164754
 30
0.0
 11
237.1005443542228
 21
225.579440164754
 31
0.0
  0
LINE
  5
606D
330
1A
100
AcDbEntity
  8
0
  6
CONTINUOUS
 62
     2
100
AcDbLine
 10
233.1005753542228
 20
224.679446164754
 30
0.0
 11
233.1005753542228
 21
226.679446164754
 31
0.0
  0
ARC
  5
606E
330
1A
100
AcDbEntity
  8
150
  6
CONTINUOUS
100
AcDbCircle
 10
242.1005443542228
 20
227.579440164754
 30
0.0
 40
2.0
100
AcDbArc
 50
270.0
 51
0.000008999999603
  0
LINE
  5
606F
330
1A
100
AcDbEntity
  8
0
  6
CONTINUOUS
 62
     2
100
AcDbLine
 10
234.1005753542228
 20
227.679446164754
 30
0.0
 11
237.1005443542228
 21
227.679446164754
 31
0.0
  0
LINE
  5
6078
330
1A
100
AcDbEntity
  8
150
  6
CONTINUOUS
100
AcDbLine
 10
252.9005323542228
 20
323.079440164754
 30
0.0
 11
252.9005323542228
 21
318.472933164754
 31
0.0
  0
LINE
  5
6079
330
1A
100
AcDbEntity
  8
150
  6
CONTINUOUS
100
AcDbLine
 10
250.3005573542228
 20
323.079440164754
 30
0.0
 11
250.3005573542228
 21
318.472933164754
 31
0.0
  0
LINE
  5
607A
330
1A
100
AcDbEntity
  8
225
  6
CENTER
 62
     3
100
AcDbLine
 10
251.6005443542228
 20
316.1794461647541
 30
0.0
 11
251.6005443542228
 21
327.8794281647541
 31
0.0
  0
ARC
  5
607B
330
1A
100
AcDbEntity
  8
150
  6
CONTINUOUS
100
AcDbCircle
 10
245.1005443542228
 20
320.0794401647541
 30
0.0
 40
1.0
100
AcDbArc
 50
90.0
 51
180.0000029999993
  0
LINE
  5
607D
330
1A
100
AcDbEntity
  8
150
  6
CONTINUOUS
100
AcDbLine
 10
250.5940443542228
 20
318.1794461647541
 30
0.0
 11
252.6070453542228
 21
318.1794461647541
 31
0.0
  0
LINE
  5
607E
330
1A
100
AcDbEntity
  8
150
  6
CONTINUOUS
100
AcDbLine
 10
252.9005323542228
 20
318.472933164754
 30
0.0
 11
252.6070453542228
 21
318.1794461647541
 31
0.0
  0
LINE
  5
607F
330
1A
100
AcDbEntity
  8
150
  6
CONTINUOUS
100
AcDbLine
 10
250.3005573542228
 20
318.472933164754
 30
0.0
 11
250.5940443542228
 21
318.1794461647541
 31
0.0
  0
LINE
  5
6080
330
1A
100
AcDbEntity
  8
0
  6
CONTINUOUS
 62
     2
100
AcDbLine
 10
244.1005443542228
 20
323.079440164754
 30
0.0
 11
261.3005573542228
 21
323.079440164754
 31
0.0
  0
LINE
  5
6081
330
1A
100
AcDbEntity
  8
150
  6
CONTINUOUS
100
AcDbLine
 10
245.1005443542228
 20
321.079440164754
 30
0.0
 11
259.1005443542228
 21
321.079440164754
 31
0.0
  0
ARC
  5
6084
330
1A
100
AcDbEntity
  8
0
  6
CONTINUOUS
 62
     2
100
AcDbCircle
 10
244.1005443542228
 20
321.079440164754
 30
0.0
 40
2.0
100
AcDbArc
 50
90.0
 51
180.0000029999993
  0
LINE
  5
6089
330
1A
100
AcDbEntity
  8
0
  6
CONTINUOUS
 62
     2
100
AcDbLine
 10
261.3005573542228
 20
322.679446164754
 30
0.0
 11
275.6005753542228
 21
322.6794461647541
 31
0.0
  0
ARC
  5
608A
330
1A
100
AcDbEntity
  8
150
  6
CONTINUOUS
100
AcDbCircle
 10
250.2159113542228
 20
324.8916871647541
 30
0.0
 40
0.8
100
AcDbArc
 50
105.4427049999995
 51
174.9999779999999
  0
ARC
  5
608B
330
1A
100
AcDbEntity
  8
150
  6
CONTINUOUS
100
AcDbCircle
 10
251.6005523542228
 20
319.879418164754
 30
0.0
 40
6.0
100
AcDbArc
 50
74.55716600000032
 51
105.4427620000002
  0
ARC
  5
608C
330
1A
100
AcDbEntity
  8
150
  6
CONTINUOUS
100
AcDbCircle
 10
252.9851983542228
 20
324.8916851647541
 30
0.0
 40
0.8
100
AcDbArc
 50
4.999968000000138
 51
74.5572209999998
  0
LINE
  5
608D
330
1A
100
AcDbEntity
  8
150
  6
CONTINUOUS
100
AcDbLine
 10
249.3505443542228
 20
324.1794461647541
 30
0.0
 11
253.8505443542228
 21
324.179446164754
 31
0.0
  0
LINE
  5
608E
330
1A
100
AcDbEntity
  8
150
  6
CONTINUOUS
100
AcDbLine
 10
249.1005443542228
 20
323.579440164754
 30
0.0
 11
254.1005443542228
 21
323.579440164754
 31
0.0
  0
LINE
  5
608F
330
1A
100
AcDbEntity
  8
150
  6
CONTINUOUS
100
AcDbLine
 10
253.8505443542228
 20
324.1794461647541
 30
0.0
 11
253.7821243542227
 21
324.9614281647541
 31
0.0
  0
LINE
  5
6090
330
1A
100
AcDbEntity
  8
150
  6
CONTINUOUS
100
AcDbLine
 10
249.3505443542228
 20
324.1794461647541
 30
0.0
 11
249.4189653542228
 21
324.9614281647541
 31
0.0
  0
LINE
  5
6091
330
1A
100
AcDbEntity
  8
150
  6
CONTINUOUS
100
AcDbLine
 10
251.9005633542227
 20
323.579440164754
 30
0.0
 11
251.6005443542228
 21
324.1794461647541
 31
0.0
  0
LINE
  5
6092
330
1A
100
AcDbEntity
  8
150
  6
CONTINUOUS
100
AcDbLine
 10
251.6005443542228
 20
323.579440164754
 30
0.0
 11
251.3005573542228
 21
324.1794461647541
 31
0.0
  0
LINE
  5
6093
330
1A
100
AcDbEntity
  8
150
  6
CONTINUOUS
100
AcDbLine
 10
254.2505383542228
 20
323.579440164754
 30
0.0
 11
254.2505383542228
 21
324.1794461647541
 31
0.0
  0
LINE
  5
6094
330
1A
100
AcDbEntity
  8
150
  6
CONTINUOUS
100
AcDbLine
 10
248.9505513542228
 20
323.579440164754
 30
0.0
 11
248.9505513542228
 21
324.1794461647541
 31
0.0
  0
LINE
  5
6095
330
1A
100
AcDbEntity
  8
150
  6
CONTINUOUS
100
AcDbLine
 10
249.1005443542228
 20
323.079440164754
 30
0.0
 11
249.1005443542228
 21
323.579440164754
 31
0.0
  0
LINE
  5
6096
330
1A
100
AcDbEntity
  8
150
  6
CONTINUOUS
100
AcDbLine
 10
254.1005443542228
 20
323.079440164754
 30
0.0
 11
254.1005443542228
 21
323.579440164754
 31
0.0
  0
LINE
  5
6097
330
1A
100
AcDbEntity
  8
150
  6
CONTINUOUS
100
AcDbLine
 10
249.1005443542228
 20
323.579440164754
 30
0.0
 11
248.9505513542228
 21
323.579440164754
 31
0.0
  0
LINE
  5
6098
330
1A
100
AcDbEntity
  8
150
  6
CONTINUOUS
100
AcDbLine
 10
254.2505383542228
 20
323.579440164754
 30
0.0
 11
254.1005443542228
 21
323.579440164754
 31
0.0
  0
LINE
  5
6099
330
1A
100
AcDbEntity
  8
150
  6
CONTINUOUS
100
AcDbLine
 10
254.2505383542228
 20
324.1794461647541
 30
0.0
 11
253.8505443542228
 21
324.1794461647541
 31
0.0
  0
LINE
  5
609A
330
1A
100
AcDbEntity
  8
150
  6
CONTINUOUS
100
AcDbLine
 10
248.9505513542228
 20
324.1794461647541
 30
0.0
 11
249.3505443542228
 21
324.1794461647541
 31
0.0
  0
LINE
  5
609B
330
1A
100
AcDbEntity
  8
0
  6
CONTINUOUS
 62
     2
100
AcDbLine
 10
261.3005573542228
 20
322.6794461647541
 30
0.0
 11
261.3005573542228
 21
323.079440164754
 31
0.0
  0
LINE
  5
609C
330
1A
100
AcDbEntity
  8
150
  6
CONTINUOUS
100
AcDbLine
 10
259.1005443542228
 20
321.079440164754
 30
0.0
 11
259.1005443542228
 21
322.6794461647541
 31
0.0
  0
LINE
  5
609D
330
1A
100
AcDbEntity
  8
0
  6
CONTINUOUS
 62
     2
100
AcDbLine
 10
275.6005753542228
 20
326.6794461647541
 30
0.0
 11
275.6005753542228
 21
322.6794461647541
 31
0.0
  0
ARC
  5
609E
330
1A
100
AcDbEntity
  8
0
  6
CONTINUOUS
 62
     2
100
AcDbCircle
 10
276.6005753542228
 20
326.6794461647541
 30
0.0
 40
1.0
100
AcDbArc
 50
90.0
 51
180.0000029999993
  0
ARC
  5
60A1
330
1A
100
AcDbEntity
  8
0
  6
CONTINUOUS
 62
     2
100
AcDbCircle
 10
312.8724563542228
 20
344.340029164754
 30
0.0
 40
1.0
100
AcDbArc
 50
21.12276999999927
 51
110.4998450000003
  0
LINE
  5
60A2
330
1A
100
AcDbEntity
  8
0
  6
CONTINUOUS
 62
     2
100
AcDbLine
 10
312.5222673542228
 20
345.2767051647541
 30
0.0
 11
307.3502703542227
 21
343.342990164754
 31
0.0
  0
LINE
  5
60A3
330
1A
100
AcDbEntity
  8
170
  6
PHANTOM2
100
AcDbLine
 10
284.6005753542228
 20
330.6794461647541
 30
0.0
 11
284.6005753542228
 21
328.6794461647541
 31
0.0
  0
LINE
  5
60A4
330
1A
100
AcDbEntity
  8
0
  6
CONTINUOUS
 62
     2
100
AcDbLine
 10
310.5154003542228
 20
331.679446164754
 30
0.0
 11
306.7600603542228
 21
342.066317164754
 31
0.0
  0
LINE
  5
60A5
330
1A
100
AcDbEntity
  8
0
  6
CONTINUOUS
 62
     2
100
AcDbLine
 10
301.6005753542228
 20
330.6794461647541
 30
0.0
 11
301.6005753542228
 21
327.679446164754
 31
0.0
  0
ARC
  5
60A6
330
1A
100
AcDbEntity
  8
0
  6
CONTINUOUS
 62
     2
100
AcDbCircle
 10
302.6005753542228
 20
330.6794461647541
 30
0.0
 40
1.0
100
AcDbArc
 50
90.0
 51
180.0000029999993
  0
ARC
  5
60A7
330
1A
100
AcDbEntity
  8
0
  6
CONTINUOUS
 62
     2
100
AcDbCircle
 10
307.7004903542228
 20
342.406314164754
 30
0.0
 40
1.0
100
AcDbArc
 50
110.4999679999997
 51
199.8773439999995
  0
LINE
  5
60A8
330
1A
100
AcDbEntity
  8
0
  6
CONTINUOUS
 62
     2
100
AcDbLine
 10
318.8355603542228
 20
331.679446164754
 30
0.0
 11
313.8052563542228
 21
344.7003811647541
 31
0.0
  0
TEXT
  5
60AD
330
1A
100
AcDbEntity
  8
230
 62
     6
100
AcDbText
 10
319.2133153542228
 20
350.968962164754
 30
0.0
 40
5.0
  1
ASL
100
AcDbText
  0
LINE
  5
60AE
330
1A
100
AcDbEntity
  8
150
  6
PHANTOM2
100
AcDbLine
 10
464.1005753542228
 20
320.0794401647541
 30
0.0
 11
464.1005753542228
 21
225.679446164754
 31
0.0
  0
LINE
  5
60AF
330
1A
100
AcDbEntity
  8
0
  6
CONTINUOUS
 62
     2
100
AcDbLine
 10
409.1005753542228
 20
320.0794401647541
 30
0.0
 11
409.1005753542228
 21
224.679446164754
 31
0.0
  0
LINE
  5
60B0
330
1A
100
AcDbEntity
  8
150
  6
PHANTOM2
100
AcDbLine
 10
409.1005753542227
 20
225.679446164754
 30
0.0
 11
464.1005753542228
 21
225.679446164754
 31
0.0
  0
LINE
  5
60B1
330
1A
100
AcDbEntity
  8
225
  6
CENTER
 62
     3
100
AcDbLine
 10
398.6005753542228
 20
267.779452164754
 30
0.0
 11
398.6005753542228
 21
229.779452164754
 31
0.0
  0
LINE
  5
60B2
330
1A
100
AcDbEntity
  8
150
  6
HIDDEN2
 62
     7
100
AcDbLine
 10
395.2770893542228
 20
251.179446164754
 30
0.0
 11
395.2770583542228
 21
234.779452164754
 31
0.0
  0
LINE
  5
60B3
330
1A
100
AcDbEntity
  8
150
  6
HIDDEN2
 62
     7
100
AcDbLine
 10
401.9240613542228
 20
251.179446164754
 30
0.0
 11
401.9240613542228
 21
234.779452164754
 31
0.0
  0
LINE
  5
60B4
330
1A
100
AcDbEntity
  8
150
  6
HIDDEN2
 62
     7
100
AcDbLine
 10
394.6005753542228
 20
251.179446164754
 30
0.0
 11
394.6005753542228
 21
235.4559661647541
 31
0.0
  0
LINE
  5
60B5
330
1A
100
AcDbEntity
  8
150
  6
HIDDEN2
 62
     7
100
AcDbLine
 10
402.6005753542228
 20
251.179446164754
 30
0.0
 11
402.6005753542228
 21
235.4559661647541
 31
0.0
  0
LINE
  5
60B6
330
1A
100
AcDbEntity
  8
150
  6
HIDDEN2
 62
     7
100
AcDbLine
 10
408.1005753542227
 20
248.679446164754
 30
0.0
 11
384.1005753542228
 21
248.679446164754
 31
0.0
  0
LINE
  5
60B7
330
1A
100
AcDbEntity
  8
150
  6
HIDDEN2
 62
     7
100
AcDbLine
 10
408.1005753542227
 20
243.679446164754
 30
0.0
 11
384.1005753542228
 21
243.679446164754
 31
0.0
  0
LINE
  5
60B8
330
1A
100
AcDbEntity
  8
150
  6
HIDDEN2
 62
     7
100
AcDbLine
 10
394.6005753542228
 20
235.4559661647541
 30
0.0
 11
402.6005753542228
 21
235.4559661647541
 31
0.0
  0
LINE
  5
60B9
330
1A
100
AcDbEntity
  8
150
  6
HIDDEN2
 62
     7
100
AcDbLine
 10
394.6005753542228
 20
235.4559661647541
 30
0.0
 11
395.2770583542228
 21
234.779452164754
 31
0.0
  0
LINE
  5
60BA
330
1A
100
AcDbEntity
  8
150
  6
HIDDEN2
 62
     7
100
AcDbLine
 10
395.2770583542228
 20
234.779452164754
 30
0.0
 11
401.9240613542228
 21
234.779452164754
 31
0.0
  0
LINE
  5
60BB
330
1A
100
AcDbEntity
  8
150
  6
HIDDEN2
 62
     7
100
AcDbLine
 10
402.6005753542228
 20
235.4559661647541
 30
0.0
 11
401.9240613542228
 21
234.779452164754
 31
0.0
  0
LINE
  5
60BC
330
1A
100
AcDbEntity
  8
150
  6
HIDDEN2
 62
     7
100
AcDbLine
 10
408.1005753542227
 20
248.679446164754
 30
0.0
 11
408.1005753542227
 21
243.679446164754
 31
0.0
  0
LINE
  5
60BD
330
1A
100
AcDbEntity
  8
150
  6
HIDDEN2
 62
     7
100
AcDbLine
 10
392.1005753542228
 20
262.779452164754
 30
0.0
 11
405.1005753542228
 21
262.779452164754
 31
0.0
  0
LINE
  5
60BE
330
1A
100
AcDbEntity
  8
150
  6
HIDDEN2
 62
     7
100
AcDbLine
 10
407.6005753542228
 20
251.179446164754
 30
0.0
 11
389.6005753542228
 21
251.179446164754
 31
0.0
  0
LINE
  5
60BF
330
1A
100
AcDbEntity
  8
150
  6
HIDDEN2
 62
     7
100
AcDbLine
 10
389.6005753542228
 20
252.779452164754
 30
0.0
 11
407.6005753542228
 21
252.779452164754
 31
0.0
  0
LINE
  5
60C0
330
1A
100
AcDbEntity
  8
150
  6
HIDDEN2
 62
     7
100
AcDbLine
 10
390.9005933542228
 20
254.779452164754
 30
0.0
 11
406.3005873542228
 21
254.779452164754
 31
0.0
  0
LINE
  5
60C1
330
1A
100
AcDbEntity
  8
150
  6
HIDDEN2
 62
     7
100
AcDbLine
 10
392.1005753542228
 20
254.779452164754
 30
0.0
 11
392.1005753542228
 21
262.779452164754
 31
0.0
  0
LINE
  5
60C2
330
1A
100
AcDbEntity
  8
150
  6
HIDDEN2
 62
     7
100
AcDbLine
 10
389.6005753542228
 20
251.179446164754
 30
0.0
 11
389.6005753542228
 21
252.779452164754
 31
0.0
  0
LINE
  5
60C3
330
1A
100
AcDbEntity
  8
150
  6
HIDDEN2
 62
     7
100
AcDbLine
 10
390.9005933542228
 20
252.779452164754
 30
0.0
 11
390.9005933542228
 21
254.779452164754
 31
0.0
  0
LINE
  5
60C4
330
1A
100
AcDbEntity
  8
150
  6
HIDDEN2
 62
     7
100
AcDbLine
 10
405.1005753542228
 20
254.779452164754
 30
0.0
 11
405.1005753542228
 21
262.779452164754
 31
0.0
  0
LINE
  5
60C7
330
1A
100
AcDbEntity
  8
150
  6
HIDDEN2
 62
     7
100
AcDbLine
 10
398.6005753542228
 20
252.779452164754
 30
0.0
 11
397.6005753542228
 21
254.779452164754
 31
0.0
  0
LINE
  5
60C8
330
1A
100
AcDbEntity
  8
150
  6
HIDDEN2
 62
     7
100
AcDbLine
 10
399.6005753542228
 20
252.779452164754
 30
0.0
 11
398.6005753542228
 21
254.779452164754
 31
0.0
  0
LINE
  5
60C9
330
1A
100
AcDbEntity
  8
150
  6
HIDDEN2
 62
     7
100
AcDbLine
 10
407.6005753542228
 20
251.179446164754
 30
0.0
 11
407.6005753542228
 21
252.779452164754
 31
0.0
  0
LINE
  5
60CA
330
1A
100
AcDbEntity
  8
150
  6
HIDDEN2
 62
     7
100
AcDbLine
 10
406.3005873542228
 20
252.779452164754
 30
0.0
 11
406.3005873542228
 21
254.779452164754
 31
0.0
  0
TEXT
  5
60CD
330
1A
100
AcDbEntity
  8
210
  6
CONTINUOUS
 62
     4
100
AcDbText
 10
489.1957161534969
 20
221.5544421647541
 30
0.0
 40
5.0
  1
45
 50
90.00000300000015
100
AcDbText
  0
LINE
  5
60CF
330
1A
100
AcDbEntity
  8
170
  6
PHANTOM2
100
AcDbLine
 10
458.6006053542227
 20
203.679446164754
 30
0.0
 11
418.6006053542228
 21
203.679446164754
 31
0.0
  0
LINE
  5
60D0
330
1A
100
AcDbEntity
  8
170
  6
PHANTOM2
100
AcDbLine
 10
449.1006053542228
 20
198.679446164754
 30
0.0
 11
421.6006053542228
 21
198.679446164754
 31
0.0
  0
LINE
  5
60D5
330
1A
100
AcDbEntity
  8
0
  6
CONTINUOUS
 62
     2
100
AcDbLine
 10
441.6005753542228
 20
222.679446164754
 30
0.0
 11
441.6005753542228
 21
203.679446164754
 31
0.0
  0
ARC
  5
60D6
330
1A
100
AcDbEntity
  8
170
  6
PHANTOM2
100
AcDbCircle
 10
421.6006053542228
 20
201.679446164754
 30
0.0
 40
3.0
100
AcDbArc
 50
179.9999899999989
 51
269.9999990000002
  0
LINE
  5
60D7
330
1A
100
AcDbEntity
  8
170
  6
PHANTOM2
100
AcDbLine
 10
418.6006053542228
 20
203.679446164754
 30
0.0
 11
418.6006053542228
 21
201.679446164754
 31
0.0
  0
ARC
  5
60ED
330
1A
100
AcDbEntity
  8
0
  6
CONTINUOUS
 62
     2
100
AcDbCircle
 10
439.6005753542228
 20
222.679446164754
 30
0.0
 40
2.0
100
AcDbArc
 50
0.0
 51
90.00000300000015
  0
ARC
  5
60EE
330
1A
100
AcDbEntity
  8
170
  6
PHANTOM2
100
AcDbCircle
 10
449.1006053542228
 20
194.179446164754
 30
0.0
 40
4.5
100
AcDbArc
 50
359.9999949999995
 51
89.99999699999987
  0
TEXT
  5
60EF
330
1A
100
AcDbEntity
  8
210
  6
CONTINUOUS
 62
     4
100
AcDbText
 10
489.1957161534969
 20
181.804450164754
 30
0.0
 40
5.0
  1
27.5
 50
90.00000300000015
100
AcDbText
  0
LINE
  5
60F1
330
1A
100
AcDbEntity
  8
170
  6
PHANTOM2
100
AcDbLine
 10
368.6005753542228
 20
328.6794461647541
 30
0.0
 11
469.1005753542228
 21
328.6794461647541
 31
0.0
  0
LINE
  5
60F2
330
1A
100
AcDbEntity
  8
150
  6
PHANTOM2
100
AcDbLine
 10
404.5505873542228
 20
325.179446164754
 30
0.0
 11
413.6505633542228
 21
325.179446164754
 31
0.0
  0
LINE
  5
60F3
330
1A
100
AcDbEntity
  8
150
  6
PHANTOM2
100
AcDbLine
 10
394.1006053542228
 20
322.6794461647541
 30
0.0
 11
462.1005753542227
 21
322.6794461647541
 31
0.0
  0
LINE
  5
60F4
330
1A
100
AcDbEntity
  8
150
  6
PHANTOM2
100
AcDbLine
 10
404.8505753542228
 20
323.979434164754
 30
0.0
 11
413.3505753542228
 21
323.979434164754
 31
0.0
  0
LINE
  5
60F5
330
1A
100
AcDbEntity
  8
170
  6
PHANTOM2
100
AcDbLine
 10
368.6005753542228
 20
330.6794461647541
 30
0.0
 11
469.1005753542228
 21
330.6794461647541
 31
0.0
  0
ARC
  5
60F6
330
1A
100
AcDbEntity
  8
0
  6
CONTINUOUS
 62
     2
100
AcDbCircle
 10
408.1006053542227
 20
320.0794401647541
 30
0.0
 40
1.0
100
AcDbArc
 50
359.9999949999995
 51
89.99999699999987
  0
LINE
  5
60F7
330
1A
100
AcDbEntity
  8
0
  6
CONTINUOUS
 62
     2
100
AcDbLine
 10
377.6005753542228
 20
322.6794461647541
 30
0.0
 11
394.1006053542228
 21
322.6794461647541
 31
0.0
  0
LINE
  5
60F8
330
1A
100
AcDbEntity
  8
0
  6
CONTINUOUS
 62
     2
100
AcDbLine
 10
351.6005753542228
 20
330.6794461647541
 30
0.0
 11
351.6005753542228
 21
327.679446164754
 31
0.0
  0
ARC
  5
60F9
330
1A
100
AcDbEntity
  8
0
  6
CONTINUOUS
 62
     2
100
AcDbCircle
 10
350.6005753542228
 20
330.6794461647541
 30
0.0
 40
1.0
100
AcDbArc
 50
0.0
 51
90.00000300000015
  0
LINE
  5
60FA
330
1A
100
AcDbEntity
  8
170
  6
PHANTOM2
100
AcDbLine
 10
368.6005753542228
 20
330.6794461647541
 30
0.0
 11
368.6005753542228
 21
328.6794461647541
 31
0.0
  0
LINE
  5
60FB
330
1A
100
AcDbEntity
  8
0
  6
CONTINUOUS
 62
     2
100
AcDbLine
 10
377.6005753542228
 20
326.6794461647541
 30
0.0
 11
377.6005753542228
 21
322.6794461647541
 31
0.0
  0
ARC
  5
60FC
330
1A
100
AcDbEntity
  8
0
  6
CONTINUOUS
 62
     2
100
AcDbCircle
 10
376.6005753542228
 20
326.6794461647541
 30
0.0
 40
1.0
100
AcDbArc
 50
0.0
 51
90.00000300000015
  0
LINE
  5
60FF
330
1A
100
AcDbEntity
  8
0
  6
CONTINUOUS
 62
     2
100
AcDbLine
 10
408.1006053542227
 20
321.079440164754
 30
0.0
 11
394.1006053542228
 21
321.079440164754
 31
0.0
  0
LINE
  5
6100
330
1A
100
AcDbEntity
  8
0
  6
CONTINUOUS
 62
     2
100
AcDbLine
 10
394.1006053542228
 20
321.079440164754
 30
0.0
 11
394.1006053542228
 21
322.6794461647541
 31
0.0
  0
ARC
  5
6101
330
1A
100
AcDbEntity
  8
150
  6
PHANTOM2
100
AcDbCircle
 10
404.5505873542228
 20
323.979434164754
 30
0.0
 40
1.199999999999999
100
AcDbArc
 50
90.0
 51
180.0000029999993
  0
LINE
  5
6102
330
1A
100
AcDbEntity
  8
150
  6
PHANTOM2
100
AcDbLine
 10
403.3505753542228
 20
322.6794461647541
 30
0.0
 11
403.3505753542228
 21
323.979434164754
 31
0.0
  0
LINE
  5
6103
330
1A
100
AcDbEntity
  8
150
  6
PHANTOM2
100
AcDbLine
 10
404.8505753542228
 20
322.6794461647541
 30
0.0
 11
404.8505753542228
 21
323.979434164754
 31
0.0
  0
ARC
  5
6107
330
1A
100
AcDbEntity
  8
150
  6
PHANTOM2
100
AcDbCircle
 10
413.6505633542228
 20
323.979434164754
 30
0.0
 40
1.199999999999999
100
AcDbArc
 50
0.0
 51
90.00000300000015
  0
LINE
  5
6108
330
1A
100
AcDbEntity
  8
150
  6
PHANTOM2
100
AcDbLine
 10
414.8505753542228
 20
322.6794461647541
 30
0.0
 11
414.8505753542228
 21
323.979434164754
 31
0.0
  0
LINE
  5
6109
330
1A
100
AcDbEntity
  8
150
  6
PHANTOM2
100
AcDbLine
 10
413.3505753542228
 20
322.6794461647541
 30
0.0
 11
413.3505753542228
 21
323.979434164754
 31
0.0
  0
ARC
  5
610B
330
1A
100
AcDbEntity
  8
150
  6
PHANTOM2
100
AcDbCircle
 10
462.1005753542227
 20
320.6794461647541
 30
0.0
 40
2.0
100
AcDbArc
 50
0.0
 51
90.00000300000015
  0
LINE
  5
610E
330
1A
100
AcDbEntity
  8
210
  6
CONTINUOUS
 62
     4
100
AcDbLine
 10
424.4134183542228
 20
452.623076164754
 30
0.0
 11
188.5380523542228
 21
452.623076164754
 31
0.0
  0
LINE
  5
610F
330
1A
100
AcDbEntity
  8
210
  6
CONTINUOUS
 62
     4
100
AcDbLine
 10
211.6005523542228
 20
575.123137164754
 30
0.0
 11
441.6005833542228
 21
575.123137164754
 31
0.0
  0
LINE
  5
6110
330
1A
100
AcDbEntity
  8
210
  6
CONTINUOUS
 62
     4
100
AcDbLine
 10
215.4133423542228
 20
535.1231371647541
 30
0.0
 11
168.5380523542228
 21
535.1231371647541
 31
0.0
  0
LINE
  5
6111
330
1A
100
AcDbEntity
  8
210
  6
CONTINUOUS
 62
     4
100
AcDbLine
 10
215.4133423542228
 20
415.1231071647541
 30
0.0
 11
168.5380523542228
 21
415.1231071647541
 31
0.0
  0
CIRCLE
  5
6112
330
1A
100
AcDbEntity
  8
150
  6
CENTER
100
AcDbCircle
 10
219.6005533542228
 20
497.6231191647541
 30
0.0
 40
6.5
  0
LINE
  5
6113
330
1A
100
AcDbEntity
  8
225
  6
CENTER
 62
     3
100
AcDbLine
 10
228.6005443542228
 20
497.623110164754
 30
0.0
 11
210.6005443542228
 21
497.623110164754
 31
0.0
  0
LINE
  5
6114
330
1A
100
AcDbEntity
  8
225
  6
CENTER
 62
     3
100
AcDbLine
 10
207.6005443542228
 20
475.123110164754
 30
0.0
 11
445.6005753542227
 21
475.123110164754
 31
0.0
  0
LINE
  5
6115
330
1A
100
AcDbEntity
  8
0
  6
CONTINUOUS
 62
     2
100
AcDbLine
 10
219.6005443542228
 20
490.6231101647541
 30
0.0
 11
212.6005443542228
 21
490.6231101647541
 31
0.0
  0
LINE
  5
6116
330
1A
100
AcDbEntity
  8
0
  6
CONTINUOUS
 62
     2
100
AcDbLine
 10
219.6005443542228
 20
504.623110164754
 30
0.0
 11
212.6005443542228
 21
504.623110164754
 31
0.0
  0
ARC
  5
6117
330
1A
100
AcDbEntity
  8
0
  6
CONTINUOUS
 62
     2
100
AcDbCircle
 10
215.6005443542228
 20
531.1231411647541
 30
0.0
 40
4.0
100
AcDbArc
 50
90.0
 51
180.0000029999993
  0
ARC
  5
6118
330
1A
100
AcDbEntity
  8
0
  6
CONTINUOUS
 62
     2
100
AcDbCircle
 10
215.6005443542228
 20
419.1231101647541
 30
0.0
 40
4.0
100
AcDbArc
 50
180.0000050000005
 51
270.0000009999997
  0
LINE
  5
6119
330
1A
100
AcDbEntity
  8
210
  6
CONTINUOUS
 62
     4
100
AcDbLine
 10
211.6005523542228
 20
532.1231371647541
 30
0.0
 11
211.6005523542228
 21
579.1856371647541
 31
0.0
  0
LINE
  5
611A
330
1A
100
AcDbEntity
  8
210
  6
CONTINUOUS
 62
     4
100
AcDbLine
 10
192.6005523542228
 20
497.6231071647541
 30
0.0
 11
192.6005523542228
 21
452.623076164754
 31
0.0
  0
LINE
  5
611B
330
1A
100
AcDbEntity
  8
210
  6
CONTINUOUS
 62
     4
100
AcDbLine
 10
172.6005523542228
 20
415.1231071647541
 30
0.0
 11
172.6005523542228
 21
535.1231371647541
 31
0.0
  0
LINE
  5
611C
330
1A
100
AcDbEntity
  8
0
  6
CONTINUOUS
 62
     2
100
AcDbLine
 10
211.6005443542228
 20
419.1231101647541
 30
0.0
 11
211.6005443542228
 21
531.1231411647541
 31
0.0
  0
LINE
  5
611D
330
1A
100
AcDbEntity
  8
210
  6
CONTINUOUS
 62
     4
100
AcDbLine
 10
172.6005523542228
 20
415.1231071647541
 30
0.0
 11
172.2672193542228
 21
417.0951331647541
 31
0.0
  0
LINE
  5
611E
330
1A
100
AcDbEntity
  8
210
  6
CONTINUOUS
 62
     4
100
AcDbLine
 10
172.6005523542228
 20
415.1231071647541
 30
0.0
 11
172.9338853542228
 21
417.0951331647541
 31
0.0
  0
LINE
  5
611F
330
1A
100
AcDbEntity
  8
210
  6
CONTINUOUS
 62
     4
100
AcDbLine
 10
192.6005523542228
 20
452.623076164754
 30
0.0
 11
192.2672193542228
 21
454.5951031647541
 31
0.0
  0
LINE
  5
6120
330
1A
100
AcDbEntity
  8
210
  6
CONTINUOUS
 62
     4
100
AcDbLine
 10
192.6005523542228
 20
452.623076164754
 30
0.0
 11
192.9338853542228
 21
454.5951031647541
 31
0.0
  0
TEXT
  5
6121
330
1A
100
AcDbEntity
  8
210
  6
CONTINUOUS
 62
     4
100
AcDbText
 10
169.4755523542228
 20
469.5398031647541
 30
0.0
 40
5.0
  1
120
 50
90.00000300000015
100
AcDbText
  0
TEXT
  5
6122
330
1A
100
AcDbEntity
  8
210
  6
CONTINUOUS
 62
     4
100
AcDbText
 10
189.4755523542228
 20
470.4981061647541
 30
0.0
 40
5.0
  1
45
 50
90.00000300000015
100
AcDbText
  0
TEXT
  5
6123
330
1A
100
AcDbEntity
  8
230
  6
CONTINUOUS
 62
     6
100
AcDbText
 10
203.6013463542228
 20
472.328246164754
 30
0.0
 40
5.0
  1
L
100
AcDbText
  0
TEXT
  5
6124
330
1A
100
AcDbEntity
  8
230
  6
CONTINUOUS
 62
     6
100
AcDbText
 10
201.8510403542228
 20
474.0785201647541
 30
0.0
 40
5.0
  1
H
100
AcDbText
  0
LINE
  5
6125
330
1A
100
AcDbEntity
  8
210
  6
CONTINUOUS
 62
     4
100
AcDbLine
 10
210.4133423542228
 20
497.6231071647541
 30
0.0
 11
188.5380523542228
 21
497.6231071647541
 31
0.0
  0
LINE
  5
6126
330
1A
100
AcDbEntity
  8
210
  6
CONTINUOUS
 62
     4
100
AcDbLine
 10
192.6005523542228
 20
497.6231071647541
 30
0.0
 11
192.2672193542228
 21
495.651080164754
 31
0.0
  0
LINE
  5
6127
330
1A
100
AcDbEntity
  8
210
  6
CONTINUOUS
 62
     4
100
AcDbLine
 10
192.6005523542228
 20
497.6231071647541
 30
0.0
 11
192.9338853542228
 21
495.651080164754
 31
0.0
  0
ARC
  5
6128
330
1A
100
AcDbEntity
  8
0
  6
CONTINUOUS
 62
     2
100
AcDbCircle
 10
212.6005443542228
 20
489.623110164754
 30
0.0
 40
1.0
100
AcDbArc
 50
90.0
 51
180.0000029999993
  0
ARC
  5
6129
330
1A
100
AcDbEntity
  8
0
  6
CONTINUOUS
 62
     2
100
AcDbCircle
 10
212.6005443542228
 20
505.623110164754
 30
0.0
 40
1.0
100
AcDbArc
 50
180.0000050000005
 51
270.0000009999997
  0
LINE
  5
612A
330
1A
100
AcDbEntity
  8
210
  6
CONTINUOUS
 62
     4
100
AcDbLine
 10
172.6005523542228
 20
535.1231371647541
 30
0.0
 11
172.2672193542228
 21
533.1511111647541
 31
0.0
  0
LINE
  5
612B
330
1A
100
AcDbEntity
  8
210
  6
CONTINUOUS
 62
     4
100
AcDbLine
 10
172.6005523542228
 20
535.1231371647541
 30
0.0
 11
172.9338853542228
 21
533.1511111647541
 31
0.0
  0
LINE
  5
612D
330
1A
100
AcDbEntity
  8
210
  6
CONTINUOUS
 62
     4
100
AcDbLine
 10
211.6005523542228
 20
575.123137164754
 30
0.0
 11
213.5725793542228
 21
574.789804164754
 31
0.0
  0
LINE
  5
612E
330
1A
100
AcDbEntity
  8
210
  6
CONTINUOUS
 62
     4
100
AcDbLine
 10
211.6005523542228
 20
575.123137164754
 30
0.0
 11
213.5725793542228
 21
575.4564701647541
 31
0.0
  0
LINE
  5
612F
330
1A
100
AcDbEntity
  8
210
  6
CONTINUOUS
 62
     4
100
AcDbLine
 10
433.6006133542228
 20
461.810271164754
 30
0.0
 11
433.6006133542228
 21
559.185668164754
 31
0.0
  0
LINE
  5
6130
330
1A
100
AcDbEntity
  8
210
  6
CONTINUOUS
 62
     4
100
AcDbLine
 10
219.6005523542228
 20
506.810271164754
 30
0.0
 11
219.6005523542228
 21
559.185668164754
 31
0.0
  0
LINE
  5
6131
330
1A
100
AcDbEntity
  8
210
  6
CONTINUOUS
 62
     4
100
AcDbLine
 10
441.6005833542228
 20
532.1231371647541
 30
0.0
 11
441.6005833542228
 21
579.1856371647541
 31
0.0
  0
LINE
  5
6132
330
1A
100
AcDbEntity
  8
210
  6
CONTINUOUS
 62
     4
100
AcDbLine
 10
326.6005833542228
 20
398.4729301647541
 30
0.0
 11
398.6005833542228
 21
398.4729301647541
 31
0.0
  0
LINE
  5
6133
330
1A
100
AcDbEntity
  8
0
  6
CONTINUOUS
 62
     2
100
AcDbLine
 10
215.6005443542228
 20
535.1231411647541
 30
0.0
 11
437.6005753542228
 21
535.1231411647541
 31
0.0
  0
LINE
  5
6134
330
1A
100
AcDbEntity
  8
0
  6
CONTINUOUS
 62
     2
100
AcDbLine
 10
215.6005443542228
 20
415.1231101647541
 30
0.0
 11
437.6005753542228
 21
415.1231101647541
 31
0.0
  0
LINE
  5
6135
330
1A
100
AcDbEntity
  8
0
  6
CONTINUOUS
 62
     2
100
AcDbLine
 10
245.1005753542228
 20
422.6231101647541
 30
0.0
 11
408.1005753542227
 21
422.6231101647541
 31
0.0
  0
LINE
  5
6136
330
1A
100
AcDbEntity
  8
0
  6
CONTINUOUS
 62
     2
100
AcDbLine
 10
302.6005753542228
 20
486.123110164754
 30
0.0
 11
350.6005753542228
 21
486.123110164754
 31
0.0
  0
LINE
  5
6137
330
1A
100
AcDbEntity
  8
0
  6
CONTINUOUS
 62
     2
100
AcDbLine
 10
302.6005753542228
 20
464.123110164754
 30
0.0
 11
350.6005753542228
 21
464.123110164754
 31
0.0
  0
LINE
  5
6138
330
1A
100
AcDbEntity
  8
0
  6
CONTINUOUS
 62
     2
100
AcDbLine
 10
245.1005753542228
 20
527.6231411647541
 30
0.0
 11
408.1005753542227
 21
527.6231411647541
 31
0.0
  0
LINE
  5
6139
330
1A
100
AcDbEntity
  8
0
  6
CONTINUOUS
100
AcDbLine
 10
242.1005753542228
 20
527.1231411647542
 30
0.0
 11
242.1005753542228
 21
423.1231101647541
 31
0.0
  0
LINE
  5
613A
330
1A
100
AcDbEntity
  8
0
  6
CONTINUOUS
 62
     2
100
AcDbLine
 10
237.1005753542228
 20
527.1231411647541
 30
0.0
 11
237.1005753542228
 21
423.1231101647541
 31
0.0
  0
LINE
  5
613B
330
1A
100
AcDbEntity
  8
150
  6
CONTINUOUS
100
AcDbLine
 10
258.8005873542228
 20
468.1297941647541
 30
0.0
 11
258.8005873542228
 21
447.116427164754
 31
0.0
  0
LINE
  5
613C
330
1A
100
AcDbEntity
  8
225
  6
CENTER
 62
     3
100
AcDbLine
 10
263.6005753542228
 20
451.1231101647541
 30
0.0
 11
263.6005753542228
 21
464.123110164754
 31
0.0
  0
LINE
  5
613D
330
1A
100
AcDbEntity
  8
225
  6
CENTER
 62
     3
100
AcDbLine
 10
326.6005753542228
 20
545.123141164754
 30
0.0
 11
326.6005753542228
 21
415.1231101647541
 31
0.0
  0
LINE
  5
613E
330
1A
100
AcDbEntity
  8
150
  6
HIDDEN2
 62
     7
100
AcDbLine
 10
244.1005753542228
 20
526.6231411647541
 30
0.0
 11
244.1005753542228
 21
423.6231101647541
 31
0.0
  0
CIRCLE
  5
613F
330
1A
100
AcDbEntity
  8
150
  6
CONTINUOUS
100
AcDbCircle
 10
263.6006053542228
 20
457.623110164754
 30
0.0
 40
4.5
  0
LINE
  5
6140
330
1A
100
AcDbEntity
  8
0
  6
CONTINUOUS
 62
     2
100
AcDbLine
 10
275.6005753542228
 20
422.6231101647541
 30
0.0
 11
275.6005753542228
 21
527.6231411647541
 31
0.0
  0
LINE
  5
6141
330
1A
100
AcDbEntity
  8
150
  6
CONTINUOUS
100
AcDbLine
 10
244.2345499329851
 20
423.1231101647541
 30
0.0
 11
258.8005873542228
 21
423.1231101647541
 31
0.0
  0
LINE
  5
6142
330
1A
100
AcDbEntity
  8
150
  6
HIDDEN2
 62
     7
100
AcDbLine
 10
244.1005753542228
 20
433.123110164754
 30
0.0
 11
258.8005873542228
 21
433.123110164754
 31
0.0
  0
LINE
  5
6143
330
1A
100
AcDbEntity
  8
150
  6
HIDDEN2
 62
     7
100
AcDbLine
 10
244.1005753542228
 20
447.1231101647541
 30
0.0
 11
258.8005873542228
 21
447.1231101647541
 31
0.0
  0
LINE
  5
6144
330
1A
100
AcDbEntity
  8
225
  6
CONTINUOUS
 62
     3
100
AcDbLine
 10
245.1006053542228
 20
440.1231101647541
 30
0.0
 11
264.1005753542228
 21
440.1231101647541
 31
0.0
  0
ARC
  5
6145
330
1A
100
AcDbEntity
  8
150
  6
HIDDEN2
 62
     7
100
AcDbCircle
 10
245.1005753542228
 20
423.6231101647541
 30
0.0
 40
1.0
100
AcDbArc
 50
180.0000050000005
 51
210.0000000000004
  0
LINE
  5
6146
330
1A
100
AcDbEntity
  8
0
  6
CONTINUOUS
 62
     2
100
AcDbLine
 10
237.1005753542228
 20
428.1231101647541
 30
0.0
 11
233.1005753542228
 21
428.1231101647541
 31
0.0
  0
LINE
  5
6147
330
1A
100
AcDbEntity
  8
0
  6
CONTINUOUS
 62
     2
100
AcDbLine
 10
237.1005753542228
 20
431.1231101647541
 30
0.0
 11
233.1005753542228
 21
431.1231101647541
 31
0.0
  0
LINE
  5
6148
330
1A
100
AcDbEntity
  8
0
  6
CONTINUOUS
 62
     2
100
AcDbLine
 10
233.1005753542228
 20
431.1231101647541
 30
0.0
 11
233.1005753542228
 21
428.1231101647541
 31
0.0
  0
LINE
  5
6149
330
1A
100
AcDbEntity
  8
150
  6
CONTINUOUS
100
AcDbLine
 10
261.6005753542228
 20
444.1231101647541
 30
0.0
 11
261.6005753542228
 21
436.1231101647541
 31
0.0
  0
LINE
  5
614A
330
1A
100
AcDbEntity
  8
225
  6
CONTINUOUS
 62
     3
100
AcDbLine
 10
254.6005753542228
 20
430.6231101647541
 30
0.0
 11
254.6005753542228
 21
449.623110164754
 31
0.0
  0
CIRCLE
  5
614B
330
1A
100
AcDbEntity
  8
150
  6
HIDDEN2
 62
     7
100
AcDbCircle
 10
254.6005753542228
 20
440.1231101647541
 30
0.0
 40
6.5
  0
CIRCLE
  5
614C
330
1A
100
AcDbEntity
  8
150
  6
HIDDEN2
 62
     7
100
AcDbCircle
 10
254.6005753542228
 20
440.1231101647541
 30
0.0
 40
5.0
  0
LINE
  5
614D
330
1A
100
AcDbEntity
  8
225
  6
CENTER
 62
     3
100
AcDbLine
 10
252.6005753542228
 20
424.4731471647541
 30
0.0
 11
252.6005753542228
 21
432.7731351647541
 31
0.0
  0
LINE
  5
614E
330
1A
100
AcDbEntity
  8
150
  6
CONTINUOUS
100
AcDbLine
 10
258.8005873542228
 20
433.129794164754
 30
0.0
 11
258.8005873542228
 21
423.1231101647541
 31
0.0
  0
LINE
  5
614F
330
1A
100
AcDbEntity
  8
225
  6
CENTER
 62
     3
100
AcDbLine
 10
248.4505513542227
 20
428.623110164754
 30
0.0
 11
256.7505383542228
 21
428.623110164754
 31
0.0
  0
LINE
  5
6150
330
1A
100
AcDbEntity
  8
150
  6
CONTINUOUS
100
AcDbLine
 10
253.7496233542228
 20
427.933688164754
 30
0.0
 11
253.2899983542228
 21
427.474063164754
 31
0.0
  0
LINE
  5
6151
330
1A
100
AcDbEntity
  8
150
  6
CONTINUOUS
100
AcDbLine
 10
253.2899983542228
 20
429.772158164754
 30
0.0
 11
253.7496233542228
 21
429.3125331647541
 31
0.0
  0
LINE
  5
6152
330
1A
100
AcDbEntity
  8
150
  6
CONTINUOUS
100
AcDbLine
 10
253.7496233542228
 20
429.3125331647541
 30
0.0
 11
253.2900283542228
 21
428.852938164754
 31
0.0
  0
LINE
  5
6153
330
1A
100
AcDbEntity
  8
150
  6
CONTINUOUS
100
AcDbLine
 10
253.2900283542228
 20
428.3932831647541
 30
0.0
 11
253.7496233542228
 21
427.933688164754
 31
0.0
  0
LINE
  5
6154
330
1A
100
AcDbEntity
  8
150
  6
CONTINUOUS
100
AcDbLine
 10
253.2899983542228
 20
427.474063164754
 30
0.0
 11
252.8304033542228
 21
427.933657164754
 31
0.0
  0
LINE
  5
6155
330
1A
100
AcDbEntity
  8
150
  6
CONTINUOUS
100
AcDbLine
 10
252.3707473542228
 20
427.933657164754
 30
0.0
 11
251.9111523542228
 21
427.474063164754
 31
0.0
  0
LINE
  5
6156
330
1A
100
AcDbEntity
  8
150
  6
CONTINUOUS
100
AcDbLine
 10
251.9111523542228
 20
427.474063164754
 30
0.0
 11
251.4515273542228
 21
427.933688164754
 31
0.0
  0
LINE
  5
6157
330
1A
100
AcDbEntity
  8
150
  6
CONTINUOUS
100
AcDbLine
 10
251.4515273542228
 20
427.933688164754
 30
0.0
 11
251.9111223542228
 21
428.3932831647541
 31
0.0
  0
LINE
  5
6158
330
1A
100
AcDbEntity
  8
150
  6
CONTINUOUS
100
AcDbLine
 10
251.9111223542228
 20
428.852938164754
 30
0.0
 11
251.4515273542228
 21
429.3125331647541
 31
0.0
  0
LINE
  5
6159
330
1A
100
AcDbEntity
  8
150
  6
CONTINUOUS
100
AcDbLine
 10
251.4515273542228
 20
429.3125331647541
 30
0.0
 11
251.9111523542228
 21
429.772158164754
 31
0.0
  0
LINE
  5
615A
330
1A
100
AcDbEntity
  8
150
  6
CONTINUOUS
100
AcDbLine
 10
251.9111523542228
 20
429.772158164754
 30
0.0
 11
252.3707473542228
 21
429.3125641647541
 31
0.0
  0
LINE
  5
615B
330
1A
100
AcDbEntity
  8
150
  6
CONTINUOUS
100
AcDbLine
 10
252.8304033542228
 20
429.3125641647541
 30
0.0
 11
253.2899983542228
 21
429.772158164754
 31
0.0
  0
ARC
  5
615C
330
1A
100
AcDbEntity
  8
150
  6
CONTINUOUS
100
AcDbCircle
 10
252.6005593542228
 20
427.7038821647541
 30
0.0
 40
0.325
100
AcDbArc
 50
45.00001600000087
 51
135.000012
  0
ARC
  5
615D
330
1A
100
AcDbEntity
  8
150
  6
CONTINUOUS
100
AcDbCircle
 10
251.6812853542228
 20
428.623155164754
 30
0.0
 40
0.325
100
AcDbArc
 50
315.000007
 51
45.00001600000087
  0
ARC
  5
615E
330
1A
100
AcDbEntity
  8
150
  6
CONTINUOUS
100
AcDbCircle
 10
252.6005583542228
 20
429.5424291647541
 30
0.0
 40
0.325
100
AcDbArc
 50
225.0000140000002
 51
315.0000169999994
  0
ARC
  5
615F
330
1A
100
AcDbEntity
  8
150
  6
CONTINUOUS
100
AcDbCircle
 10
253.5198323542228
 20
428.623156164754
 30
0.0
 40
0.325
100
AcDbArc
 50
135.000012
 51
225.0000140000002
  0
CIRCLE
  5
6160
330
1A
100
AcDbEntity
  8
150
  6
CONTINUOUS
100
AcDbCircle
 10
252.6005583542228
 20
428.623155164754
 30
0.0
 40
2.25
  0
ARC
  5
6161
330
1A
100
AcDbEntity
  8
150
  6
CONTINUOUS
100
AcDbCircle
 10
258.6005753542228
 20
436.1231101647541
 30
0.0
 40
3.0
100
AcDbArc
 50
273.8227760000003
 51
0.000009999999378
  0
LINE
  5
6162
330
1A
100
AcDbEntity
  8
225
  6
CENTER
 62
     3
100
AcDbLine
 10
257.1006053542228
 20
457.623110164754
 30
0.0
 11
270.1006053542228
 21
457.623110164754
 31
0.0
  0
LINE
  5
6163
330
1A
100
AcDbEntity
  8
150
  6
CONTINUOUS
 62
     7
100
AcDbLine
 10
254.6005753542228
 20
437.236361164754
 30
0.0
 11
257.1005753542228
 21
438.679720164754
 31
0.0
  0
LINE
  5
6164
330
1A
100
AcDbEntity
  8
150
  6
HIDDEN2
 62
     7
100
AcDbLine
 10
257.1005753542228
 20
441.566500164754
 30
0.0
 11
254.6005753542228
 21
443.0098601647541
 31
0.0
  0
LINE
  5
6165
330
1A
100
AcDbEntity
  8
150
  6
HIDDEN2
 62
     7
100
AcDbLine
 10
252.1005753542228
 20
441.566500164754
 30
0.0
 11
252.1005753542228
 21
438.679720164754
 31
0.0
  0
LINE
  5
6166
330
1A
100
AcDbEntity
  8
150
  6
CONTINUOUS
 62
     7
100
AcDbLine
 10
252.1005753542228
 20
438.679720164754
 30
0.0
 11
254.6005753542228
 21
437.236361164754
 31
0.0
  0
LINE
  5
6167
330
1A
100
AcDbEntity
  8
150
  6
HIDDEN2
 62
     7
100
AcDbLine
 10
254.6005753542228
 20
443.0098601647541
 30
0.0
 11
252.1005753542228
 21
441.566500164754
 31
0.0
  0
ARC
  5
6168
330
1A
100
AcDbEntity
  8
150
  6
CONTINUOUS
100
AcDbCircle
 10
258.6005753542228
 20
444.1231101647541
 30
0.0
 40
3.0
100
AcDbArc
 50
0.0
 51
86.17721400000016
  0
LINE
  5
6169
330
1A
100
AcDbEntity
  8
150
  6
CONTINUOUS
 62
     7
100
AcDbLine
 10
257.1005753542228
 20
438.679720164754
 30
0.0
 11
257.1005753542228
 21
441.566500164754
 31
0.0
  0
LINE
  5
616A
330
1A
100
AcDbEntity
  8
210
  6
CONTINUOUS
 62
     4
100
AcDbLine
 10
326.6005833542228
 20
414.935912164754
 30
0.0
 11
326.6005833542228
 21
394.4104301647541
 31
0.0
  0
LINE
  5
616B
330
1A
100
AcDbEntity
  8
210
  6
CONTINUOUS
 62
     4
100
AcDbLine
 10
326.6005833542228
 20
398.4729301647541
 30
0.0
 11
328.5726093542228
 21
398.1395961647541
 31
0.0
  0
LINE
  5
616C
330
1A
100
AcDbEntity
  8
210
  6
CONTINUOUS
 62
     4
100
AcDbLine
 10
326.6005833542228
 20
398.4729301647541
 30
0.0
 11
328.5726093542228
 21
398.806263164754
 31
0.0
  0
LINE
  5
616D
330
1A
100
AcDbEntity
  8
225
  6
CENTER
 62
     3
100
AcDbLine
 10
254.6005753542228
 20
500.623110164754
 30
0.0
 11
254.6005753542228
 21
519.623141164754
 31
0.0
  0
LINE
  5
616E
330
1A
100
AcDbEntity
  8
225
  6
CENTER
 62
     3
100
AcDbLine
 10
219.6005443542228
 20
506.6230801647541
 30
0.0
 11
219.6005443542228
 21
488.623080164754
 31
0.0
  0
ARC
  5
616F
330
1A
100
AcDbEntity
  8
150
  6
CONTINUOUS
100
AcDbCircle
 10
258.6005753542228
 20
506.123110164754
 30
0.0
 40
3.0
100
AcDbArc
 50
273.8227760000003
 51
0.000009999999378
  0
CIRCLE
  5
6170
330
1A
100
AcDbEntity
  8
150
  6
HIDDEN2
 62
     7
100
AcDbCircle
 10
254.6005753542228
 20
510.123110164754
 30
0.0
 40
6.5
  0
CIRCLE
  5
6171
330
1A
100
AcDbEntity
  8
150
  6
HIDDEN2
 62
     7
100
AcDbCircle
 10
254.6005753542228
 20
510.123110164754
 30
0.0
 40
5.0
  0
LINE
  5
6172
330
1A
100
AcDbEntity
  8
150
  6
HIDDEN2
 62
     7
100
AcDbLine
 10
244.1005753542228
 20
468.123110164754
 30
0.0
 11
258.8005873542228
 21
468.123110164754
 31
0.0
  0
LINE
  5
6173
330
1A
100
AcDbEntity
  8
150
  6
HIDDEN2
 62
     7
100
AcDbLine
 10
244.1005753542228
 20
482.123110164754
 30
0.0
 11
258.8005873542228
 21
482.123110164754
 31
0.0
  0
LINE
  5
6174
330
1A
100
AcDbEntity
  8
150
  6
HIDDEN2
 62
     7
100
AcDbLine
 10
244.1005753542228
 20
503.1231101647541
 30
0.0
 11
258.8005873542228
 21
503.1231101647541
 31
0.0
  0
LINE
  5
6175
330
1A
100
AcDbEntity
  8
225
  6
CONTINUOUS
 62
     3
100
AcDbLine
 10
245.1006053542228
 20
475.123110164754
 30
0.0
 11
264.1005753542228
 21
475.123110164754
 31
0.0
  0
CIRCLE
  5
6176
330
1A
100
AcDbEntity
  8
150
  6
CENTER
100
AcDbCircle
 10
219.6005533542228
 20
497.6231191647541
 30
0.0
 40
5.25
  0
ARC
  5
6177
330
1A
100
AcDbEntity
  8
0
  6
CONTINUOUS
 62
     2
100
AcDbCircle
 10
219.6005443542228
 20
497.623110164754
 30
0.0
 40
7.0
100
AcDbArc
 50
270.0
 51
89.99999100000039
  0
LINE
  5
6178
330
1A
100
AcDbEntity
  8
150
  6
CONTINUOUS
100
AcDbLine
 10
222.3582653542228
 20
499.3201621647541
 30
0.0
 11
221.2975963542228
 21
500.380831164754
 31
0.0
  0
LINE
  5
6179
330
1A
100
AcDbEntity
  8
150
  6
CONTINUOUS
100
AcDbLine
 10
217.9034923542228
 20
500.380831164754
 30
0.0
 11
216.8428393542228
 21
499.3201621647541
 31
0.0
  0
LINE
  5
617A
330
1A
100
AcDbEntity
  8
150
  6
CONTINUOUS
100
AcDbLine
 10
216.8428393542228
 20
499.3201621647541
 30
0.0
 11
218.0095563542228
 21
498.153445164754
 31
0.0
  0
LINE
  5
617B
330
1A
100
AcDbEntity
  8
150
  6
CONTINUOUS
100
AcDbLine
 10
221.2975963542228
 20
500.380831164754
 30
0.0
 11
220.1308793542228
 21
499.214114164754
 31
0.0
  0
LINE
  5
617C
330
1A
100
AcDbEntity
  8
150
  6
CONTINUOUS
100
AcDbLine
 10
219.0702103542228
 20
499.214114164754
 30
0.0
 11
217.9034923542228
 21
500.380831164754
 31
0.0
  0
LINE
  5
617D
330
1A
100
AcDbEntity
  8
150
  6
CONTINUOUS
100
AcDbLine
 10
221.1915483542228
 20
498.153445164754
 30
0.0
 11
222.3582653542228
 21
499.3201621647541
 31
0.0
  0
LINE
  5
617E
330
1A
100
AcDbEntity
  8
150
  6
CONTINUOUS
100
AcDbLine
 10
222.3582653542228
 20
495.926058164754
 30
0.0
 11
221.1915483542228
 21
497.0927761647541
 31
0.0
  0
LINE
  5
617F
330
1A
100
AcDbEntity
  8
150
  6
CONTINUOUS
100
AcDbLine
 10
221.2975963542228
 20
494.865389164754
 30
0.0
 11
222.3582653542228
 21
495.926058164754
 31
0.0
  0
LINE
  5
6180
330
1A
100
AcDbEntity
  8
150
  6
CONTINUOUS
100
AcDbLine
 10
220.1308793542228
 20
496.032107164754
 30
0.0
 11
221.2975963542228
 21
494.865389164754
 31
0.0
  0
LINE
  5
6181
330
1A
100
AcDbEntity
  8
150
  6
CONTINUOUS
100
AcDbLine
 10
217.9034923542228
 20
494.865389164754
 30
0.0
 11
219.0702103542228
 21
496.032107164754
 31
0.0
  0
LINE
  5
6182
330
1A
100
AcDbEntity
  8
150
  6
CONTINUOUS
100
AcDbLine
 10
216.8428393542228
 20
495.926058164754
 30
0.0
 11
217.9034923542228
 21
494.865389164754
 31
0.0
  0
LINE
  5
6183
330
1A
100
AcDbEntity
  8
150
  6
CONTINUOUS
100
AcDbLine
 10
218.0095563542228
 20
497.0927761647541
 30
0.0
 11
216.8428393542228
 21
495.926058164754
 31
0.0
  0
ARC
  5
6184
330
1A
100
AcDbEntity
  8
150
  6
CONTINUOUS
100
AcDbCircle
 10
221.7218743542228
 20
497.623118164754
 30
0.0
 40
0.75
100
AcDbArc
 50
134.9999859999998
 51
224.9999879999999
  0
ARC
  5
6185
330
1A
100
AcDbEntity
  8
150
  6
CONTINUOUS
100
AcDbCircle
 10
219.6005533542228
 20
495.5017981647541
 30
0.0
 40
0.75
100
AcDbArc
 50
44.99998300000051
 51
134.9999859999998
  0
ARC
  5
6186
330
1A
100
AcDbEntity
  8
150
  6
CONTINUOUS
100
AcDbCircle
 10
217.4792333542228
 20
497.6231191647541
 30
0.0
 40
0.75
100
AcDbArc
 50
314.9999839999991
 51
44.9999929999999
  0
ARC
  5
6187
330
1A
100
AcDbEntity
  8
150
  6
CONTINUOUS
100
AcDbCircle
 10
219.6005543542228
 20
499.744439164754
 30
0.0
 40
0.75
100
AcDbArc
 50
224.9999879999999
 51
314.9999839999991
  0
LINE
  5
6188
330
1A
100
AcDbEntity
  8
150
  6
CONTINUOUS
100
AcDbLine
 10
258.8005873542228
 20
503.1297941647541
 30
0.0
 11
258.8005873542228
 21
482.1164271647541
 31
0.0
  0
LINE
  5
6189
330
1A
100
AcDbEntity
  8
225
  6
CENTER
 62
     3
100
AcDbLine
 10
254.6005753542228
 20
465.6231101647541
 30
0.0
 11
254.6005753542228
 21
484.623110164754
 31
0.0
  0
LINE
  5
618A
330
1A
100
AcDbEntity
  8
150
  6
CONTINUOUS
100
AcDbLine
 10
261.6005753542228
 20
479.123110164754
 30
0.0
 11
261.6005753542228
 21
471.123110164754
 31
0.0
  0
CIRCLE
  5
618B
330
1A
100
AcDbEntity
  8
150
  6
HIDDEN2
 62
     7
100
AcDbCircle
 10
254.6005753542228
 20
475.123110164754
 30
0.0
 40
5.0
  0
CIRCLE
  5
618C
330
1A
100
AcDbEntity
  8
150
  6
HIDDEN2
 62
     7
100
AcDbCircle
 10
254.6005753542228
 20
475.123110164754
 30
0.0
 40
6.5
  0
ARC
  5
618D
330
1A
100
AcDbEntity
  8
150
  6
CONTINUOUS
100
AcDbCircle
 10
258.6005753542228
 20
471.123110164754
 30
0.0
 40
3.0
100
AcDbArc
 50
273.8227760000003
 51
0.000009999999378
  0
LINE
  5
618E
330
1A
100
AcDbEntity
  8
150
  6
CONTINUOUS
 62
     7
100
AcDbLine
 10
257.1005753542228
 20
476.5665001647541
 30
0.0
 11
254.6005753542228
 21
478.009860164754
 31
0.0
  0
LINE
  5
618F
330
1A
100
AcDbEntity
  8
150
  6
CONTINUOUS
 62
     7
100
AcDbLine
 10
254.6005753542228
 20
472.2363611647541
 30
0.0
 11
257.1005753542228
 21
473.679720164754
 31
0.0
  0
LINE
  5
6190
330
1A
100
AcDbEntity
  8
150
  6
HIDDEN2
 62
     7
100
AcDbLine
 10
254.6005753542228
 20
478.009860164754
 30
0.0
 11
252.1005753542228
 21
476.5665001647541
 31
0.0
  0
LINE
  5
6191
330
1A
100
AcDbEntity
  8
150
  6
HIDDEN2
 62
     7
100
AcDbLine
 10
252.1005753542228
 20
473.679720164754
 30
0.0
 11
254.6005753542228
 21
472.2363611647541
 31
0.0
  0
LINE
  5
6192
330
1A
100
AcDbEntity
  8
150
  6
HIDDEN2
 62
     7
100
AcDbLine
 10
252.1005753542228
 20
476.5665001647541
 30
0.0
 11
252.1005753542228
 21
473.679720164754
 31
0.0
  0
ARC
  5
6193
330
1A
100
AcDbEntity
  8
150
  6
CONTINUOUS
100
AcDbCircle
 10
258.6005753542228
 20
479.123110164754
 30
0.0
 40
3.0
100
AcDbArc
 50
0.0
 51
86.17721400000016
  0
LINE
  5
6194
330
1A
100
AcDbEntity
  8
150
  6
CONTINUOUS
 62
     7
100
AcDbLine
 10
257.1005753542228
 20
473.679720164754
 30
0.0
 11
257.1005753542228
 21
476.5665001647541
 31
0.0
  0
LINE
  5
6195
330
1A
100
AcDbEntity
  8
225
  6
CENTER
 62
     3
100
AcDbLine
 10
257.1006053542228
 20
492.623110164754
 30
0.0
 11
270.1006053542228
 21
492.623110164754
 31
0.0
  0
CIRCLE
  5
6196
330
1A
100
AcDbEntity
  8
150
  6
CONTINUOUS
100
AcDbCircle
 10
263.6006053542228
 20
492.623110164754
 30
0.0
 40
4.5
  0
LINE
  5
6197
330
1A
100
AcDbEntity
  8
225
  6
CENTER
 62
     3
100
AcDbLine
 10
263.6005753542228
 20
499.1231101647541
 30
0.0
 11
263.6005753542228
 21
486.123110164754
 31
0.0
  0
LINE
  5
6198
330
1A
100
AcDbEntity
  8
0
  6
CONTINUOUS
 62
     2
100
AcDbLine
 10
237.1005753542228
 20
527.1231411647541
 30
0.0
 11
244.2345499504384
 21
527.1231411647542
 31
0.0
  0
LINE
  5
6199
330
1A
100
AcDbEntity
  8
225
  6
CENTER
 62
     3
100
AcDbLine
 10
245.1006053542228
 20
510.123110164754
 30
0.0
 11
264.1005753542228
 21
510.123110164754
 31
0.0
  0
LINE
  5
619A
330
1A
100
AcDbEntity
  8
150
  6
HIDDEN2
 62
     7
100
AcDbLine
 10
244.1005753542228
 20
517.123141164754
 30
0.0
 11
258.8005873542228
 21
517.123141164754
 31
0.0
  0
LINE
  5
619B
330
1A
100
AcDbEntity
  8
0
  6
CONTINUOUS
 62
     2
100
AcDbLine
 10
237.1005753542228
 20
519.123110164754
 30
0.0
 11
233.1005753542228
 21
519.123110164754
 31
0.0
  0
LINE
  5
619C
330
1A
100
AcDbEntity
  8
0
  6
CONTINUOUS
 62
     2
100
AcDbLine
 10
237.1005753542228
 20
522.123110164754
 30
0.0
 11
233.1005753542228
 21
522.123110164754
 31
0.0
  0
LINE
  5
619D
330
1A
100
AcDbEntity
  8
0
  6
CONTINUOUS
 62
     2
100
AcDbLine
 10
233.1005753542228
 20
522.123110164754
 30
0.0
 11
233.1005753542228
 21
519.123110164754
 31
0.0
  0
ARC
  5
619E
330
1A
100
AcDbEntity
  8
0
  6
CONTINUOUS
 62
     2
100
AcDbCircle
 10
245.1005753542228
 20
526.6231411647541
 30
0.0
 40
1.0
100
AcDbArc
 50
90.0
 51
149.9999999999994
  0
LINE
  5
619F
330
1A
100
AcDbEntity
  8
150
  6
CONTINUOUS
100
AcDbLine
 10
258.8005873542228
 20
517.116427164754
 30
0.0
 11
258.8005873542228
 21
527.1231411647541
 31
0.0
  0
LINE
  5
61A0
330
1A
100
AcDbEntity
  8
225
  6
CENTER
 62
     3
100
AcDbLine
 10
252.6005753542228
 20
525.7730741647541
 30
0.0
 11
252.6005753542228
 21
517.4730861647541
 31
0.0
  0
ARC
  5
61A1
330
1A
100
AcDbEntity
  8
150
  6
CONTINUOUS
100
AcDbCircle
 10
258.6005753542228
 20
514.123110164754
 30
0.0
 40
3.0
100
AcDbArc
 50
0.0
 51
86.17721400000016
  0
LINE
  5
61A2
330
1A
100
AcDbEntity
  8
150
  6
CONTINUOUS
 62
     7
100
AcDbLine
 10
257.1005753542228
 20
511.566500164754
 30
0.0
 11
254.6005753542228
 21
513.009860164754
 31
0.0
  0
LINE
  5
61A3
330
1A
100
AcDbEntity
  8
150
  6
HIDDEN2
 62
     7
100
AcDbLine
 10
254.6005753542228
 20
507.236361164754
 30
0.0
 11
257.1005753542228
 21
508.6797201647541
 31
0.0
  0
LINE
  5
61A4
330
1A
100
AcDbEntity
  8
150
  6
CONTINUOUS
 62
     7
100
AcDbLine
 10
254.6005753542228
 20
513.009860164754
 30
0.0
 11
252.1005753542228
 21
511.566500164754
 31
0.0
  0
LINE
  5
61A5
330
1A
100
AcDbEntity
  8
150
  6
HIDDEN2
 62
     7
100
AcDbLine
 10
252.1005753542228
 20
508.6797201647541
 30
0.0
 11
254.6005753542228
 21
507.236361164754
 31
0.0
  0
LINE
  5
61A6
330
1A
100
AcDbEntity
  8
150
  6
HIDDEN2
 62
     7
100
AcDbLine
 10
252.1005753542228
 20
511.566500164754
 30
0.0
 11
252.1005753542228
 21
508.6797201647541
 31
0.0
  0
LINE
  5
61A7
330
1A
100
AcDbEntity
  8
150
  6
CONTINUOUS
100
AcDbLine
 10
261.6005753542228
 20
506.123110164754
 30
0.0
 11
261.6005753542228
 21
514.123110164754
 31
0.0
  0
LINE
  5
61A8
330
1A
100
AcDbEntity
  8
150
  6
CONTINUOUS
 62
     7
100
AcDbLine
 10
257.1005753542228
 20
508.6797201647541
 30
0.0
 11
257.1005753542228
 21
511.566500164754
 31
0.0
  0
LINE
  5
61A9
330
1A
100
AcDbEntity
  8
225
  6
CENTER
 62
     3
100
AcDbLine
 10
248.4505513542227
 20
521.623110164754
 30
0.0
 11
256.7505383542228
 21
521.623110164754
 31
0.0
  0
ARC
  5
61AA
330
1A
100
AcDbEntity
  8
150
  6
CONTINUOUS
100
AcDbCircle
 10
253.5198383542228
 20
521.6231031647541
 30
0.0
 40
0.325
100
AcDbArc
 50
134.9999859999998
 51
224.9999879999999
  0
ARC
  5
61AB
330
1A
100
AcDbEntity
  8
150
  6
CONTINUOUS
100
AcDbCircle
 10
252.6005643542228
 20
520.7038301647539
 30
0.0
 40
0.325
100
AcDbArc
 50
44.99998300000051
 51
134.9999859999998
  0
ARC
  5
61AC
330
1A
100
AcDbEntity
  8
150
  6
CONTINUOUS
100
AcDbCircle
 10
251.6812913542228
 20
521.6231041647541
 30
0.0
 40
0.325
100
AcDbArc
 50
314.9999839999991
 51
44.9999929999999
  0
ARC
  5
61AD
330
1A
100
AcDbEntity
  8
150
  6
CONTINUOUS
100
AcDbCircle
 10
252.6005653542228
 20
522.542377164754
 30
0.0
 40
0.325
100
AcDbArc
 50
224.9999879999999
 51
314.9999839999991
  0
LINE
  5
61AE
330
1A
100
AcDbEntity
  8
150
  6
CONTINUOUS
100
AcDbLine
 10
253.2900283542228
 20
521.852938164754
 30
0.0
 11
253.7496233542228
 21
522.3125331647541
 31
0.0
  0
LINE
  5
61AF
330
1A
100
AcDbEntity
  8
150
  6
CONTINUOUS
100
AcDbLine
 10
253.7496233542228
 20
520.9336881647541
 30
0.0
 11
253.2900283542228
 21
521.3932831647541
 31
0.0
  0
LINE
  5
61B0
330
1A
100
AcDbEntity
  8
150
  6
CONTINUOUS
100
AcDbLine
 10
253.2899983542228
 20
520.474063164754
 30
0.0
 11
253.7496233542228
 21
520.9336881647541
 31
0.0
  0
LINE
  5
61B1
330
1A
100
AcDbEntity
  8
150
  6
CONTINUOUS
100
AcDbLine
 10
252.8304033542228
 20
520.9336571647541
 30
0.0
 11
253.2899983542228
 21
520.474063164754
 31
0.0
  0
LINE
  5
61B2
330
1A
100
AcDbEntity
  8
150
  6
CONTINUOUS
100
AcDbLine
 10
251.9111523542228
 20
520.474063164754
 30
0.0
 11
252.3707473542228
 21
520.9336571647541
 31
0.0
  0
LINE
  5
61B3
330
1A
100
AcDbEntity
  8
150
  6
CONTINUOUS
100
AcDbLine
 10
251.4515273542228
 20
520.9336881647541
 30
0.0
 11
251.9111523542228
 21
520.474063164754
 31
0.0
  0
LINE
  5
61B4
330
1A
100
AcDbEntity
  8
150
  6
CONTINUOUS
100
AcDbLine
 10
251.9111223542228
 20
521.3932831647541
 30
0.0
 11
251.4515273542228
 21
520.9336881647541
 31
0.0
  0
LINE
  5
61B5
330
1A
100
AcDbEntity
  8
150
  6
CONTINUOUS
100
AcDbLine
 10
251.4515273542228
 20
522.3125331647541
 30
0.0
 11
251.9111223542228
 21
521.852938164754
 31
0.0
  0
LINE
  5
61B6
330
1A
100
AcDbEntity
  8
150
  6
CONTINUOUS
100
AcDbLine
 10
251.9111523542228
 20
522.772158164754
 30
0.0
 11
251.4515273542228
 21
522.3125331647541
 31
0.0
  0
LINE
  5
61B7
330
1A
100
AcDbEntity
  8
150
  6
CONTINUOUS
100
AcDbLine
 10
252.3707473542228
 20
522.312564164754
 30
0.0
 11
251.9111523542228
 21
522.772158164754
 31
0.0
  0
LINE
  5
61B8
330
1A
100
AcDbEntity
  8
150
  6
CONTINUOUS
100
AcDbLine
 10
253.2899983542228
 20
522.772158164754
 30
0.0
 11
252.8304033542228
 21
522.312564164754
 31
0.0
  0
LINE
  5
61B9
330
1A
100
AcDbEntity
  8
150
  6
CONTINUOUS
100
AcDbLine
 10
253.7496233542228
 20
522.3125331647541
 30
0.0
 11
253.2899983542228
 21
522.772158164754
 31
0.0
  0
CIRCLE
  5
61BA
330
1A
100
AcDbEntity
  8
150
  6
CONTINUOUS
100
AcDbCircle
 10
252.6005643542228
 20
521.6231031647541
 30
0.0
 40
2.25
  0
LINE
  5
61BB
330
1A
100
AcDbEntity
  8
0
  6
CONTINUOUS
 62
     2
100
AcDbLine
 10
307.4237263542228
 20
470.123110164754
 30
0.0
 11
321.7377213542228
 21
470.123110164754
 31
0.0
  0
LINE
  5
61BC
330
1A
100
AcDbEntity
  8
0
  6
CONTINUOUS
 62
     2
100
AcDbLine
 10
307.4237263542228
 20
480.123110164754
 30
0.0
 11
321.7377213542228
 21
480.123110164754
 31
0.0
  0
ARC
  5
61BD
330
1A
100
AcDbEntity
  8
0
  6
CONTINUOUS
 62
     2
100
AcDbCircle
 10
312.4487813542228
 20
479.123110164754
 30
0.0
 40
1.0
100
AcDbArc
 50
0.0
 51
90.00000300000015
  0
ARC
  5
61BE
330
1A
100
AcDbEntity
  8
0
  6
CONTINUOUS
 62
     2
100
AcDbCircle
 10
312.4487813542228
 20
471.123110164754
 30
0.0
 40
1.0
100
AcDbArc
 50
270.0
 51
0.000008999999603
  0
LINE
  5
61BF
330
1A
100
AcDbEntity
  8
150
  6
CONTINUOUS
100
AcDbLine
 10
309.1005753542228
 20
469.123110164754
 30
0.0
 11
343.6005753542228
 21
469.123110164754
 31
0.0
  0
LINE
  5
61C0
330
1A
100
AcDbEntity
  8
150
  6
CONTINUOUS
100
AcDbLine
 10
309.1005753542228
 20
481.123110164754
 30
0.0
 11
343.6005753542228
 21
481.123110164754
 31
0.0
  0
LINE
  5
61C1
330
1A
100
AcDbEntity
  8
0
  6
CONTINUOUS
 62
     2
100
AcDbLine
 10
301.6005753542228
 20
485.123110164754
 30
0.0
 11
301.6005753542228
 21
465.123110164754
 31
0.0
  0
LINE
  5
61C2
330
1A
100
AcDbEntity
  8
0
  6
CONTINUOUS
 62
     2
100
AcDbLine
 10
306.4237263542228
 20
471.123110164754
 30
0.0
 11
306.4237263542228
 21
479.123110164754
 31
0.0
  0
ARC
  5
61C3
330
1A
100
AcDbEntity
  8
0
  6
CONTINUOUS
 62
     2
100
AcDbCircle
 10
302.6005753542228
 20
465.123110164754
 30
0.0
 40
1.0
100
AcDbArc
 50
180.0000050000005
 51
270.0000009999997
  0
ARC
  5
61C4
330
1A
100
AcDbEntity
  8
0
  6
CONTINUOUS
 62
     2
100
AcDbCircle
 10
307.4237263542228
 20
471.123110164754
 30
0.0
 40
1.0
100
AcDbArc
 50
180.0000050000005
 51
270.0000009999997
  0
LINE
  5
61C5
330
1A
100
AcDbEntity
  8
150
  6
CONTINUOUS
100
AcDbLine
 10
309.1005753542228
 20
470.123110164754
 30
0.0
 11
309.1005753542228
 21
469.123110164754
 31
0.0
  0
ARC
  5
61C6
330
1A
100
AcDbEntity
  8
0
  6
CONTINUOUS
 62
     2
100
AcDbCircle
 10
307.4237263542228
 20
479.123110164754
 30
0.0
 40
1.0
100
AcDbArc
 50
90.0
 51
180.0000029999993
  0
LINE
  5
61C7
330
1A
100
AcDbEntity
  8
150
  6
CONTINUOUS
100
AcDbLine
 10
309.1005753542228
 20
481.123110164754
 30
0.0
 11
309.1005753542228
 21
480.123110164754
 31
0.0
  0
ARC
  5
61C8
330
1A
100
AcDbEntity
  8
0
  6
CONTINUOUS
 62
     2
100
AcDbCircle
 10
302.6005753542228
 20
485.123110164754
 30
0.0
 40
1.0
100
AcDbArc
 50
90.0
 51
180.0000029999993
  0
LINE
  5
61C9
330
1A
100
AcDbEntity
  8
0
  6
CONTINUOUS
 62
     2
100
AcDbLine
 10
321.7377213542228
 20
470.123110164754
 30
0.0
 11
321.7377213542228
 21
480.123110164754
 31
0.0
  0
LINE
  5
61CA
330
1A
100
AcDbEntity
  8
0
  6
CONTINUOUS
 62
     2
100
AcDbLine
 10
313.4487813542228
 20
479.123110164754
 30
0.0
 11
313.4487813542228
 21
471.123110164754
 31
0.0
  0
LINE
  5
61CB
330
1A
100
AcDbEntity
  8
150
  6
CONTINUOUS
100
AcDbLine
 10
343.6005753542228
 20
481.123110164754
 30
0.0
 11
343.6005753542228
 21
469.123110164754
 31
0.0
  0
TEXT
  5
61CC
330
1A
100
AcDbEntity
  8
230
 62
     6
100
AcDbText
 10
319.5854153542228
 20
546.385375164754
 30
0.0
 40
5.0
  1
ASL
100
AcDbText
  0
LINE
  5
61CD
330
1A
100
AcDbEntity
  8
150
  6
PHANTOM2
 62
     7
100
AcDbLine
 10
464.1005753542228
 20
525.123141164754
 30
0.0
 11
464.1005753542228
 21
425.123110164754
 31
0.0
  0
LINE
  5
61CE
330
1A
100
AcDbEntity
  8
150
  6
PHANTOM2
 62
     7
100
AcDbLine
 10
394.4005633542228
 20
468.1297850571428
 30
0.0
 11
394.4005633542228
 21
447.1231101647541
 31
0.0
  0
LINE
  5
61CF
330
1A
100
AcDbEntity
  8
225
  6
CENTER
 62
     3
100
AcDbLine
 10
389.6005753542228
 20
451.1231101647541
 30
0.0
 11
389.6005753542228
 21
464.123110164754
 31
0.0
  0
LINE
  5
61D0
330
1A
100
AcDbEntity
  8
225
  6
CENTER
 62
     3
100
AcDbLine
 10
433.6006053542227
 20
461.6230801647541
 30
0.0
 11
433.6006053542227
 21
443.6230801647541
 31
0.0
  0
LINE
  5
61D1
330
1A
100
AcDbEntity
  8
0
  6
CONTINUOUS
 62
     2
100
AcDbLine
 10
409.1005753542228
 20
526.6231411647541
 30
0.0
 11
409.1005753542228
 21
423.6231101647541
 31
0.0
  0
LINE
  5
61D2
330
1A
100
AcDbEntity
  8
0
  6
CONTINUOUS
 62
     2
100
AcDbLine
 10
377.6005753542227
 20
527.6231411647541
 30
0.0
 11
377.6005753542227
 21
422.623110164754
 31
0.0
  0
LINE
  5
61D3
330
1A
100
AcDbEntity
  8
0
  6
CONTINUOUS
 62
     2
100
AcDbLine
 10
441.6005753542228
 20
419.1231101647541
 30
0.0
 11
441.6005753542228
 21
531.1231411647541
 31
0.0
  0
ARC
  5
61D4
330
1A
100
AcDbEntity
  8
0
  6
CONTINUOUS
 62
     2
100
AcDbCircle
 10
440.6005753542228
 20
460.623110164754
 30
0.0
 40
1.0
100
AcDbArc
 50
270.0
 51
0.000008999999603
  0
CIRCLE
  5
61D5
330
1A
100
AcDbEntity
  8
150
  6
CONTINUOUS
100
AcDbCircle
 10
389.6005753542228
 20
457.623110164754
 30
0.0
 40
4.5
  0
LINE
  5
61D6
330
1A
100
AcDbEntity
  8
150
  6
PHANTOM2
 62
     7
100
AcDbLine
 10
394.4005633542228
 20
423.1231101647541
 30
0.0
 11
462.1005753542227
 21
423.1231101647541
 31
0.0
  0
LINE
  5
61D7
330
1A
100
AcDbEntity
  8
210
  6
CONTINUOUS
 62
     4
100
AcDbLine
 10
398.6005833542228
 20
430.435912164754
 30
0.0
 11
398.6005833542228
 21
394.4104301647541
 31
0.0
  0
TEXT
  5
61D8
330
1A
100
AcDbEntity
  8
210
  6
CONTINUOUS
 62
     4
100
AcDbText
 10
358.3922493542228
 20
401.5979301647541
 30
0.0
 40
5.0
  1
72
100
AcDbText
  0
LINE
  5
61D9
330
1A
100
AcDbEntity
  8
210
  6
CONTINUOUS
 62
     4
100
AcDbLine
 10
398.6005833542228
 20
398.4729301647541
 30
0.0
 11
396.6285563542228
 21
398.1395961647541
 31
0.0
  0
LINE
  5
61DA
330
1A
100
AcDbEntity
  8
210
  6
CONTINUOUS
 62
     4
100
AcDbLine
 10
398.6005833542228
 20
398.4729301647541
 30
0.0
 11
396.6285563542228
 21
398.806263164754
 31
0.0
  0
LINE
  5
61DB
330
1A
100
AcDbEntity
  8
225
  6
CENTER
 62
     3
100
AcDbLine
 10
398.6005753542228
 20
430.6231101647541
 30
0.0
 11
398.6005753542228
 21
449.623110164754
 31
0.0
  0
LINE
  5
61DC
330
1A
100
AcDbEntity
  8
150
  6
CONTINUOUS
100
AcDbLine
 10
391.6005753542228
 20
444.1231101647541
 30
0.0
 11
391.6005753542228
 21
436.1231101647541
 31
0.0
  0
CIRCLE
  5
61DD
330
1A
100
AcDbEntity
  8
150
  6
CONTINUOUS
100
AcDbCircle
 10
398.6005753542228
 20
440.1231101647541
 30
0.0
 40
6.5
  0
LINE
  5
61DE
330
1A
100
AcDbEntity
  8
150
  6
CONTINUOUS
100
AcDbLine
 10
409.1005753542228
 20
433.123110164754
 30
0.0
 11
394.6005753542228
 21
433.123110164754
 31
0.0
  0
LINE
  5
61DF
330
1A
100
AcDbEntity
  8
150
  6
PHANTOM2
 62
     7
100
AcDbLine
 10
394.4005633542228
 20
433.1297850571428
 30
0.0
 11
394.4005633542228
 21
423.1231101647541
 31
0.0
  0
ARC
  5
61E0
330
1A
100
AcDbEntity
  8
150
  6
CONTINUOUS
100
AcDbCircle
 10
394.6005753542228
 20
436.1231101647541
 30
0.0
 40
3.0
100
AcDbArc
 50
180.0000050000005
 51
270.0000009999997
  0
ARC
  5
61E1
330
1A
100
AcDbEntity
  8
0
  6
CONTINUOUS
 62
     2
100
AcDbCircle
 10
408.1005753542227
 20
423.6231101647541
 30
0.0
 40
1.0
100
AcDbArc
 50
270.0
 51
0.000008999999603
  0
LINE
  5
61E2
330
1A
100
AcDbEntity
  8
225
  6
CENTER
 62
     3
100
AcDbLine
 10
396.1005753542228
 20
457.623110164754
 30
0.0
 11
383.1005753542228
 21
457.623110164754
 31
0.0
  0
LINE
  5
61E3
330
1A
100
AcDbEntity
  8
225
  6
CONTINUOUS
 62
     3
100
AcDbLine
 10
408.1005753542227
 20
440.1231101647541
 30
0.0
 11
389.1005753542228
 21
440.1231101647541
 31
0.0
  0
LINE
  5
61E4
330
1A
100
AcDbEntity
  8
150
  6
CONTINUOUS
100
AcDbLine
 10
409.1005753542228
 20
447.1231101647541
 30
0.0
 11
394.6005753542228
 21
447.1231101647541
 31
0.0
  0
ARC
  5
61E5
330
1A
100
AcDbEntity
  8
150
  6
CONTINUOUS
100
AcDbCircle
 10
394.6005753542228
 20
444.1231101647541
 30
0.0
 40
3.0
100
AcDbArc
 50
90.0
 51
180.0000029999993
  0
LINE
  5
61E6
330
1A
100
AcDbEntity
  8
150
  6
CONTINUOUS
100
AcDbLine
 10
395.6005753542228
 20
438.3910551647541
 30
0.0
 11
398.6005753542228
 21
436.6589991647541
 31
0.0
  0
LINE
  5
61E7
330
1A
100
AcDbEntity
  8
150
  6
CONTINUOUS
100
AcDbLine
 10
395.6005753542228
 20
441.8551661647541
 30
0.0
 11
395.6005753542228
 21
438.3910551647541
 31
0.0
  0
LINE
  5
61E8
330
1A
100
AcDbEntity
  8
150
  6
CONTINUOUS
100
AcDbLine
 10
398.6005753542228
 20
443.5872221647541
 30
0.0
 11
395.6005753542228
 21
441.8551661647541
 31
0.0
  0
LINE
  5
61E9
330
1A
100
AcDbEntity
  8
150
  6
CONTINUOUS
100
AcDbLine
 10
401.6005753542228
 20
441.8551661647541
 30
0.0
 11
398.6005753542228
 21
443.5872221647541
 31
0.0
  0
LINE
  5
61EA
330
1A
100
AcDbEntity
  8
150
  6
CONTINUOUS
100
AcDbLine
 10
401.6005753542228
 20
438.3910551647541
 30
0.0
 11
401.6005753542228
 21
441.8551661647541
 31
0.0
  0
LINE
  5
61EB
330
1A
100
AcDbEntity
  8
150
  6
CONTINUOUS
100
AcDbLine
 10
398.6005753542228
 20
436.6589991647541
 30
0.0
 11
401.6005753542228
 21
438.3910551647541
 31
0.0
  0
ARC
  5
61EC
330
1A
100
AcDbEntity
  8
0
  6
CONTINUOUS
 62
     2
100
AcDbCircle
 10
437.6005753542228
 20
419.1231101647541
 30
0.0
 40
4.0
100
AcDbArc
 50
270.0
 51
0.000008999999603
  0
LINE
  5
61ED
330
1A
100
AcDbEntity
  8
225
  6
CENTER
 62
     3
100
AcDbLine
 10
442.6006053542228
 20
452.6230801647541
 30
0.0
 11
424.6006053542227
 21
452.6230801647541
 31
0.0
  0
ARC
  5
61EE
330
1A
100
AcDbEntity
  8
0
  6
CONTINUOUS
 62
     2
100
AcDbCircle
 10
433.6006053542227
 20
452.6230801647541
 30
0.0
 40
7.0
100
AcDbArc
 50
90.0
 51
269.9999979999996
  0
CIRCLE
  5
61EF
330
1A
100
AcDbEntity
  8
150
  6
CENTER
100
AcDbCircle
 10
433.6006283542229
 20
452.623090164754
 30
0.0
 40
6.5
  0
CIRCLE
  5
61F0
330
1A
100
AcDbEntity
  8
150
  6
CENTER
100
AcDbCircle
 10
433.6006283542229
 20
452.623090164754
 30
0.0
 40
5.25
  0
LINE
  5
61F1
330
1A
100
AcDbEntity
  8
0
  6
CONTINUOUS
 62
     2
100
AcDbLine
 10
433.6006053542227
 20
445.623110164754
 30
0.0
 11
440.6005753542228
 21
445.623110164754
 31
0.0
  0
ARC
  5
61F2
330
1A
100
AcDbEntity
  8
0
  6
CONTINUOUS
 62
     2
100
AcDbCircle
 10
440.6005753542228
 20
444.6231101647541
 30
0.0
 40
1.0
100
AcDbArc
 50
0.0
 51
90.00000300000015
  0
LINE
  5
61F3
330
1A
100
AcDbEntity
  8
150
  6
CONTINUOUS
100
AcDbLine
 10
435.1916093542228
 20
453.1534141647541
 30
0.0
 11
436.3583263542228
 21
454.3201321647541
 31
0.0
  0
LINE
  5
61F4
330
1A
100
AcDbEntity
  8
0
  6
CONTINUOUS
 62
     2
100
AcDbLine
 10
433.6006053542227
 20
459.623110164754
 30
0.0
 11
440.6005753542228
 21
459.623110164754
 31
0.0
  0
LINE
  5
61F5
330
1A
100
AcDbEntity
  8
150
  6
CONTINUOUS
100
AcDbLine
 10
435.2976573542228
 20
449.865359164754
 30
0.0
 11
436.3583263542228
 21
450.9260281647541
 31
0.0
  0
LINE
  5
61F6
330
1A
100
AcDbEntity
  8
150
  6
CONTINUOUS
100
AcDbLine
 10
436.3583263542228
 20
454.3201321647541
 30
0.0
 11
435.2976573542228
 21
455.380801164754
 31
0.0
  0
LINE
  5
61F7
330
1A
100
AcDbEntity
  8
150
  6
CONTINUOUS
100
AcDbLine
 10
436.3583263542228
 20
450.9260281647541
 30
0.0
 11
435.1916093542228
 21
452.0927451647541
 31
0.0
  0
ARC
  5
61F8
330
1A
100
AcDbEntity
  8
150
  6
CONTINUOUS
100
AcDbCircle
 10
433.6006283542229
 20
454.744410164754
 30
0.0
 40
0.75
100
AcDbArc
 50
224.9999879999999
 51
314.9999839999991
  0
ARC
  5
61F9
330
1A
100
AcDbEntity
  8
150
  6
CONTINUOUS
100
AcDbCircle
 10
435.7219483542228
 20
452.6230891647541
 30
0.0
 40
0.75
100
AcDbArc
 50
134.9999859999998
 51
224.9999879999999
  0
ARC
  5
61FA
330
1A
100
AcDbEntity
  8
150
  6
CONTINUOUS
100
AcDbCircle
 10
433.6006273542228
 20
450.501769164754
 30
0.0
 40
0.75
100
AcDbArc
 50
44.99998300000051
 51
134.9999859999998
  0
ARC
  5
61FB
330
1A
100
AcDbEntity
  8
150
  6
CONTINUOUS
100
AcDbCircle
 10
431.4793073542229
 20
452.623090164754
 30
0.0
 40
0.75
100
AcDbArc
 50
314.9999839999991
 51
44.9999929999999
  0
LINE
  5
61FC
330
1A
100
AcDbEntity
  8
150
  6
CONTINUOUS
100
AcDbLine
 10
434.1309403542227
 20
451.0320761647541
 30
0.0
 11
435.2976573542228
 21
449.865359164754
 31
0.0
  0
LINE
  5
61FD
330
1A
100
AcDbEntity
  8
150
  6
CONTINUOUS
100
AcDbLine
 10
431.9035533542228
 20
449.865359164754
 30
0.0
 11
433.0702713542228
 21
451.0320761647541
 31
0.0
  0
LINE
  5
61FE
330
1A
100
AcDbEntity
  8
150
  6
CONTINUOUS
100
AcDbLine
 10
430.8428853542228
 20
450.9260281647541
 30
0.0
 11
431.9035533542228
 21
449.865359164754
 31
0.0
  0
LINE
  5
61FF
330
1A
100
AcDbEntity
  8
150
  6
CONTINUOUS
100
AcDbLine
 10
432.0096023542228
 20
452.0927451647541
 30
0.0
 11
430.8428853542228
 21
450.9260281647541
 31
0.0
  0
LINE
  5
6200
330
1A
100
AcDbEntity
  8
150
  6
CONTINUOUS
100
AcDbLine
 10
430.8428853542228
 20
454.3201321647541
 30
0.0
 11
432.0096023542228
 21
453.1534141647541
 31
0.0
  0
LINE
  5
6201
330
1A
100
AcDbEntity
  8
150
  6
CONTINUOUS
100
AcDbLine
 10
431.9035533542228
 20
455.380801164754
 30
0.0
 11
430.8428853542228
 21
454.3201321647541
 31
0.0
  0
LINE
  5
6202
330
1A
100
AcDbEntity
  8
150
  6
CONTINUOUS
100
AcDbLine
 10
433.0702713542228
 20
454.214083164754
 30
0.0
 11
431.9035533542228
 21
455.380801164754
 31
0.0
  0
LINE
  5
6203
330
1A
100
AcDbEntity
  8
150
  6
CONTINUOUS
100
AcDbLine
 10
435.2976573542228
 20
455.380801164754
 30
0.0
 11
434.1309403542227
 21
454.214083164754
 31
0.0
  0
ARC
  5
6204
330
1A
100
AcDbEntity
  8
150
  6
PHANTOM2
 62
     7
100
AcDbCircle
 10
462.1005753542227
 20
425.123110164754
 30
0.0
 40
2.0
100
AcDbArc
 50
270.0
 51
0.000008999999603
  0
LINE
  5
6205
330
1A
100
AcDbEntity
  8
150
  6
PHANTOM2
 62
     7
100
AcDbLine
 10
394.4005633542228
 20
527.1231411647541
 30
0.0
 11
462.1005753542227
 21
527.1231411647541
 31
0.0
  0
LINE
  5
6206
330
1A
100
AcDbEntity
  8
225
  6
CENTER
 62
     3
100
AcDbLine
 10
398.6005753542228
 20
500.623110164754
 30
0.0
 11
398.6005753542228
 21
519.623141164754
 31
0.0
  0
ARC
  5
6207
330
1A
100
AcDbEntity
  8
150
  6
CONTINUOUS
100
AcDbCircle
 10
394.6005753542228
 20
506.123110164754
 30
0.0
 40
3.0
100
AcDbArc
 50
180.0000050000005
 51
270.0000009999997
  0
CIRCLE
  5
6208
330
1A
100
AcDbEntity
  8
150
  6
CONTINUOUS
100
AcDbCircle
 10
398.6005753542228
 20
510.123110164754
 30
0.0
 40
6.5
  0
LINE
  5
6209
330
1A
100
AcDbEntity
  8
0
  6
CONTINUOUS
 62
     2
100
AcDbLine
 10
351.6005753542228
 20
485.123110164754
 30
0.0
 11
351.6005753542228
 21
465.123110164754
 31
0.0
  0
ARC
  5
620A
330
1A
100
AcDbEntity
  8
0
  6
CONTINUOUS
 62
     2
100
AcDbCircle
 10
350.6005753542228
 20
465.123110164754
 30
0.0
 40
1.0
100
AcDbArc
 50
270.0
 51
0.000008999999603
  0
ARC
  5
620B
330
1A
100
AcDbEntity
  8
0
  6
CONTINUOUS
 62
     2
100
AcDbCircle
 10
350.6005753542228
 20
485.123110164754
 30
0.0
 40
1.0
100
AcDbArc
 50
0.0
 51
90.00000300000015
  0
LINE
  5
620C
330
1A
100
AcDbEntity
  8
150
  6
PHANTOM2
 62
     7
100
AcDbLine
 10
394.4005633542228
 20
503.1297850571427
 30
0.0
 11
394.4005633542228
 21
482.1164352723653
 31
0.0
  0
LINE
  5
620D
330
1A
100
AcDbEntity
  8
225
  6
CENTER
 62
     3
100
AcDbLine
 10
398.6005753542228
 20
465.6231101647541
 30
0.0
 11
398.6005753542228
 21
484.623110164754
 31
0.0
  0
LINE
  5
620E
330
1A
100
AcDbEntity
  8
225
  6
CONTINUOUS
 62
     3
100
AcDbLine
 10
408.1005753542227
 20
475.123110164754
 30
0.0
 11
389.1005753542228
 21
475.123110164754
 31
0.0
  0
LINE
  5
620F
330
1A
100
AcDbEntity
  8
150
  6
CONTINUOUS
100
AcDbLine
 10
409.1005753542228
 20
482.123110164754
 30
0.0
 11
394.6005753542228
 21
482.123110164754
 31
0.0
  0
LINE
  5
6210
330
1A
100
AcDbEntity
  8
150
  6
CONTINUOUS
100
AcDbLine
 10
409.1005753542228
 20
468.123110164754
 30
0.0
 11
394.6005753542228
 21
468.123110164754
 31
0.0
  0
CIRCLE
  5
6211
330
1A
100
AcDbEntity
  8
150
  6
CONTINUOUS
100
AcDbCircle
 10
398.6005753542228
 20
475.123110164754
 30
0.0
 40
6.5
  0
LINE
  5
6212
330
1A
100
AcDbEntity
  8
150
  6
CONTINUOUS
100
AcDbLine
 10
391.6005753542228
 20
479.123110164754
 30
0.0
 11
391.6005753542228
 21
471.123110164754
 31
0.0
  0
ARC
  5
6213
330
1A
100
AcDbEntity
  8
150
  6
CONTINUOUS
100
AcDbCircle
 10
394.6005753542228
 20
471.123110164754
 30
0.0
 40
3.0
100
AcDbArc
 50
180.0000050000005
 51
270.0000009999997
  0
ARC
  5
6214
330
1A
100
AcDbEntity
  8
150
  6
CONTINUOUS
100
AcDbCircle
 10
394.6005753542228
 20
479.123110164754
 30
0.0
 40
3.0
100
AcDbArc
 50
90.0
 51
180.0000029999993
  0
LINE
  5
6215
330
1A
100
AcDbEntity
  8
150
  6
CONTINUOUS
100
AcDbLine
 10
398.6005753542228
 20
478.587222164754
 30
0.0
 11
395.6005753542228
 21
476.8551661647541
 31
0.0
  0
LINE
  5
6216
330
1A
100
AcDbEntity
  8
150
  6
CONTINUOUS
100
AcDbLine
 10
395.6005753542228
 20
476.8551661647541
 30
0.0
 11
395.6005753542228
 21
473.391055164754
 31
0.0
  0
LINE
  5
6217
330
1A
100
AcDbEntity
  8
150
  6
CONTINUOUS
100
AcDbLine
 10
395.6005753542228
 20
473.391055164754
 30
0.0
 11
398.6005753542228
 21
471.658999164754
 31
0.0
  0
LINE
  5
6218
330
1A
100
AcDbEntity
  8
150
  6
CONTINUOUS
100
AcDbLine
 10
398.6005753542228
 20
471.658999164754
 30
0.0
 11
401.6005753542228
 21
473.391055164754
 31
0.0
  0
LINE
  5
6219
330
1A
100
AcDbEntity
  8
150
  6
CONTINUOUS
100
AcDbLine
 10
401.6005753542228
 20
473.391055164754
 30
0.0
 11
401.6005753542228
 21
476.8551661647541
 31
0.0
  0
LINE
  5
621A
330
1A
100
AcDbEntity
  8
150
  6
CONTINUOUS
100
AcDbLine
 10
401.6005753542228
 20
476.8551661647541
 30
0.0
 11
398.6005753542228
 21
478.587222164754
 31
0.0
  0
LINE
  5
621B
330
1A
100
AcDbEntity
  8
225
  6
CENTER
 62
     3
100
AcDbLine
 10
396.1005753542228
 20
492.623110164754
 30
0.0
 11
383.1005753542228
 21
492.623110164754
 31
0.0
  0
LINE
  5
621C
330
1A
100
AcDbEntity
  8
150
  6
CONTINUOUS
100
AcDbLine
 10
409.1005753542228
 20
503.1231101647541
 30
0.0
 11
394.6005753542228
 21
503.1231101647541
 31
0.0
  0
LINE
  5
621D
330
1A
100
AcDbEntity
  8
225
  6
CENTER
 62
     3
100
AcDbLine
 10
389.6005753542228
 20
499.1231101647541
 30
0.0
 11
389.6005753542228
 21
486.123110164754
 31
0.0
  0
CIRCLE
  5
621E
330
1A
100
AcDbEntity
  8
150
  6
CONTINUOUS
100
AcDbCircle
 10
389.6005753542228
 20
492.623110164754
 30
0.0
 40
4.5
  0
LINE
  5
621F
330
1A
100
AcDbEntity
  8
225
  6
CENTER
 62
     3
100
AcDbLine
 10
408.1005753542227
 20
510.123110164754
 30
0.0
 11
389.1005753542228
 21
510.123110164754
 31
0.0
  0
LINE
  5
6220
330
1A
100
AcDbEntity
  8
150
  6
CONTINUOUS
100
AcDbLine
 10
409.1005753542228
 20
517.123141164754
 30
0.0
 11
394.6005753542228
 21
517.123141164754
 31
0.0
  0
LINE
  5
6221
330
1A
100
AcDbEntity
  8
150
  6
PHANTOM2
 62
     7
100
AcDbLine
 10
394.4005633542228
 20
517.1164352723653
 30
0.0
 11
394.4005633542228
 21
527.1231411647541
 31
0.0
  0
ARC
  5
6222
330
1A
100
AcDbEntity
  8
150
  6
CONTINUOUS
100
AcDbCircle
 10
394.6005753542228
 20
514.123110164754
 30
0.0
 40
3.0
100
AcDbArc
 50
90.0
 51
180.0000029999993
  0
LINE
  5
6223
330
1A
100
AcDbEntity
  8
150
  6
CONTINUOUS
100
AcDbLine
 10
391.6005753542228
 20
514.123110164754
 30
0.0
 11
391.6005753542228
 21
506.123110164754
 31
0.0
  0
LINE
  5
6224
330
1A
100
AcDbEntity
  8
150
  6
CONTINUOUS
100
AcDbLine
 10
395.6005753542228
 20
511.8551661647541
 30
0.0
 11
395.6005753542228
 21
508.391055164754
 31
0.0
  0
LINE
  5
6225
330
1A
100
AcDbEntity
  8
150
  6
CONTINUOUS
100
AcDbLine
 10
395.6005753542228
 20
508.391055164754
 30
0.0
 11
398.6005753542228
 21
506.6589991647541
 31
0.0
  0
LINE
  5
6226
330
1A
100
AcDbEntity
  8
150
  6
CONTINUOUS
100
AcDbLine
 10
398.6005753542228
 20
506.6589991647541
 30
0.0
 11
401.6005753542228
 21
508.391055164754
 31
0.0
  0
LINE
  5
6227
330
1A
100
AcDbEntity
  8
150
  6
CONTINUOUS
100
AcDbLine
 10
401.6005753542228
 20
508.391055164754
 30
0.0
 11
401.6005753542228
 21
511.8551661647541
 31
0.0
  0
LINE
  5
6228
330
1A
100
AcDbEntity
  8
150
  6
CONTINUOUS
100
AcDbLine
 10
398.6005753542228
 20
513.587222164754
 30
0.0
 11
395.6005753542228
 21
511.8551661647541
 31
0.0
  0
LINE
  5
6229
330
1A
100
AcDbEntity
  8
150
  6
CONTINUOUS
100
AcDbLine
 10
401.6005753542228
 20
511.8551661647541
 30
0.0
 11
398.6005753542228
 21
513.587222164754
 31
0.0
  0
ARC
  5
622A
330
1A
100
AcDbEntity
  8
0
  6
CONTINUOUS
 62
     2
100
AcDbCircle
 10
408.1005753542227
 20
526.6231411647541
 30
0.0
 40
1.0
100
AcDbArc
 50
0.0
 51
90.00000300000015
  0
ARC
  5
622B
330
1A
100
AcDbEntity
  8
0
  6
CONTINUOUS
 62
     2
100
AcDbCircle
 10
437.6005753542228
 20
531.1231411647541
 30
0.0
 40
4.0
100
AcDbArc
 50
0.0
 51
90.00000300000015
  0
ARC
  5
622C
330
1A
100
AcDbEntity
  8
150
  6
PHANTOM2
 62
     7
100
AcDbCircle
 10
462.1005753542227
 20
525.123141164754
 30
0.0
 40
2.0
100
AcDbArc
 50
0.0
 51
90.00000300000015
  0
LINE
  5
622D
330
1A
100
AcDbEntity
  8
210
  6
CONTINUOUS
 62
     4
100
AcDbLine
 10
219.6005523542228
 20
555.123168164754
 30
0.0
 11
433.6006133542228
 21
555.123168164754
 31
0.0
  0
LINE
  5
622E
330
1A
100
AcDbEntity
  8
210
  6
CONTINUOUS
 62
     4
100
AcDbLine
 10
219.6005523542228
 20
555.123168164754
 30
0.0
 11
221.5725793542228
 21
554.7898341647541
 31
0.0
  0
LINE
  5
622F
330
1A
100
AcDbEntity
  8
210
  6
CONTINUOUS
 62
     4
100
AcDbLine
 10
219.6005523542228
 20
555.123168164754
 30
0.0
 11
221.5725793542228
 21
555.456501164754
 31
0.0
  0
TEXT
  5
6230
330
1A
100
AcDbEntity
  8
210
  6
CONTINUOUS
 62
     4
100
AcDbText
 10
320.9755833542228
 20
558.248168164754
 30
0.0
 40
5.0
  1
214
100
AcDbText
  0
TEXT
  5
6231
330
1A
100
AcDbEntity
  8
210
  6
CONTINUOUS
 62
     4
100
AcDbText
 10
319.3505523542228
 20
578.248137164754
 30
0.0
 40
5.0
  1
230
100
AcDbText
  0
LINE
  5
6232
330
1A
100
AcDbEntity
  8
210
  6
CONTINUOUS
 62
     4
100
AcDbLine
 10
433.6006133542228
 20
555.123168164754
 30
0.0
 11
431.6285873542228
 21
554.7898341647541
 31
0.0
  0
LINE
  5
6233
330
1A
100
AcDbEntity
  8
210
  6
CONTINUOUS
 62
     4
100
AcDbLine
 10
433.6006133542228
 20
555.123168164754
 30
0.0
 11
431.6285873542228
 21
555.456501164754
 31
0.0
  0
LINE
  5
6234
330
1A
100
AcDbEntity
  8
210
  6
CONTINUOUS
 62
     4
100
AcDbLine
 10
441.6005833542228
 20
575.123137164754
 30
0.0
 11
439.6285563542227
 21
574.789804164754
 31
0.0
  0
LINE
  5
6235
330
1A
100
AcDbEntity
  8
210
  6
CONTINUOUS
 62
     4
100
AcDbLine
 10
441.6005833542228
 20
575.123137164754
 30
0.0
 11
439.6285563542227
 21
575.4564701647541
 31
0.0
  0
LINE
  5
6236
330
1A
100
AcDbEntity
  8
210
  6
CONTINUOUS
 62
     4
100
AcDbLine
 10
492.3207161534969
 20
203.6794421647541
 30
0.0
 11
492.3207161534969
 21
176.179450164754
 31
0.0
  0
LINE
  5
6237
330
1A
100
AcDbEntity
  8
210
  6
CONTINUOUS
 62
     4
100
AcDbLine
 10
512.320716153497
 20
203.679442164754
 30
0.0
 11
512.320716153497
 21
153.679450164754
 31
0.0
  0
TEXT
  5
6238
330
1A
100
AcDbEntity
  8
210
  6
CONTINUOUS
 62
     4
100
AcDbText
 10
509.195716153497
 20
174.096116164754
 30
0.0
 40
5.0
  1
50
 50
90.00000300000015
100
AcDbText
  0
LINE
  5
623B
330
1A
100
AcDbEntity
  8
210
  6
CONTINUOUS
 62
     4
100
AcDbLine
 10
492.3207161534969
 20
176.179450164754
 30
0.0
 11
491.987383153497
 21
178.151476164754
 31
0.0
  0
LINE
  5
623C
330
1A
100
AcDbEntity
  8
210
  6
CONTINUOUS
 62
     4
100
AcDbLine
 10
492.3207161534969
 20
176.179450164754
 30
0.0
 11
492.654049153497
 21
178.151476164754
 31
0.0
  0
LINE
  5
623D
330
1A
100
AcDbEntity
  8
210
  6
CONTINUOUS
 62
     4
100
AcDbLine
 10
512.320716153497
 20
153.679450164754
 30
0.0
 11
511.987383153497
 21
155.651476164754
 31
0.0
  0
LINE
  5
623E
330
1A
100
AcDbEntity
  8
210
  6
CONTINUOUS
 62
     4
100
AcDbLine
 10
512.320716153497
 20
153.679450164754
 30
0.0
 11
512.654049153497
 21
155.651476164754
 31
0.0
  0
LINE
  5
6240
330
1A
100
AcDbEntity
  8
210
  6
CONTINUOUS
 62
     4
100
AcDbLine
 10
492.3207161534969
 20
248.679442164754
 30
0.0
 11
492.3207161534969
 21
203.6794421647541
 31
0.0
  0
LINE
  5
6241
330
1A
100
AcDbEntity
  8
210
  6
CONTINUOUS
 62
     4
100
AcDbLine
 10
492.3207161534969
 20
203.6794421647541
 30
0.0
 11
491.987383153497
 21
205.651469164754
 31
0.0
  0
LINE
  5
6242
330
1A
100
AcDbEntity
  8
210
  6
CONTINUOUS
 62
     4
100
AcDbLine
 10
492.3207161534969
 20
203.6794421647541
 30
0.0
 11
492.654049153497
 21
205.651469164754
 31
0.0
  0
LINE
  5
6243
330
1A
100
AcDbEntity
  8
210
  6
CONTINUOUS
 62
     4
100
AcDbLine
 10
492.3207161534969
 20
203.6794421647541
 30
0.0
 11
491.987383153497
 21
201.707415164754
 31
0.0
  0
LINE
  5
6244
330
1A
100
AcDbEntity
  8
210
  6
CONTINUOUS
 62
     4
100
AcDbLine
 10
492.3207161534969
 20
203.6794421647541
 30
0.0
 11
492.654049153497
 21
201.707415164754
 31
0.0
  0
LINE
  5
6248
330
1A
100
AcDbEntity
  8
210
  6
CONTINUOUS
 62
     4
100
AcDbLine
 10
512.320716153497
 20
203.679442164754
 30
0.0
 11
511.987383153497
 21
201.707415164754
 31
0.0
  0
LINE
  5
6249
330
1A
100
AcDbEntity
  8
210
  6
CONTINUOUS
 62
     4
100
AcDbLine
 10
512.320716153497
 20
203.679442164754
 30
0.0
 11
512.654049153497
 21
201.707415164754
 31
0.0
  0
LINE
  5
624A
330
1A
100
AcDbEntity
  8
210
  6
CONTINUOUS
 62
     4
100
AcDbLine
 10
492.3207161534969
 20
248.679442164754
 30
0.0
 11
491.987383153497
 21
246.707415164754
 31
0.0
  0
LINE
  5
624B
330
1A
100
AcDbEntity
  8
210
  6
CONTINUOUS
 62
     4
100
AcDbLine
 10
492.3207161534969
 20
248.679442164754
 30
0.0
 11
492.654049153497
 21
246.707415164754
 31
0.0
  0
LINE
  5
6258
330
1A
100
AcDbEntity
  8
210
  6
CONTINUOUS
 62
     4
100
AcDbLine
 10
500.6006133542228
 20
422.6231071647541
 30
0.0
 11
500.6006133542228
 21
527.6231371647541
 31
0.0
  0
LINE
  5
6259
330
1A
100
AcDbEntity
  8
210
  6
CONTINUOUS
 62
     4
100
AcDbLine
 10
480.6006133542227
 20
440.1231071647541
 30
0.0
 11
480.6006133542227
 21
475.123107164754
 31
0.0
  0
LINE
  5
625C
330
1A
100
AcDbEntity
  8
210
  6
CONTINUOUS
 62
     4
100
AcDbLine
 10
500.6006133542228
 20
422.6231071647541
 30
0.0
 11
500.2672803542228
 21
424.5951331647541
 31
0.0
  0
LINE
  5
625D
330
1A
100
AcDbEntity
  8
210
  6
CONTINUOUS
 62
     4
100
AcDbLine
 10
500.6006133542228
 20
422.6231071647541
 30
0.0
 11
500.9339463542228
 21
424.5951331647541
 31
0.0
  0
LINE
  5
625E
330
1A
100
AcDbEntity
  8
210
  6
CONTINUOUS
 62
     4
100
AcDbLine
 10
480.6006133542227
 20
440.1231071647541
 30
0.0
 11
480.2672803542228
 21
442.0951331647541
 31
0.0
  0
LINE
  5
625F
330
1A
100
AcDbEntity
  8
210
  6
CONTINUOUS
 62
     4
100
AcDbLine
 10
480.6006133542227
 20
440.1231071647541
 30
0.0
 11
480.9339463542228
 21
442.0951331647541
 31
0.0
  0
LINE
  5
6260
330
1A
100
AcDbEntity
  8
210
  6
CONTINUOUS
 62
     4
100
AcDbLine
 10
480.6006133542227
 20
475.123107164754
 30
0.0
 11
480.6006133542227
 21
510.1231071647541
 31
0.0
  0
TEXT
  5
6261
330
1A
100
AcDbEntity
  8
210
  6
CONTINUOUS
 62
     4
100
AcDbText
 10
497.4756133542228
 20
469.2898031647541
 30
0.0
 40
5.0
  1
105
 50
90.00000300000015
100
AcDbText
  0
LINE
  5
6262
330
1A
100
AcDbEntity
  8
210
  6
CONTINUOUS
 62
     4
100
AcDbLine
 10
480.6006133542227
 20
475.123107164754
 30
0.0
 11
480.2672803542228
 21
473.151080164754
 31
0.0
  0
LINE
  5
6263
330
1A
100
AcDbEntity
  8
210
  6
CONTINUOUS
 62
     4
100
AcDbLine
 10
480.6006133542227
 20
475.123107164754
 30
0.0
 11
480.9339463542228
 21
473.151080164754
 31
0.0
  0
LINE
  5
6264
330
1A
100
AcDbEntity
  8
210
  6
CONTINUOUS
 62
     4
100
AcDbLine
 10
480.6006133542227
 20
475.123107164754
 30
0.0
 11
480.2672803542228
 21
477.095133164754
 31
0.0
  0
LINE
  5
6265
330
1A
100
AcDbEntity
  8
210
  6
CONTINUOUS
 62
     4
100
AcDbLine
 10
480.6006133542227
 20
475.123107164754
 30
0.0
 11
480.9339463542228
 21
477.095133164754
 31
0.0
  0
LINE
  5
6266
330
1A
100
AcDbEntity
  8
210
  6
CONTINUOUS
 62
     4
100
AcDbLine
 10
480.6006133542227
 20
510.1231071647541
 30
0.0
 11
480.2672803542228
 21
508.151080164754
 31
0.0
  0
LINE
  5
6267
330
1A
100
AcDbEntity
  8
210
  6
CONTINUOUS
 62
     4
100
AcDbLine
 10
480.6006133542227
 20
510.1231071647541
 30
0.0
 11
480.9339463542228
 21
508.151080164754
 31
0.0
  0
LINE
  5
6268
330
1A
100
AcDbEntity
  8
210
  6
CONTINUOUS
 62
     4
100
AcDbLine
 10
500.6006133542228
 20
527.6231371647541
 30
0.0
 11
500.2672803542228
 21
525.6511111647541
 31
0.0
  0
LINE
  5
6269
330
1A
100
AcDbEntity
  8
210
  6
CONTINUOUS
 62
     4
100
AcDbLine
 10
500.6006133542228
 20
527.6231371647541
 30
0.0
 11
500.9339463542228
 21
525.6511111647541
 31
0.0
  0
LINE
  5
6696
330
1A
100
AcDbEntity
  8
170
  6
CONTINUOUS
100
AcDbLine
 10
655.3509327677004
 20
557.623110164754
 30
0.0
 11
665.3509327677004
 21
550.123110164754
 31
0.0
  0
LINE
  5
6697
330
1A
100
AcDbEntity
  8
225
  6
CONTINUOUS
 62
     3
100
AcDbLine
 10
680.8509327677004
 20
497.6231101647541
 30
0.0
 11
659.8509327677004
 21
497.6231101647541
 31
0.0
  0
LINE
  5
6698
330
1A
100
AcDbEntity
  8
230
  6
CONTINUOUS
 62
     6
100
AcDbLine
 10
668.5872987677001
 20
500.2820601647541
 30
0.0
 11
640.7732630835631
 21
553.5137487885273
 31
0.0
  0
LINE
  5
6699
330
1A
100
AcDbEntity
  8
170
  6
CONTINUOUS
100
AcDbLine
 10
655.3509327677004
 20
407.6230791647541
 30
0.0
 11
665.3509327677004
 21
400.1230791647541
 31
0.0
  0
LINE
  5
669B
330
1A
100
AcDbEntity
  8
225
  6
CENTER
 62
     3
100
AcDbLine
 10
605.3508107677003
 20
475.1231101647541
 30
0.0
 11
949.3508107677003
 21
475.1231101647541
 31
0.0
  0
LINE
  5
669C
330
1A
100
AcDbEntity
  8
210
  6
CONTINUOUS
 62
     4
100
AcDbLine
 10
873.4764217677001
 20
452.6231101647542
 30
0.0
 11
582.3508107677002
 21
452.6231101647542
 31
0.0
  0
LINE
  5
669D
330
1A
100
AcDbEntity
  8
225
  6
CENTER
 62
     3
100
AcDbLine
 10
623.3508107677002
 20
226.4813758964936
 30
0.0
 11
931.3508107677003
 21
226.4813758964936
 31
0.0
  0
LINE
  5
669E
330
1A
100
AcDbEntity
  8
170
  6
DASHED
100
AcDbLine
 10
650.3509327677004
 20
553.8731559141959
 30
0.0
 11
650.3509327677004
 21
403.5606401647538
 31
0.0
  0
LINE
  5
669F
330
1A
100
AcDbEntity
  8
170
  6
CONTINUOUS
100
AcDbLine
 10
645.3508107677002
 20
550.1231101647541
 30
0.0
 11
645.3508107677002
 21
400.1230791647541
 31
0.0
  0
TEXT
  5
66A2
330
1A
100
AcDbEntity
  8
230
 62
     6
100
AcDbText
 10
617.1809584032651
 20
223.0143452276335
 30
0.0
 40
5.0
  1
L
100
AcDbText
  0
TEXT
  5
66A3
330
1A
100
AcDbEntity
  8
230
 62
     6
100
AcDbText
 10
615.5840390833263
 20
224.9931784408744
 30
0.0
 40
5.0
  1
H
100
AcDbText
  0
LINE
  5
67EB
330
1A
100
AcDbEntity
  8
170
  6
CONTINUOUS
100
AcDbLine
 10
645.3508107677002
 20
400.1230791647541
 30
0.0
 11
648.6841847677003
 21
402.6230791647541
 31
0.0
  0
LINE
  5
67EC
330
1A
100
AcDbEntity
  8
170
  6
CONTINUOUS
100
AcDbLine
 10
648.6841847677003
 20
402.6230791647541
 30
0.0
 11
655.3509327677004
 21
407.6230791647541
 31
0.0
  0
LINE
  5
692D
330
1A
100
AcDbEntity
  8
210
  6
CONTINUOUS
 62
     4
100
AcDbLine
 10
585.3508107677003
 20
497.6231101647541
 30
0.0
 11
585.3508107677003
 21
452.6231101647542
 31
0.0
  0
TEXT
  5
692F
330
1A
100
AcDbEntity
  8
210
  6
CONTINUOUS
 62
     4
100
AcDbText
 10
582.111471976
 20
470.4370961421154
 30
0.0
 40
5.0
  1
45
 50
90.00000299999769
100
AcDbText
  0
LINE
  5
6932
330
1A
100
AcDbEntity
  8
210
  6
CONTINUOUS
 62
     4
100
AcDbLine
 10
585.3508107677003
 20
452.6231101647542
 30
0.0
 11
585.0174777677002
 21
454.5951371647544
 31
0.0
  0
LINE
  5
6933
330
1A
100
AcDbEntity
  8
210
  6
CONTINUOUS
 62
     4
100
AcDbLine
 10
585.3508107677003
 20
452.6231101647542
 30
0.0
 11
585.6841447677002
 21
454.5951371647544
 31
0.0
  0
TEXT
  5
6934
330
1A
100
AcDbEntity
  8
230
 62
     6
100
AcDbText
 10
598.9281975523854
 20
472.6228547632573
 30
0.0
 40
5.0
  1
H
100
AcDbText
  0
TEXT
  5
6935
330
1A
100
AcDbEntity
  8
230
 62
     6
100
AcDbText
 10
600.5251168723241
 20
470.6440215500162
 30
0.0
 40
5.0
  1
L
100
AcDbText
  0
LINE
  5
6939
330
1A
100
AcDbEntity
  8
210
  6
CONTINUOUS
 62
     4
100
AcDbLine
 10
659.4765437677003
 20
497.6231101647541
 30
0.0
 11
582.3508107677002
 21
497.6231101647541
 31
0.0
  0
LINE
  5
693A
330
1A
100
AcDbEntity
  8
210
  6
CONTINUOUS
 62
     4
100
AcDbLine
 10
585.3508107677003
 20
497.6231101647541
 30
0.0
 11
585.0174777677002
 21
495.6510831647543
 31
0.0
  0
LINE
  5
693B
330
1A
100
AcDbEntity
  8
210
  6
CONTINUOUS
 62
     4
100
AcDbLine
 10
585.3508107677003
 20
497.6231101647541
 30
0.0
 11
585.6841447677002
 21
495.6510831647543
 31
0.0
  0
LINE
  5
693C
330
1A
100
AcDbEntity
  8
170
  6
CONTINUOUS
100
AcDbLine
 10
645.3508107677002
 20
550.123110164754
 30
0.0
 11
648.6841847677003
 21
552.623110164754
 31
0.0
  0
LINE
  5
693D
330
1A
100
AcDbEntity
  8
170
  6
CONTINUOUS
100
AcDbLine
 10
648.6841847677003
 20
552.623110164754
 30
0.0
 11
655.3509327677004
 21
557.623110164754
 31
0.0
  0
LINE
  5
6942
330
1A
100
AcDbEntity
  8
230
  6
CONTINUOUS
 62
     6
100
AcDbLine
 10
640.7732630835631
 20
553.5137487885273
 30
0.0
 11
611.1742500640859
 21
553.5137487885273
 31
0.0
  0
TEXT
  5
6943
330
1A
100
AcDbEntity
  8
230
  6
CONTINUOUS
 62
     6
100
AcDbText
 10
613.2262470641912
 20
556.3090147038566
 30
0.0
 40
5.0
  1
2-M6
100
AcDbText
  0
LINE
  5
6944
330
1A
100
AcDbEntity
  8
225
  6
CENTER
 62
     3
100
AcDbLine
 10
777.3508107677002
 20
550.9708987237301
 30
0.0
 11
777.3508107677002
 21
390.1230791647541
 31
0.0
  0
LINE
  5
6945
330
1A
100
AcDbEntity
  8
170
  6
CONTINUOUS
100
AcDbLine
 10
685.3508107677001
 20
550.123110164754
 30
0.0
 11
685.3508107677003
 21
400.1230791647541
 31
0.0
  0
LINE
  5
6946
330
1A
100
AcDbEntity
  8
170
  6
PHANTOM2
 62
     1
100
AcDbLine
 10
662.3508107677003
 20
422.123079164754
 30
0.0
 11
662.3508107677003
 21
528.1231101647541
 31
0.0
  0
LINE
  5
6947
330
1A
100
AcDbEntity
  8
170
  6
DASHED
100
AcDbLine
 10
904.3508107677002
 20
546.373064415312
 30
0.0
 11
904.3508107677002
 21
396.6855791647541
 31
0.0
  0
LINE
  5
6948
330
1A
100
AcDbEntity
  8
170
  6
CONTINUOUS
100
AcDbLine
 10
869.3508107677002
 20
550.1231101647541
 30
0.0
 11
869.3508107677002
 21
400.1230791647541
 31
0.0
  0
LINE
  5
6949
330
1A
100
AcDbEntity
  8
170
  6
CONTINUOUS
100
AcDbLine
 10
909.3508107677003
 20
550.123110164754
 30
0.0
 11
909.3508107677003
 21
400.1230791647541
 31
0.0
  0
LINE
  5
694A
330
1A
100
AcDbEntity
  8
170
  6
PHANTOM2
 62
     1
100
AcDbLine
 10
892.3508107677003
 20
422.123079164754
 30
0.0
 11
892.3508107677003
 21
528.1231101647541
 31
0.0
  0
LINE
  5
694B
330
1A
100
AcDbEntity
  8
170
  6
PHANTOM2
 62
     1
100
AcDbLine
 10
662.3508107677003
 20
173.4813448964936
 30
0.0
 11
662.3508107677003
 21
279.4813758964935
 31
0.0
  0
LINE
  5
694C
330
1A
100
AcDbEntity
  8
10
  6
CONTINUOUS
100
AcDbLine
 10
731.3508107677002
 20
291.4813758964936
 30
0.0
 11
731.3508107677002
 21
161.4813448964937
 31
0.0
  0
LINE
  5
694D
330
1A
100
AcDbEntity
  8
225
  6
CENTER
 62
     3
100
AcDbLine
 10
777.3508107677002
 20
301.4813758964936
 30
0.0
 11
777.3508107677002
 21
153.9813908964937
 31
0.0
  0
LINE
  5
694E
330
1A
100
AcDbEntity
  8
10
  6
CONTINUOUS
100
AcDbLine
 10
823.3508107677003
 20
291.4813758964936
 30
0.0
 11
823.3508107677003
 21
161.4813448964937
 31
0.0
  0
LINE
  5
694F
330
1A
100
AcDbEntity
  8
170
  6
PHANTOM2
 62
     1
100
AcDbLine
 10
892.3508107677003
 20
173.4813448964936
 30
0.0
 11
892.3508107677003
 21
279.4813758964935
 31
0.0
  0
LINE
  5
6950
330
1A
100
AcDbEntity
  8
230
  6
CONTINUOUS
 62
     6
100
AcDbLine
 10
720.5390823023267
 20
129.8377389689795
 30
0.0
 11
838.306304346073
 21
129.8377389689795
 31
0.0
  0
TEXT
  5
6952
330
1A
100
AcDbEntity
  8
230
 62
     6
100
AcDbText
 10
726.3943275277565
 20
133.6868589689794
 30
0.0
 40
10.0
  1
パネルカット寸法図
100
AcDbText
  0
ARC
  5
6953
330
1A
100
AcDbEntity
  8
170
  6
PHANTOM2
 62
     1
100
AcDbCircle
 10
669.3508107677002
 20
173.4813448964936
 30
0.0
 40
7.0
100
AcDbArc
 50
180.0000050000005
 51
270.0000009999949
  0
ARC
  5
6954
330
1A
100
AcDbEntity
  8
170
  6
PHANTOM2
 62
     1
100
AcDbCircle
 10
885.3508107677003
 20
173.4813448964936
 30
0.0
 40
7.0
100
AcDbArc
 50
270.0
 51
0.000008999999603
  0
INSERT
  5
6955
330
1A
100
AcDbEntity
  8
210
 62
     4
100
AcDbBlockReference
  2
_OPEN30
 10
823.3508107677003
 20
320.5536335754812
 30
0.0
 41
2.200000000000045
 42
2.200000000000045
 43
2.2
  0
LINE
  5
6956
330
1A
100
AcDbEntity
  8
170
  6
PHANTOM2
 62
     1
100
AcDbLine
 10
669.3508107677002
 20
286.4813758964935
 30
0.0
 11
885.3508107677003
 21
286.4813758964935
 31
0.0
  0
ARC
  5
6957
330
1A
100
AcDbEntity
  8
170
  6
PHANTOM2
 62
     1
100
AcDbCircle
 10
669.3508107677002
 20
279.4813758964935
 30
0.0
 40
7.0
100
AcDbArc
 50
90.0
 51
180.0000029999976
  0
LINE
  5
6958
330
1A
100
AcDbEntity
  8
210
 62
     4
100
AcDbLine
 10
733.5508107677003
 20
320.5536335754812
 30
0.0
 11
821.1508107677005
 21
320.5536335754812
 31
0.0
  0
LINE
  5
6959
330
1A
100
AcDbEntity
  8
210
 62
     4
100
AcDbLine
 10
731.3508107677002
 20
294.7938758964936
 30
0.0
 11
731.3508107677002
 21
323.0536335754813
 31
0.0
  0
INSERT
  5
695A
330
1A
100
AcDbEntity
  8
210
 62
     4
100
AcDbBlockReference
  2
_OPEN30
 10
731.3508107677002
 20
320.5536335754812
 30
0.0
 41
2.200000000000045
 42
2.200000000000045
 43
2.2
 50
180.0
  0
TEXT
  5
695B
330
1A
100
AcDbEntity
  8
230
 62
     6
100
AcDbText
 10
770.0240568296544
 20
304.2442678964936
 30
0.0
 40
5.0
  1
ASL
100
AcDbText
  0
TEXT
  5
695C
330
1A
100
AcDbEntity
  8
230
 62
     6
100
AcDbText
 10
755.8738649024112
 20
312.2867427547909
 30
0.0
 40
5.0
  1
パネルカット幅
100
AcDbText
  0
MTEXT
  5
695D
330
1A
100
AcDbEntity
  8
210
 62
     4
100
AcDbMText
 10
777.3508107677002
 20
325.0536335754812
 30
0.0
 40
5.0
 41
0.0
 71
     5
 72
     1
  1
\A1;92
1001
ACAD
1000
MTEXTBEGIN
1070
    73
1070
     1
1070
    44
1040
1.0
1070
    74
1070
     0
1000
MTEXTEND
1000
MTEXTBEGIN
1070
    73
1070
     1
1070
    44
1040
1.0
1070
    74
1070
     0
1000
MTEXTEND
1000
MTEXTBEGIN
1070
    73
1070
     1
1070
    44
1040
1.0
1070
    74
1070
     0
1000
MTEXTEND
  0
ARC
  5
695E
330
1A
100
AcDbEntity
  8
170
  6
PHANTOM2
 62
     1
100
AcDbCircle
 10
885.3508107677003
 20
279.4813758964935
 30
0.0
 40
7.0
100
AcDbArc
 50
0.0
 51
90.00000299999769
  0
LINE
  5
695F
330
1A
100
AcDbEntity
  8
210
 62
     4
100
AcDbLine
 10
823.3508107677003
 20
294.7938758964936
 30
0.0
 11
823.3508107677003
 21
323.0536335754813
 31
0.0
  0
LINE
  5
6960
330
1A
100
AcDbEntity
  8
230
  6
CONTINUOUS
 62
     6
100
AcDbLine
 10
731.7857064795657
 20
366.4133827019341
 30
0.0
 11
822.9159150558349
 21
366.4133827019341
 31
0.0
  0
LINE
  5
6961
330
1A
100
AcDbEntity
  8
170
  6
PHANTOM2
 62
     1
100
AcDbLine
 10
669.3508107677001
 20
415.1230791647541
 30
0.0
 11
885.3508107677003
 21
415.1230791647541
 31
0.0
  0
TEXT
  5
6962
330
1A
100
AcDbEntity
  8
230
 62
     6
100
AcDbText
 10
745.0233703128301
 20
370.262502701934
 30
0.0
 40
10.0
  1
取付寸法図
100
AcDbText
  0
LINE
  5
6963
330
1A
100
AcDbEntity
  8
170
  6
CONTINUOUS
100
AcDbLine
 10
665.3509327677004
 20
400.1230791647541
 30
0.0
 11
675.3509327677004
 21
392.6230791647541
 31
0.0
  0
LINE
  5
6964
330
1A
100
AcDbEntity
  8
170
  6
CONTINUOUS
100
AcDbLine
 10
682.0175587677003
 20
397.6230791647541
 30
0.0
 11
685.3508107677003
 21
400.1230791647541
 31
0.0
  0
LINE
  5
6965
330
1A
100
AcDbEntity
  8
170
  6
CONTINUOUS
100
AcDbLine
 10
675.3509327677004
 20
392.6230791647541
 30
0.0
 11
682.0175587677003
 21
397.6230791647541
 31
0.0
  0
LINE
  5
6967
330
1A
100
AcDbEntity
  8
170
  6
CONTINUOUS
100
AcDbLine
 10
899.3508107677003
 20
392.6230791647541
 30
0.0
 11
906.0175587677004
 21
397.6230791647541
 31
0.0
  0
LINE
  5
6968
330
1A
100
AcDbEntity
  8
170
  6
CONTINUOUS
100
AcDbLine
 10
889.3508107677003
 20
400.1230791647541
 30
0.0
 11
899.3508107677003
 21
392.6230791647541
 31
0.0
  0
LINE
  5
6969
330
1A
100
AcDbEntity
  8
170
  6
CONTINUOUS
100
AcDbLine
 10
879.3508107677002
 20
407.6230791647541
 30
0.0
 11
889.3508107677003
 21
400.1230791647541
 31
0.0
  0
LINE
  5
696A
330
1A
100
AcDbEntity
  8
170
  6
CONTINUOUS
100
AcDbLine
 10
872.6841847677
 20
402.6230791647541
 30
0.0
 11
879.3508107677002
 21
407.6230791647541
 31
0.0
  0
LINE
  5
696B
330
1A
100
AcDbEntity
  8
170
  6
CONTINUOUS
100
AcDbLine
 10
869.3508107677002
 20
400.1230791647541
 30
0.0
 11
872.6841847677
 21
402.6230791647541
 31
0.0
  0
LINE
  5
696D
330
1A
100
AcDbEntity
  8
170
  6
CONTINUOUS
100
AcDbLine
 10
906.0175587677004
 20
397.6230791647541
 30
0.0
 11
909.3508107677003
 21
400.1230791647541
 31
0.0
  0
LINE
  5
696E
330
1A
100
AcDbEntity
  8
210
 62
     4
100
AcDbLine
 10
670.3509327677004
 20
508.1231101647541
 30
0.0
 11
670.3508717677002
 21
574.905718164754
 31
0.0
  0
LINE
  5
696F
330
1A
100
AcDbEntity
  8
210
 62
     4
100
AcDbLine
 10
670.3508717677002
 20
559.6793573862568
 30
0.0
 11
670.3508717677002
 21
594.9057181647543
 31
0.0
  0
LINE
  5
6970
330
1A
100
AcDbEntity
  8
210
 62
     4
100
AcDbLine
 10
685.3508107677003
 20
550.185610164754
 30
0.0
 11
685.3508107677003
 21
574.905718164754
 31
0.0
  0
TEXT
  5
6971
330
1A
100
AcDbEntity
  8
230
 62
     6
100
AcDbText
 10
770.3985159095768
 20
553.9294245671701
 30
0.0
 40
5.0
  1
ASL
100
AcDbText
  0
LINE
  5
6972
330
1A
100
AcDbEntity
  8
210
 62
     4
100
AcDbLine
 10
869.3508107677002
 20
550.185610164754
 30
0.0
 11
869.3508107677002
 21
574.905718164754
 31
0.0
  0
LINE
  5
6973
330
1A
100
AcDbEntity
  8
230
  6
CONTINUOUS
 62
     6
100
AcDbLine
 10
894.8746477677
 20
541.8077861647541
 30
0.0
 11
931.69889750723
 21
589.7434906748476
 31
0.0
  0
LINE
  5
6974
330
1A
100
AcDbEntity
  8
210
 62
     4
100
AcDbLine
 10
884.3508107677003
 20
463.1231101647541
 30
0.0
 11
884.3508107677003
 21
574.905718164754
 31
0.0
  0
LINE
  5
6975
330
1A
100
AcDbEntity
  8
210
 62
     4
100
AcDbLine
 10
884.3508107677003
 20
559.6793573862568
 30
0.0
 11
884.3508107677003
 21
594.9057181647543
 31
0.0
  0
LINE
  5
6976
330
1A
100
AcDbEntity
  8
170
  6
PHANTOM2
 62
     1
100
AcDbLine
 10
669.3508107677001
 20
535.123110164754
 30
0.0
 11
885.3508107677003
 21
535.123110164754
 31
0.0
  0
LINE
  5
6977
330
1A
100
AcDbEntity
  8
225
  6
CONTINUOUS
 62
     3
100
AcDbLine
 10
670.3509327677004
 20
508.1231101647541
 30
0.0
 11
670.3509327677004
 21
487.1231101647541
 31
0.0
  0
CIRCLE
  5
6978
330
1A
100
AcDbEntity
  8
10
  6
CONTINUOUS
100
AcDbCircle
 10
670.3509327677004
 20
497.6231101647541
 30
0.0
 40
3.0
  0
LINE
  5
6979
330
1A
100
AcDbEntity
  8
230
  6
CONTINUOUS
 62
     6
100
AcDbLine
 10
668.5872987677001
 20
500.2820601647541
 30
0.0
 11
667.3786137677004
 21
501.8755101647542
 31
0.0
  0
LINE
  5
697A
330
1A
100
AcDbEntity
  8
230
  6
CONTINUOUS
 62
     6
100
AcDbLine
 10
668.5872987677001
 20
500.2820601647541
 30
0.0
 11
667.9694837677004
 21
502.1842441647542
 31
0.0
  0
CIRCLE
  5
697B
330
1A
100
AcDbEntity
  8
10
  6
CONTINUOUS
100
AcDbCircle
 10
670.3509327677004
 20
497.6231101647541
 30
0.0
 40
2.458499999999999
  0
LINE
  5
697D
330
1A
100
AcDbEntity
  8
170
  6
CONTINUOUS
100
AcDbLine
 10
675.3509327677004
 20
542.623110164754
 30
0.0
 11
682.0175587677003
 21
547.623110164754
 31
0.0
  0
LINE
  5
697E
330
1A
100
AcDbEntity
  8
170
  6
CONTINUOUS
100
AcDbLine
 10
665.3509327677004
 20
550.123110164754
 30
0.0
 11
675.3509327677004
 21
542.623110164754
 31
0.0
  0
LINE
  5
697F
330
1A
100
AcDbEntity
  8
170
  6
CONTINUOUS
100
AcDbLine
 10
682.0175587677003
 20
547.623110164754
 30
0.0
 11
685.3508107677003
 21
550.123110164754
 31
0.0
  0
LINE
  5
6980
330
1A
100
AcDbEntity
  8
225
  6
CONTINUOUS
 62
     3
100
AcDbLine
 10
884.3508107677003
 20
463.1231101647541
 30
0.0
 11
884.3508107677003
 21
442.1231101647541
 31
0.0
  0
CIRCLE
  5
6981
330
1A
100
AcDbEntity
  8
10
  6
CONTINUOUS
100
AcDbCircle
 10
884.3508107677003
 20
452.6231101647542
 30
0.0
 40
2.458499999999999
  0
CIRCLE
  5
6982
330
1A
100
AcDbEntity
  8
10
  6
CONTINUOUS
100
AcDbCircle
 10
884.3508107677003
 20
452.6231101647542
 30
0.0
 40
3.0
  0
LINE
  5
6983
330
1A
100
AcDbEntity
  8
225
  6
CONTINUOUS
 62
     3
100
AcDbLine
 10
873.8508107677002
 20
452.6231101647542
 30
0.0
 11
894.8508107677003
 21
452.6231101647542
 31
0.0
  0
LINE
  5
6984
330
1A
100
AcDbEntity
  8
170
  6
CONTINUOUS
100
AcDbLine
 10
899.3508107677003
 20
542.623110164754
 30
0.0
 11
906.0175587677004
 21
547.623110164754
 31
0.0
  0
LINE
  5
6986
330
1A
100
AcDbEntity
  8
170
  6
CONTINUOUS
100
AcDbLine
 10
879.3508107677002
 20
557.623110164754
 30
0.0
 11
889.3508107677003
 21
550.123110164754
 31
0.0
  0
LINE
  5
6987
330
1A
100
AcDbEntity
  8
170
  6
CONTINUOUS
100
AcDbLine
 10
869.3508107677002
 20
550.123110164754
 30
0.0
 11
872.6841847677
 21
552.623110164754
 31
0.0
  0
LINE
  5
6988
330
1A
100
AcDbEntity
  8
230
  6
CONTINUOUS
 62
     6
100
AcDbLine
 10
894.8746477677
 20
541.8077861647541
 30
0.0
 11
895.8116617677001
 21
543.5747061647539
 31
0.0
  0
LINE
  5
6989
330
1A
100
AcDbEntity
  8
230
  6
CONTINUOUS
 62
     6
100
AcDbLine
 10
894.8746477677
 20
541.8077861647541
 30
0.0
 11
896.3403407677001
 21
543.168574164754
 31
0.0
  0
LINE
  5
698A
330
1A
100
AcDbEntity
  8
170
  6
CONTINUOUS
100
AcDbLine
 10
889.3508107677003
 20
550.123110164754
 30
0.0
 11
899.3508107677003
 21
542.623110164754
 31
0.0
  0
LINE
  5
698B
330
1A
100
AcDbEntity
  8
170
  6
CONTINUOUS
100
AcDbLine
 10
872.6841847677
 20
552.623110164754
 30
0.0
 11
879.3508107677002
 21
557.623110164754
 31
0.0
  0
LINE
  5
698C
330
1A
100
AcDbEntity
  8
170
  6
CONTINUOUS
100
AcDbLine
 10
906.0175587677004
 20
547.623110164754
 30
0.0
 11
909.3508107677003
 21
550.123110164754
 31
0.0
  0
LINE
  5
698D
330
1A
100
AcDbEntity
  8
210
 62
     4
100
AcDbLine
 10
687.5508107677003
 20
572.405718164754
 30
0.0
 11
867.1508107677004
 21
572.405718164754
 31
0.0
  0
LINE
  5
698E
330
1A
100
AcDbEntity
  8
210
 62
     4
100
AcDbLine
 10
672.5508717677
 20
592.4057181647542
 30
0.0
 11
882.1508107677004
 21
592.4057181647542
 31
0.0
  0
TEXT
  5
698F
330
1A
100
AcDbEntity
  8
210
100
AcDbText
 10
672.7317936486524
 20
574.405718164754
 30
0.0
 40
5.0
  1
15
100
AcDbText
1001
ACAD
1000
MTEXTBEGIN
1070
    73
1070
     1
1070
    44
1040
1.0
1070
    74
1070
     0
1000
MTEXTEND
  0
MTEXT
  5
6990
330
1A
100
AcDbEntity
  8
210
 62
     4
100
AcDbMText
 10
677.8508410832212
 20
576.9058626016429
 30
0.0
 40
5.0
 41
0.0
 71
     5
 72
     1
  1
\A1;15
 11
0.9999999999989464
 21
-0.0000014516272459
 31
0.0
1001
ACAD
1000
MTEXTBEGIN
1070
    73
1070
     1
1070
    44
1040
1.0
1070
    74
1070
     0
1000
MTEXTEND
1000
MTEXTBEGIN
1070
    73
1070
     1
1070
    44
1040
1.0
1070
    74
1070
     0
1000
MTEXTEND
1000
MTEXTBEGIN
1070
    73
1070
     1
1070
    44
1040
1.0
1070
    74
1070
     0
1000
MTEXTEND
1000
MTEXTBEGIN
1070
    73
1070
     1
1070
    44
1040
1.0
1070
    74
1070
     0
1000
MTEXTEND
  0
LINE
  5
6991
330
1A
100
AcDbEntity
  8
210
 62
     4
100
AcDbLine
 10
672.5508717677002
 20
572.405718164754
 30
0.0
 11
683.1508107677002
 21
572.405718164754
 31
0.0
  0
INSERT
  5
6992
330
1A
100
AcDbEntity
  8
210
 62
     4
100
AcDbBlockReference
  2
_OPEN30
 10
670.3508717677002
 20
572.405718164754
 30
0.0
 41
2.200000000000045
 42
2.200000000000045
 43
2.2
 50
180.0
  0
LINE
  5
6993
330
1A
100
AcDbEntity
  8
210
 62
     4
100
AcDbLine
 10
683.1508107677002
 20
572.995206382754
 30
0.0
 11
685.3508107677003
 21
572.405718164754
 31
0.0
  0
LINE
  5
6994
330
1A
100
AcDbEntity
  8
210
 62
     4
100
AcDbLine
 10
685.3508107677003
 20
572.405718164754
 30
0.0
 11
683.1508107677002
 21
571.816229946754
 31
0.0
  0
LINE
  5
6995
330
1A
100
AcDbEntity
  8
210
 62
     4
100
AcDbLine
 10
685.3508107677003
 20
572.405718164754
 30
0.0
 11
683.1508107677002
 21
572.405718164754
 31
0.0
  0
INSERT
  5
6996
330
1A
100
AcDbEntity
  8
210
 62
     4
100
AcDbBlockReference
  2
_OPEN30
 10
685.3508107677003
 20
572.405718164754
 30
0.0
 41
2.200000000000045
 42
2.200000000000045
 43
2.2
 50
180.0
  0
LINE
  5
6997
330
1A
100
AcDbEntity
  8
210
 62
     4
100
AcDbLine
 10
685.3508107677003
 20
568.8514286341296
 30
0.0
 11
685.3508107677003
 21
574.905718164754
 31
0.0
  0
INSERT
  5
6998
330
1A
100
AcDbEntity
  8
210
 62
     4
100
AcDbBlockReference
  2
_OPEN30
 10
670.3508717677002
 20
592.4057181647542
 30
0.0
 41
2.200000000000045
 42
2.200000000000045
 43
2.2
 50
180.0
  0
MTEXT
  5
6999
330
1A
100
AcDbEntity
  8
210
 62
     4
100
AcDbMText
 10
777.3508107677002
 20
576.905718164754
 30
0.0
 40
5.0
 41
0.0
 71
     5
 72
     1
  1
\A1;184
1001
ACAD
1000
MTEXTBEGIN
1070
    73
1070
     1
1070
    44
1040
1.0
1070
    74
1070
     0
1000
MTEXTEND
1000
MTEXTBEGIN
1070
    73
1070
     1
1070
    44
1040
1.0
1070
    74
1070
     0
1000
MTEXTEND
1000
MTEXTBEGIN
1070
    73
1070
     1
1070
    44
1040
1.0
1070
    74
1070
     0
1000
MTEXTEND
  0
MTEXT
  5
699A
330
1A
100
AcDbEntity
  8
210
 62
     4
100
AcDbMText
 10
777.3508412677001
 20
596.9057181647542
 30
0.0
 40
5.0
 41
0.0
 71
     5
 72
     1
  1
\A1;214
1001
ACAD
1000
MTEXTBEGIN
1070
    73
1070
     1
1070
    44
1040
1.0
1070
    74
1070
     0
1000
MTEXTEND
1000
MTEXTBEGIN
1070
    73
1070
     1
1070
    44
1040
1.0
1070
    74
1070
     0
1000
MTEXTEND
1000
MTEXTBEGIN
1070
    73
1070
     1
1070
    44
1040
1.0
1070
    74
1070
     0
1000
MTEXTEND
1000
MTEXTBEGIN
1070
    73
1070
     1
1070
    44
1040
1.0
1070
    74
1070
     0
1000
MTEXTEND
  0
MTEXT
  5
699B
330
1A
100
AcDbEntity
  8
210
 62
     4
100
AcDbMText
 10
876.8508107677003
 20
576.905718164754
 30
0.0
 40
5.0
 41
0.0
 71
     5
 72
     1
  1
\A1;15
1001
ACAD
1000
MTEXTBEGIN
1070
    73
1070
     1
1070
    44
1040
1.0
1070
    74
1070
     0
1000
MTEXTEND
1000
MTEXTBEGIN
1070
    73
1070
     1
1070
    44
1040
1.0
1070
    74
1070
     0
1000
MTEXTEND
1000
MTEXTBEGIN
1070
    73
1070
     1
1070
    44
1040
1.0
1070
    74
1070
     0
1000
MTEXTEND
1000
MTEXTBEGIN
1070
    73
1070
     1
1070
    44
1040
1.0
1070
    74
1070
     0
1000
MTEXTEND
  0
INSERT
  5
699C
330
1A
100
AcDbEntity
  8
210
 62
     4
100
AcDbBlockReference
  2
_OPEN30
 10
884.3508107677003
 20
572.405718164754
 30
0.0
 41
2.200000000000045
 42
2.200000000000045
 43
2.2
  0
INSERT
  5
699D
330
1A
100
AcDbEntity
  8
210
 62
     4
100
AcDbBlockReference
  2
_OPEN30
 10
869.3508107677002
 20
572.405718164754
 30
0.0
 41
2.200000000000045
 42
2.200000000000045
 43
2.2
  0
INSERT
  5
699E
330
1A
100
AcDbEntity
  8
210
 62
     4
100
AcDbBlockReference
  2
_OPEN30
 10
869.3508107677002
 20
572.405718164754
 30
0.0
 41
2.200000000000045
 42
2.200000000000045
 43
2.2
 50
180.0
  0
LINE
  5
699F
330
1A
100
AcDbEntity
  8
210
 62
     4
100
AcDbLine
 10
869.3508107677002
 20
568.8514286341296
 30
0.0
 11
869.3508107677002
 21
574.905718164754
 31
0.0
  0
LINE
  5
69A0
330
1A
100
AcDbEntity
  8
210
 62
     4
100
AcDbLine
 10
871.5508107677001
 20
572.405718164754
 30
0.0
 11
882.1508107677004
 21
572.405718164754
 31
0.0
  0
INSERT
  5
69A1
330
1A
100
AcDbEntity
  8
210
 62
     4
100
AcDbBlockReference
  2
_OPEN30
 10
884.3508107677003
 20
592.4057181647542
 30
0.0
 41
2.200000000000045
 42
2.200000000000045
 43
2.2
  0
LINE
  5
69A2
330
1A
100
AcDbEntity
  8
230
  6
CONTINUOUS
 62
     6
100
AcDbLine
 10
931.69889750723
 20
589.7434906748476
 30
0.0
 11
979.5774527841681
 21
589.7434906748476
 31
0.0
  0
TEXT
  5
69A3
330
1A
100
AcDbEntity
  8
230
  6
CONTINUOUS
 62
     6
100
AcDbText
 10
941.6991443817769
 20
591.612774534017
 30
0.0
 40
5.0
  1
取付アングル
100
AcDbText
  0
LINE
  5
69F2
330
1A
100
AcDbEntity
  8
170
  6
PHANTOM2
 62
     1
100
AcDbLine
 10
669.3508107677002
 20
166.4813448964936
 30
0.0
 11
885.3508107677003
 21
166.4813448964936
 31
0.0
  0
HATCH
  5
6A2D
330
1A
100
AcDbEntity
  8
170
100
AcDbHatch
 10
0.0
 20
0.0
 30
0.0
210
0.0
220
0.0
230
1.0
  2
ANSI31
 70
     0
 71
     0
 91
        8
 92
        7
 72
     1
 73
     1
 93
        7
 10
731.3508107677002
 20
278.9813758964935
 42
0.0
 10
731.3508107677002
 20
291.4813758964937
 42
0.0
 10
646.229490368604
 20
291.4813758964936
 42
0.0
 10
646.229490368604
 20
226.4813758964936
 42
0.0
 10
663.3508107677003
 20
226.4813758964937
 42
0.0
 10
663.3508107677003
 20
271.9813758964935
 42
-0.4142135623730946
 10
670.3508107677002
 20
278.9813758964935
 42
0.0
 97
        0
 92
       22
 72
     1
 73
     1
 93
        5
 10
670.3508107677002
 20
278.9813758964935
 42
0.4142135623730946
 10
663.3508107677003
 20
271.9813758964935
 42
0.0
 10
663.3508107677003
 20
226.4813758964936
 42
0.0
 10
731.3508107677002
 20
226.4813758964936
 42
0.0
 10
731.3508107677001
 20
278.9813758964935
 42
0.0
 97
        0
 92
       22
 72
     1
 73
     1
 93
        5
 10
663.3508107677003
 20
180.9813448964936
 42
0.4142135623730944
 10
670.3508107677002
 20
173.9813448964936
 42
0.0
 10
731.3508107677002
 20
173.9813448964936
 42
0.0
 10
731.3508107677002
 20
226.4813758964936
 42
0.0
 10
663.3508107677003
 20
226.4813758964936
 42
0.0
 97
        0
 92
        7
 72
     1
 73
     1
 93
        7
 10
663.3508107677003
 20
226.4813758964936
 42
0.0
 10
646.2294903686043
 20
226.4813758964936
 42
0.0
 10
646.2294903686043
 20
161.4813758964936
 42
0.0
 10
731.3508107677005
 20
161.4813758964936
 42
0.0
 10
731.3508107677005
 20
173.9813448964936
 42
0.0
 10
670.3508107677002
 20
173.9813448964936
 42
-0.4142135623730944
 10
663.3508107677003
 20
180.9813448964936
 42
0.0
 97
        0
 92
        7
 72
     1
 73
     1
 93
        5
 10
823.3508107677003
 20
278.9813758964935
 42
0.0
 10
823.3508107677003
 20
226.4813758964936
 42
0.0
 10
891.3508107677005
 20
226.4813758964936
 42
0.0
 10
891.3508107677003
 20
271.9813758964936
 42
0.4142135623731029
 10
884.3508107677001
 20
278.9813758964935
 42
0.0
 97
        0
 92
        7
 72
     1
 73
     1
 93
        7
 10
908.472131166796
 20
291.4813758964936
 42
0.0
 10
823.3508107677005
 20
291.4813758964937
 42
0.0
 10
823.3508107677005
 20
278.9813758964935
 42
0.0
 10
884.3508107677001
 20
278.9813758964935
 42
-0.4142135623731042
 10
891.3508107677003
 20
271.9813758964935
 42
0.0
 10
891.3508107677005
 20
226.4813758964936
 42
0.0
 10
908.4721311667959
 20
226.4813758964936
 42
0.0
 97
        0
 92
        7
 72
     1
 73
     1
 93
        7
 10
891.3508107677003
 20
180.9813448964936
 42
-0.4142135623730931
 10
884.3508107677003
 20
173.9813448964936
 42
0.0
 10
823.3508107677003
 20
173.9813448964936
 42
0.0
 10
823.3508107677
 20
161.4813758964936
 42
0.0
 10
908.4721311667959
 20
161.4813758964936
 42
0.0
 10
908.472131166796
 20
226.4813758964936
 42
0.0
 10
891.3508107677003
 20
226.4813758964936
 42
0.0
 97
        0
 92
        7
 72
     1
 73
     1
 93
        5
 10
891.3508107677001
 20
226.4813758964936
 42
0.0
 10
823.3508107677003
 20
226.4813758964936
 42
0.0
 10
823.3508107677003
 20
173.9813448964936
 42
0.0
 10
884.3508107677003
 20
173.9813448964936
 42
0.4142135623730931
 10
891.3508107677003
 20
180.9813448964936
 42
0.0
 97
        0
 75
     0
 76
     1
 52
0.0
 41
50.0
 77
     0
 78
     1
 53
45.0
 43
-577.9680097290129
 44
54.8989063501212
 45
-4.419417382415921
 46
4.419417382415922
 79
     0
 47
0.46198299867456
 98
        8
 10
692.559380303177
 20
283.4603766017561
 10
690.70993399721
 20
259.4372600529849
 10
685.161621826026
 20
202.1513679181443
 10
657.4200342233943
 20
189.2158432313962
 10
857.1594774441436
 20
255.741394403536
 10
899.6965820010737
 20
277.9165781275823
 10
895.9976983047127
 20
185.5199775819473
 10
871.954994398442
 20
196.6075694439704
  0
TEXT
  5
6A2E
330
1A
100
AcDbEntity
  8
230
  6
CONTINUOUS
 62
     6
100
AcDbText
 10
267.5417467598749
 20
102.957854164754
 30
0.0
 40
5.0
  1
ブスバーピッチ
100
AcDbText
  0
LINE
  5
6A2F
330
1A
100
AcDbEntity
  8
210
  6
CONTINUOUS
 62
     4
100
AcDbLine
 10
256.6005833542228
 20
110.179453164754
 30
0.0
 11
326.6005673542228
 21
110.179453164754
 31
0.0
  0
LINE
  5
6A30
330
1A
100
AcDbEntity
  8
210
  6
CONTINUOUS
 62
     4
100
AcDbLine
 10
235.6005833542228
 20
86.16946316475411
 30
0.0
 11
417.6005673542229
 21
86.16946316475411
 31
0.0
  0
LINE
  5
6A31
330
1A
100
AcDbEntity
  8
210
  6
CONTINUOUS
 62
     4
100
AcDbLine
 10
235.6005833542228
 20
86.16946316475411
 30
0.0
 11
237.5726093542227
 21
86.50279616475405
 31
0.0
  0
LINE
  5
6A32
330
1A
100
AcDbEntity
  8
210
  6
CONTINUOUS
 62
     4
100
AcDbLine
 10
235.6005833542228
 20
86.16946316475411
 30
0.0
 11
237.5726093542227
 21
85.83612916475408
 31
0.0
  0
LINE
  5
6A33
330
1A
100
AcDbEntity
  8
210
  6
CONTINUOUS
 62
     4
100
AcDbLine
 10
256.6005833542228
 20
110.179453164754
 30
0.0
 11
258.5726093542227
 21
110.512787164754
 31
0.0
  0
LINE
  5
6A34
330
1A
100
AcDbEntity
  8
210
  6
CONTINUOUS
 62
     4
100
AcDbLine
 10
256.6005833542228
 20
110.179453164754
 30
0.0
 11
258.5726093542227
 21
109.8461201647541
 31
0.0
  0
TEXT
  5
6A35
330
1A
100
AcDbEntity
  8
210
  6
CONTINUOUS
 62
     4
100
AcDbText
 10
287.1422493542229
 20
113.304453164754
 30
0.0
 40
5.0
  1
70
100
AcDbText
  0
TEXT
  5
6A36
330
1A
100
AcDbEntity
  8
230
  6
CONTINUOUS
 62
     6
100
AcDbText
 10
337.6716879041803
 20
102.957854164754
 30
0.0
 40
5.0
  1
ブスバーピッチ
100
AcDbText
  0
TEXT
  5
6A37
330
1A
100
AcDbEntity
  8
230
  6
CONTINUOUS
 62
     6
100
AcDbText
 10
332.9300498280008
 20
122.663085164754
 30
0.0
 40
5.0
  1
適用ブスバー厚さ
100
AcDbText
  0
LINE
  5
6A38
330
1A
100
AcDbEntity
  8
210
  6
CONTINUOUS
 62
     4
100
AcDbLine
 10
326.6005673542228
 20
110.179453164754
 30
0.0
 11
396.6005673542229
 21
110.179453164754
 31
0.0
  0
LINE
  5
6A39
330
1A
100
AcDbEntity
  8
210
  6
CONTINUOUS
 62
     4
100
AcDbLine
 10
331.6005673542229
 20
130.1794651647541
 30
0.0
 11
342.8282386694945
 21
130.1794651647541
 31
0.0
  0
TEXT
  5
6A3A
330
1A
100
AcDbEntity
  8
210
  6
CONTINUOUS
 62
     4
100
AcDbText
 10
320.8922343542228
 20
89.29446316475411
 30
0.0
 40
5.0
  1
182
100
AcDbText
  0
LINE
  5
6A3B
330
1A
100
AcDbEntity
  8
210
  6
CONTINUOUS
 62
     4
100
AcDbLine
 10
321.6005673542229
 20
130.1794651647541
 30
0.0
 11
331.6005673542229
 21
130.1794651647541
 31
0.0
  0
LINE
  5
6A3C
330
1A
100
AcDbEntity
  8
210
  6
CONTINUOUS
 62
     4
100
AcDbLine
 10
321.6005673542229
 20
130.1794651647541
 30
0.0
 11
319.6285413542227
 21
130.512798164754
 31
0.0
  0
LINE
  5
6A3D
330
1A
100
AcDbEntity
  8
210
  6
CONTINUOUS
 62
     4
100
AcDbLine
 10
321.6005673542229
 20
130.1794651647541
 30
0.0
 11
316.2685673542227
 21
130.1794651647541
 31
0.0
  0
LINE
  5
6A3E
330
1A
100
AcDbEntity
  8
210
  6
CONTINUOUS
 62
     4
100
AcDbLine
 10
321.6005673542229
 20
130.1794651647541
 30
0.0
 11
319.6285413542227
 21
129.846132164754
 31
0.0
  0
LINE
  5
6A3F
330
1A
100
AcDbEntity
  8
210
  6
CONTINUOUS
 62
     4
100
AcDbLine
 10
331.6005673542229
 20
130.1794651647541
 30
0.0
 11
333.5725943542227
 21
130.512798164754
 31
0.0
  0
LINE
  5
6A40
330
1A
100
AcDbEntity
  8
210
  6
CONTINUOUS
 62
     4
100
AcDbLine
 10
331.6005673542229
 20
130.1794651647541
 30
0.0
 11
333.5725943542227
 21
129.846132164754
 31
0.0
  0
LINE
  5
6A41
330
1A
100
AcDbEntity
  8
210
  6
CONTINUOUS
 62
     4
100
AcDbLine
 10
326.6005673542228
 20
110.179453164754
 30
0.0
 11
324.6285413542227
 21
110.512787164754
 31
0.0
  0
LINE
  5
6A42
330
1A
100
AcDbEntity
  8
210
  6
CONTINUOUS
 62
     4
100
AcDbLine
 10
326.6005673542228
 20
110.179453164754
 30
0.0
 11
324.6285413542227
 21
109.8461201647541
 31
0.0
  0
LINE
  5
6A43
330
1A
100
AcDbEntity
  8
210
  6
CONTINUOUS
 62
     4
100
AcDbLine
 10
326.6005673542228
 20
110.179453164754
 30
0.0
 11
328.5725943542227
 21
110.512787164754
 31
0.0
  0
LINE
  5
6A44
330
1A
100
AcDbEntity
  8
210
  6
CONTINUOUS
 62
     4
100
AcDbLine
 10
326.6005673542228
 20
110.179453164754
 30
0.0
 11
328.5725943542227
 21
109.8461201647541
 31
0.0
  0
TEXT
  5
6A45
330
1A
100
AcDbEntity
  8
210
  6
CONTINUOUS
 62
     4
100
AcDbText
 10
357.1422343542228
 20
113.304453164754
 30
0.0
 40
5.0
  1
70
100
AcDbText
  0
LINE
  5
6A46
330
1A
100
AcDbEntity
  8
210
  6
CONTINUOUS
 62
     4
100
AcDbLine
 10
396.6005673542229
 20
110.179453164754
 30
0.0
 11
394.6285413542229
 21
110.512787164754
 31
0.0
  0
LINE
  5
6A47
330
1A
100
AcDbEntity
  8
210
  6
CONTINUOUS
 62
     4
100
AcDbLine
 10
396.6005673542229
 20
110.179453164754
 30
0.0
 11
394.6285413542229
 21
109.8461201647541
 31
0.0
  0
LINE
  5
6A48
330
1A
100
AcDbEntity
  8
210
  6
CONTINUOUS
 62
     4
100
AcDbLine
 10
417.6005673542229
 20
86.16946316475411
 30
0.0
 11
415.628541354223
 21
86.50279616475405
 31
0.0
  0
LINE
  5
6A49
330
1A
100
AcDbEntity
  8
210
  6
CONTINUOUS
 62
     4
100
AcDbLine
 10
417.6005673542229
 20
86.16946316475411
 30
0.0
 11
415.628541354223
 21
85.83612916475408
 31
0.0
  0
TEXT
  5
6A4A
330
1A
100
AcDbEntity
  8
210
  6
CONTINUOUS
 62
     4
100
AcDbText
 10
333.5365516694946
 20
133.3044651647541
 30
0.0
 40
5.0
  1
10
100
AcDbText
  0
LINE
  5
6A4B
330
1A
100
AcDbEntity
  8
210
  6
CONTINUOUS
 62
     4
100
AcDbLine
 10
235.6005833542228
 20
157.6794501647541
 30
0.0
 11
235.6005833542228
 21
82.10696316475411
 31
0.0
  0
LINE
  5
6A4C
330
1A
100
AcDbEntity
  8
210
  6
CONTINUOUS
 62
     4
100
AcDbLine
 10
417.6005673542229
 20
157.6794501647541
 30
0.0
 11
417.6005673542229
 21
82.10696316475411
 31
0.0
  0
LINE
  5
6A5A
330
1A
100
AcDbEntity
  8
150
100
AcDbLine
 10
261.3005573542228
 20
322.679446164754
 30
0.0
 11
259.1005443542228
 21
322.679446164754
 31
0.0
  0
ARC
  5
6A5B
330
1A
100
AcDbEntity
  8
150
  6
HIDDEN2
100
AcDbCircle
 10
227.6005753542228
 20
223.6794460600342
 30
0.0
 40
1.0
100
AcDbArc
 50
90.0
 51
180.0000029999976
  0
LINE
  5
6A5C
330
1A
100
AcDbEntity
  8
230
  6
CONTINUOUS
100
AcDbLine
 10
216.8321333542227
 20
223.9029851647539
 30
0.0
 11
215.9766773542227
 21
225.7107991647539
 31
0.0
  0
LINE
  5
6A5D
330
1A
100
AcDbEntity
  8
230
  6
CONTINUOUS
100
AcDbLine
 10
216.8321333542227
 20
223.9029851647539
 30
0.0
 11
216.6183783542227
 21
225.8915291647539
 31
0.0
  0
LINE
  5
6A5F
330
1A
100
AcDbEntity
  8
225
  6
CENTER
 62
     3
100
AcDbLine
 10
219.6005753542228
 20
229.6794460600342
 30
0.0
 11
219.6005753542228
 21
190.6794460600343
 31
0.0
  0
ARC
  5
6A60
330
1A
100
AcDbEntity
  8
150
  6
HIDDEN2
100
AcDbCircle
 10
219.6005803542226
 20
210.1794390600343
 30
0.0
 40
14.0
100
AcDbArc
 50
74.68147499999915
 51
105.3184529999979
  0
LINE
  5
6A61
330
1A
100
AcDbEntity
  8
150
  6
HIDDEN2
100
AcDbLine
 10
212.6005753542228
 20
217.6794460600343
 30
0.0
 11
226.6005753542228
 21
217.6794460600343
 31
0.0
  0
LINE
  5
6A62
330
1A
100
AcDbEntity
  8
150
  6
HIDDEN2
100
AcDbLine
 10
213.5005693542227
 20
220.1794460600343
 30
0.0
 11
225.7005813542227
 21
220.1794460600343
 31
0.0
  0
LINE
  5
6A63
330
1A
100
AcDbEntity
  8
150
  6
HIDDEN2
100
AcDbLine
 10
213.1005753542228
 20
218.6794460600343
 30
0.0
 11
226.1005753542228
 21
218.6794460600343
 31
0.0
  0
LWPOLYLINE
  5
6A65
330
1A
100
AcDbEntity
  8
10
  6
HIDDEN2
100
AcDbPolyline
 90
        4
 70
     1
 43
0.0
 10
216.6005753542228
 20
198.6794460600343
 10
222.6005753542228
 20
198.6794460600343
 10
222.6005753542228
 20
217.6794460600343
 10
216.6005753542228
 20
217.6794460600343
  0
LINE
  5
6A66
330
1A
100
AcDbEntity
  8
150
  6
DASHED
100
AcDbLine
 10
216.6005753542228
 20
217.6794460600343
 30
0.0
 11
216.6005753542228
 21
195.7209500600343
 31
0.0
  0
LINE
  5
6A67
330
1A
100
AcDbEntity
  8
150
  6
DASHED
100
AcDbLine
 10
217.1420793542228
 20
217.6794460600343
 30
0.0
 11
217.1420793542228
 21
195.1794460600343
 31
0.0
  0
LINE
  5
6A68
330
1A
100
AcDbEntity
  8
150
  6
DASHED
100
AcDbLine
 10
222.6005753542228
 20
217.6794460600343
 30
0.0
 11
222.6005753542228
 21
195.7209500600343
 31
0.0
  0
LINE
  5
6A69
330
1A
100
AcDbEntity
  8
150
  6
DASHED
100
AcDbLine
 10
222.0590713542228
 20
217.6794460600343
 30
0.0
 11
222.0590713542228
 21
195.1794460600343
 31
0.0
  0
LINE
  5
6A6A
330
1A
100
AcDbEntity
  8
150
  6
DASHED
100
AcDbLine
 10
222.6005753542228
 20
195.7209500600343
 30
0.0
 11
222.0590713542228
 21
195.1794460600343
 31
0.0
  0
LINE
  5
6A6B
330
1A
100
AcDbEntity
  8
150
  6
DASHED
100
AcDbLine
 10
216.6005753542228
 20
195.7209500600343
 30
0.0
 11
217.1420793542228
 21
195.1794460600343
 31
0.0
  0
LINE
  5
6A6C
330
1A
100
AcDbEntity
  8
150
  6
DASHED
100
AcDbLine
 10
217.1420793542228
 20
195.1794460600343
 30
0.0
 11
222.0590713542228
 21
195.1794460600343
 31
0.0
  0
LINE
  5
6A6D
330
1A
100
AcDbEntity
  8
150
  6
DASHED
100
AcDbLine
 10
216.6005753542228
 20
195.7209500600343
 30
0.0
 11
222.6005753542228
 21
195.7209500600343
 31
0.0
  0
LINE
  5
6A6E
330
1A
100
AcDbEntity
  8
150
  6
HIDDEN2
100
AcDbLine
 10
219.6005753542228
 20
218.6794460600343
 30
0.0
 11
218.8505753542228
 21
220.1794460600343
 31
0.0
  0
LINE
  5
6A6F
330
1A
100
AcDbEntity
  8
150
  6
HIDDEN2
100
AcDbLine
 10
220.3505753542228
 20
218.6794460600343
 30
0.0
 11
219.6005753542228
 21
220.1794460600343
 31
0.0
  0
LINE
  5
6A70
330
1A
100
AcDbEntity
  8
150
  6
HIDDEN2
100
AcDbLine
 10
213.5005693542227
 20
218.6794460600343
 30
0.0
 11
213.5005693542227
 21
220.1794460600343
 31
0.0
  0
LINE
  5
6A71
330
1A
100
AcDbEntity
  8
150
  6
HIDDEN2
100
AcDbLine
 10
213.1005753542228
 20
217.6794460600343
 30
0.0
 11
213.1005753542228
 21
218.6794460600343
 31
0.0
  0
ARC
  5
6A72
330
1A
100
AcDbEntity
  8
150
  6
HIDDEN2
100
AcDbCircle
 10
212.6005753542228
 20
216.6794460600343
 30
0.0
 40
1.0
100
AcDbArc
 50
90.0
 51
180.0000029999976
  0
LINE
  5
6A74
330
1A
100
AcDbEntity
  8
150
  6
HIDDEN2
100
AcDbLine
 10
214.3505753542228
 20
220.1794460600343
 30
0.0
 11
214.5111893542227
 21
222.0151390600343
 31
0.0
  0
ARC
  5
6A75
330
1A
100
AcDbEntity
  8
150
  6
HIDDEN2
100
AcDbCircle
 10
222.7972113542227
 20
221.8495420600343
 30
0.0
 40
1.9
100
AcDbArc
 50
4.999913000002249
 51
74.68147499999915
  0
LINE
  5
6A76
330
1A
100
AcDbEntity
  8
150
  6
HIDDEN2
100
AcDbLine
 10
226.1005753542228
 20
217.6794460600343
 30
0.0
 11
226.1005753542228
 21
218.6794460600343
 31
0.0
  0
LINE
  5
6A77
330
1A
100
AcDbEntity
  8
150
  6
HIDDEN2
100
AcDbLine
 10
225.7005813542227
 20
218.6794460600343
 30
0.0
 11
225.7005813542227
 21
220.1794460600343
 31
0.0
  0
LINE
  5
6A78
330
1A
100
AcDbEntity
  8
150
  6
HIDDEN2
100
AcDbLine
 10
224.8505753542228
 20
220.1794460600343
 30
0.0
 11
224.6899913542227
 21
222.0151390600343
 31
0.0
  0
LINE
  5
6A79
330
1A
100
AcDbEntity
  8
150
  6
HIDDEN2
100
AcDbLine
 10
226.6005753542228
 20
223.6794460600342
 30
0.0
 11
226.6005753542228
 21
217.6794460600343
 31
0.0
  0
TEXT
  5
6A7A
330
1A
100
AcDbEntity
  8
230
  6
CONTINUOUS
 62
     6
100
AcDbText
 10
158.7020601268154
 20
281.9425961647539
 30
0.0
 40
5.0
  1
ナベM6
100
AcDbText
  0
TEXT
  5
6A7B
330
1A
100
AcDbEntity
  8
230
  6
CONTINUOUS
 62
     6
100
AcDbText
 10
157.9308733542226
 20
289.5592501647539
 30
0.0
 40
5.0
  1
差込台取付けねじ
100
AcDbText
  0
LINE
  5
6A7C
330
1A
100
AcDbEntity
  8
230
  6
CONTINUOUS
 62
     6
100
AcDbLine
 10
201.2356523542227
 20
279.2800601647539
 30
0.0
 11
157.9770773542226
 21
279.2800601647539
 31
0.0
  0
LINE
  5
6A7D
330
1A
100
AcDbEntity
  8
230
  6
CONTINUOUS
 62
     6
100
AcDbLine
 10
216.8321333542227
 20
223.9029851647539
 30
0.0
 11
201.2356523542227
 21
279.2800601647539
 31
0.0
  0
LINE
  5
6A7E
330
1A
100
AcDbEntity
  8
230
  6
CONTINUOUS
 62
     6
100
AcDbLine
 10
244.1005833542228
 20
262.4631496777216
 30
0.0
 11
217.9501313542227
 21
299.1698756777216
 31
0.0
  0
LINE
  5
6A7F
330
1A
100
AcDbEntity
  8
230
  6
CONTINUOUS
 62
     6
100
AcDbLine
 10
217.9501313542227
 20
299.1698756777216
 30
0.0
 11
188.4590733542226
 21
299.1698756777216
 31
0.0
  0
TEXT
  5
6A80
330
1A
100
AcDbEntity
  8
230
  6
CONTINUOUS
 62
     6
100
AcDbText
 10
187.9485753542227
 20
300.6558686777216
 30
0.0
 40
5.0
  1
標準装備
100
AcDbText
  0
TEXT
  5
6A81
330
1A
100
AcDbEntity
  8
230
  6
CONTINUOUS
 62
     6
100
AcDbText
 10
187.974968719955
 20
307.7662936777217
 30
0.0
 40
5.0
  1
端子カバー
100
AcDbText
  0
LINE
  5
6A82
330
1A
100
AcDbEntity
  8
230
  6
CONTINUOUS
 62
     6
100
AcDbLine
 10
244.1005833542228
 20
262.4631496777216
 30
0.0
 11
243.2278393542227
 21
264.2626826777216
 31
0.0
  0
LINE
  5
6A83
330
1A
100
AcDbEntity
  8
230
  6
CONTINUOUS
 62
     6
100
AcDbLine
 10
244.1005833542228
 20
262.4631496777216
 30
0.0
 11
242.6848713542228
 21
263.8758636777216
 31
0.0
  0
LINE
  5
6A84
330
1A
100
AcDbEntity
  8
210
  6
CONTINUOUS
 62
     4
100
AcDbLine
 10
193.6005443542228
 20
203.6794471647539
 30
0.0
 11
171.6005443542228
 21
203.6794471647539
 31
0.0
  0
LINE
  5
6A85
330
1A
100
AcDbEntity
  8
210
  6
CONTINUOUS
 62
     4
100
AcDbLine
 10
212.6005753542228
 20
224.6794471647539
 30
0.0
 11
171.6005443542228
 21
224.6794471647539
 31
0.0
  0
TEXT
  5
6A86
330
1A
100
AcDbEntity
  8
210
  6
CONTINUOUS
 62
     4
100
AcDbText
 10
171.701816625012
 20
210.1156610792985
 30
0.0
 40
5.0
  1
21
 50
90.00000299999769
100
AcDbText
  0
LINE
  5
6A87
330
1A
100
AcDbEntity
  8
210
  6
CONTINUOUS
 62
     4
100
AcDbLine
 10
174.6005443542228
 20
224.6794471647539
 30
0.0
 11
174.9338783542227
 21
222.7074201647539
 31
0.0
  0
LINE
  5
6A88
330
1A
100
AcDbEntity
  8
210
  6
CONTINUOUS
 62
     4
100
AcDbLine
 10
174.6005443542228
 20
224.6794471647539
 30
0.0
 11
174.2672113542228
 21
222.7074201647539
 31
0.0
  0
LINE
  5
6A89
330
1A
100
AcDbEntity
  8
210
  6
CONTINUOUS
 62
     4
100
AcDbLine
 10
174.6005443542228
 20
203.6794471647539
 30
0.0
 11
174.6005443542228
 21
224.6794471647539
 31
0.0
  0
LINE
  5
6A8A
330
1A
100
AcDbEntity
  8
210
  6
CONTINUOUS
 62
     4
100
AcDbLine
 10
174.6005443542228
 20
203.6794471647539
 30
0.0
 11
174.9338783542227
 21
205.651473164754
 31
0.0
  0
LINE
  5
6A8B
330
1A
100
AcDbEntity
  8
210
  6
CONTINUOUS
 62
     4
100
AcDbLine
 10
174.6005443542228
 20
203.6794471647539
 30
0.0
 11
174.2672113542228
 21
205.651473164754
 31
0.0
  0
ARC
  5
6A8C
330
1A
100
AcDbEntity
  8
150
  6
HIDDEN2
100
AcDbCircle
 10
216.4039393542229
 20
221.8495420600343
 30
0.0
 40
1.9
100
AcDbArc
 50
105.3185250000008
 51
175.0000869999977
  0
LINE
  5
6A8D
330
1A
100
AcDbEntity
  8
150
  6
CONTINUOUS
100
AcDbLine
 10
237.1005443542228
 20
227.579440164754
 30
0.0
 11
237.1005443542228
 21
224.679446164754
 31
0.0
  0
LINE
  5
6A8E
330
1A
100
AcDbEntity
  8
0
  6
CONTINUOUS
 62
     2
100
AcDbLine
 10
351.6005753542228
 20
327.679446164754
 30
0.0
 11
376.6005753542228
 21
327.679446164754
 31
0.0
  0
LINE
  5
6A8F
330
1A
100
AcDbEntity
  8
150
100
AcDbLine
 10
351.6005753542228
 20
327.679446164754
 30
0.0
 11
301.6005753542228
 21
327.679446164754
 31
0.0
  0
LINE
  5
6A90
330
1A
100
AcDbEntity
  8
0
  6
CONTINUOUS
 62
     2
100
AcDbLine
 10
233.1005753542228
 20
224.679446164754
 30
0.0
 11
213.6005753542228
 21
224.679446164754
 31
0.0
  0
LINE
  5
6A91
330
1A
100
AcDbEntity
  8
150
  6
CONTINUOUS
100
AcDbLine
 10
233.1005753542228
 20
224.679446164754
 30
0.0
 11
409.1005753542228
 21
224.679446164754
 31
0.0
  0
LINE
  5
6A92
330
1A
100
AcDbEntity
  8
210
 62
     4
100
AcDbLine
 10
458.6631053542228
 20
203.679446164754
 30
0.0
 11
514.8207161534969
 21
203.679446164754
 31
0.0
  0
LINE
  5
6A93
330
1A
100
AcDbEntity
  8
210
 62
     4
100
AcDbLine
 10
469.1630753542228
 20
328.6794461647541
 30
0.0
 11
514.8207161534969
 21
328.6794461647541
 31
0.0
  0
LINE
  5
6A94
330
1A
100
AcDbEntity
  8
210
 62
     4
100
AcDbLine
 10
512.320716153497
 20
205.879446164754
 30
0.0
 11
512.320716153497
 21
326.4794461647541
 31
0.0
  0
INSERT
  5
6A95
330
1A
100
AcDbEntity
  8
210
 62
     4
100
AcDbBlockReference
  2
_OPEN30
 10
512.320716153497
 20
203.679446164754
 30
0.0
 41
2.2
 42
2.2
 43
2.2
 50
270.0
  0
INSERT
  5
6A96
330
1A
100
AcDbEntity
  8
210
 62
     4
100
AcDbBlockReference
  2
_OPEN30
 10
512.320716153497
 20
328.6794461647541
 30
0.0
 41
2.2
 42
2.2
 43
2.2
 50
90.0
  0
MTEXT
  5
6A97
330
1A
100
AcDbEntity
  8
210
 62
     4
100
AcDbMText
 10
507.8207161534969
 20
266.1794461647541
 30
0.0
 40
5.0
 41
0.0
 71
     5
 72
     1
  1
\A1;125
 11
0.0000000000000001
 21
1.0
 31
0.0
1001
ACAD
1000
MTEXTBEGIN
1070
    73
1070
     1
1070
    44
1040
1.0
1070
    74
1070
     0
1000
MTEXTEND
1000
MTEXTBEGIN
1070
    73
1070
     1
1070
    44
1040
1.0
1070
    74
1070
     0
1000
MTEXTEND
1000
MTEXTBEGIN
1070
    73
1070
     1
1070
    44
1040
1.0
1070
    74
1070
     0
1000
MTEXTEND
  0
ARC
  5
6A98
330
1A
100
AcDbEntity
  8
150
  6
HIDDEN2
 62
     7
100
AcDbCircle
 10
245.1005753542228
 20
526.6231411647541
 30
0.0
 40
1.0
100
AcDbArc
 50
149.9999999999994
 51
180.0000029999993
  0
LINE
  5
6A9A
330
1A
100
AcDbEntity
  8
150
  6
CONTINUOUS
100
AcDbLine
 10
244.2345499504384
 20
527.1231411647542
 30
0.0
 11
258.8005873542229
 21
527.1231411647542
 31
0.0
  0
ARC
  5
6A9B
330
1A
100
AcDbEntity
  8
0
  6
CONTINUOUS
 62
     2
100
AcDbCircle
 10
245.1005753367695
 20
423.6231101647541
 30
0.0
 40
1.0
100
AcDbArc
 50
210.0000000000004
 51
270.0000009999997
  0
LINE
  5
6A9C
330
1A
100
AcDbEntity
  8
0
  6
CONTINUOUS
 62
     2
100
AcDbLine
 10
244.234549932985
 20
423.1231101647541
 30
0.0
 11
237.1005753542228
 21
423.1231101647541
 31
0.0
  0
LINE
  5
6A9D
330
1A
100
AcDbEntity
  8
150
  6
HIDDEN2
100
AcDbLine
 10
309.1005753542228
 20
480.123110164754
 30
0.0
 11
309.1005753542228
 21
470.123110164754
 31
0.0
  0
CIRCLE
  5
6A9E
330
1A
100
AcDbEntity
  8
10
100
AcDbCircle
 10
219.6005443542228
 20
497.623080164754
 30
0.0
 40
3.0
  0
CIRCLE
  5
6A9F
330
1A
100
AcDbEntity
  8
10
100
AcDbCircle
 10
433.6006053542227
 20
452.6230801647541
 30
0.0
 40
3.0
  0
TEXT
  5
6AA0
330
1A
100
AcDbEntity
  8
230
  6
CONTINUOUS
 62
     6
100
AcDbText
 10
480.021735884247
 20
289.0339022522016
 30
0.0
 40
5.0
  1
端子カバー
100
AcDbText
  0
LINE
  5
6AA1
330
1A
100
AcDbEntity
  8
230
  6
CONTINUOUS
 62
     6
100
AcDbLine
 10
476.8920432599688
 20
287.2881743906933
 30
0.0
 11
509.3179095360539
 21
287.2881743906933
 31
0.0
  0
LINE
  5
6AA2
330
1A
100
AcDbEntity
  8
230
  6
CONTINUOUS
 62
     6
100
AcDbLine
 10
464.6005673542236
 20
265.9987136219344
 30
0.0
 11
476.8920432599688
 21
287.2881743906933
 31
0.0
  0
LINE
  5
6AA3
330
1A
100
AcDbEntity
  8
230
  6
CONTINUOUS
 62
     6
100
AcDbLine
 10
464.6005673542236
 20
265.9987136219344
 30
0.0
 11
465.2979060967719
 21
267.8732057352429
 31
0.0
  0
LINE
  5
6AA4
330
1A
100
AcDbEntity
  8
230
  6
CONTINUOUS
 62
     6
100
AcDbLine
 10
464.6005673542236
 20
265.9987136219344
 30
0.0
 11
465.8752564252093
 21
267.5398719256416
 31
0.0
  0
LINE
  5
6AA5
330
1A
100
AcDbEntity
  8
230
  6
CONTINUOUS
100
AcDbLine
 10
444.6792112445187
 20
335.5166096296826
 30
0.0
 11
499.5057831031423
 21
335.5166096296826
 31
0.0
  0
LINE
  5
6AA6
330
1A
100
AcDbEntity
  8
230
  6
CONTINUOUS
 62
     6
100
AcDbLine
 10
402.6844021844081
 20
262.779452164754
 30
0.0
 11
444.6792112445187
 21
335.5166096296826
 31
0.0
  0
TEXT
  5
6AA7
330
1A
100
AcDbEntity
  8
230
  6
CONTINUOUS
 62
     6
100
AcDbText
 10
452.7627797287755
 20
344.0215846296826
 30
0.0
 40
5.0
  1
負荷側接続ねじ
100
AcDbText
  0
TEXT
  5
6AA8
330
1A
100
AcDbEntity
  8
230
  6
CONTINUOUS
 62
     6
100
AcDbText
 10
452.4286738261781
 20
337.3405536296826
 30
0.0
 40
5.0
  1
六角穴付　M8
100
AcDbText
  0
LINE
  5
6AA9
330
1A
100
AcDbEntity
  8
230
  6
CONTINUOUS
 62
     6
100
AcDbLine
 10
402.6844021844081
 20
262.779452164754
 30
0.0
 11
403.959090324566
 21
264.3206109211039
 31
0.0
  0
LINE
  5
6AAA
330
1A
100
AcDbEntity
  8
230
  6
CONTINUOUS
 62
     6
100
AcDbLine
 10
402.6844021844081
 20
262.779452164754
 30
0.0
 11
403.3817401827521
 21
264.6539444812469
 31
0.0
  0
LINE
  5
6AAB
330
1A
100
AcDbEntity
  8
150
  6
HIDDEN2
100
AcDbLine
 10
440.6005753542226
 20
217.6794460600338
 30
0.0
 11
426.6005753542226
 21
217.6794460600338
 31
0.0
  0
LINE
  5
6AAC
330
1A
100
AcDbEntity
  8
150
  6
HIDDEN2
100
AcDbLine
 10
440.1005753542226
 20
218.6794460600338
 30
0.0
 11
427.1005753542226
 21
218.6794460600338
 31
0.0
  0
LINE
  5
6AAD
330
1A
100
AcDbEntity
  8
150
  6
HIDDEN2
100
AcDbLine
 10
440.1005753542226
 20
217.6794460600338
 30
0.0
 11
440.1005753542226
 21
218.6794460600338
 31
0.0
  0
LINE
  5
6AAE
330
1A
100
AcDbEntity
  8
225
  6
CENTER
 62
     3
100
AcDbLine
 10
433.6005753542226
 20
229.6794460600338
 30
0.0
 11
433.6005753542225
 21
190.6794460600338
 31
0.0
  0
LINE
  5
6AAF
330
1A
100
AcDbEntity
  8
150
  6
DASHED
100
AcDbLine
 10
436.6005753542226
 20
217.6794460600338
 30
0.0
 11
436.6005753542225
 21
195.7209500600338
 31
0.0
  0
LINE
  5
6AB0
330
1A
100
AcDbEntity
  8
150
  6
DASHED
100
AcDbLine
 10
436.0590713542226
 20
217.6794460600338
 30
0.0
 11
436.0590713542225
 21
195.1794460600338
 31
0.0
  0
LINE
  5
6AB1
330
1A
100
AcDbEntity
  8
150
  6
HIDDEN2
100
AcDbLine
 10
439.7005813542228
 20
218.6794460600338
 30
0.0
 11
439.7005813542228
 21
220.1794460600338
 31
0.0
  0
LINE
  5
6AB2
330
1A
100
AcDbEntity
  8
150
  6
HIDDEN2
100
AcDbLine
 10
438.8505753542226
 20
220.1794460600338
 30
0.0
 11
438.6899613542227
 21
222.0151390600338
 31
0.0
  0
LINE
  5
6AB3
330
1A
100
AcDbEntity
  8
150
  6
HIDDEN2
100
AcDbLine
 10
427.1005753542226
 20
217.6794460600338
 30
0.0
 11
427.1005753542226
 21
218.6794460600338
 31
0.0
  0
LINE
  5
6AB4
330
1A
100
AcDbEntity
  8
150
  6
HIDDEN2
100
AcDbLine
 10
427.5005693542227
 20
218.6794460600338
 30
0.0
 11
427.5005693542227
 21
220.1794460600338
 31
0.0
  0
LINE
  5
6AB5
330
1A
100
AcDbEntity
  8
150
  6
HIDDEN2
100
AcDbLine
 10
428.3505753542226
 20
220.1794460600338
 30
0.0
 11
428.5111593542227
 21
222.0151390600338
 31
0.0
  0
LINE
  5
6AB6
330
1A
100
AcDbEntity
  8
150
  6
HIDDEN2
100
AcDbLine
 10
426.6005753542226
 20
223.6794460600338
 30
0.0
 11
426.6005753542226
 21
217.6794460600338
 31
0.0
  0
LWPOLYLINE
  5
6AB7
330
1A
100
AcDbEntity
  8
10
  6
HIDDEN2
100
AcDbPolyline
 90
        4
 70
     1
 43
0.0
 10
436.6005753542226
 20
198.6794460600338
 10
430.6005753542225
 20
198.6794460600338
 10
430.6005753542226
 20
217.6794460600338
 10
436.6005753542226
 20
217.6794460600338
  0
LINE
  5
6AB8
330
1A
100
AcDbEntity
  8
150
  6
DASHED
100
AcDbLine
 10
430.6005753542226
 20
217.6794460600338
 30
0.0
 11
430.6005753542225
 21
195.7209500600339
 31
0.0
  0
LINE
  5
6AB9
330
1A
100
AcDbEntity
  8
150
  6
DASHED
100
AcDbLine
 10
431.1420793542226
 20
217.6794460600338
 30
0.0
 11
431.1420793542225
 21
195.1794460600338
 31
0.0
  0
LINE
  5
6ABA
330
1A
100
AcDbEntity
  8
150
  6
HIDDEN2
100
AcDbLine
 10
433.6005753542226
 20
218.6794460600338
 30
0.0
 11
434.3505753542226
 21
220.1794460600338
 31
0.0
  0
LINE
  5
6ABB
330
1A
100
AcDbEntity
  8
150
  6
HIDDEN2
100
AcDbLine
 10
432.8505753542226
 20
218.6794460600338
 30
0.0
 11
433.6005753542226
 21
220.1794460600338
 31
0.0
  0
LINE
  5
6ABC
330
1A
100
AcDbEntity
  8
150
  6
HIDDEN2
100
AcDbLine
 10
439.7005813542228
 20
220.1794460600338
 30
0.0
 11
427.5005693542227
 21
220.1794460600338
 31
0.0
  0
ARC
  5
6ABD
330
1A
100
AcDbEntity
  8
150
  6
HIDDEN2
100
AcDbCircle
 10
440.6005753542226
 20
216.6794460600338
 30
0.0
 40
1.0
100
AcDbArc
 50
359.9999970000021
 51
89.99999999999978
  0
ARC
  5
6ABE
330
1A
100
AcDbEntity
  8
150
  6
HIDDEN2
100
AcDbCircle
 10
436.7972113542225
 20
221.8495420600339
 30
0.0
 40
1.9
100
AcDbArc
 50
4.999913000002027
 51
74.68147499999894
  0
ARC
  5
6ABF
330
1A
100
AcDbEntity
  8
150
  6
HIDDEN2
100
AcDbCircle
 10
433.6005703542228
 20
210.1794390600338
 30
0.0
 40
14.0
100
AcDbArc
 50
74.68154700000181
 51
105.3185250000006
  0
ARC
  5
6AC0
330
1A
100
AcDbEntity
  8
150
  6
HIDDEN2
100
AcDbCircle
 10
430.4039393542227
 20
221.8495420600339
 30
0.0
 40
1.9
100
AcDbArc
 50
105.3185250000006
 51
175.0000869999975
  0
ARC
  5
6AC1
330
1A
100
AcDbEntity
  8
150
  6
HIDDEN2
100
AcDbCircle
 10
425.6005753542226
 20
223.6794460600339
 30
0.0
 40
1.0
100
AcDbArc
 50
359.9999970000021
 51
89.99999999999978
  0
LINE
  5
6AC2
330
1A
100
AcDbEntity
  8
150
  6
DASHED
100
AcDbLine
 10
430.6005753542225
 20
195.7209500600339
 30
0.0
 11
431.1420793542225
 21
195.1794460600338
 31
0.0
  0
LINE
  5
6AC3
330
1A
100
AcDbEntity
  8
150
  6
DASHED
100
AcDbLine
 10
436.6005753542225
 20
195.7209500600338
 30
0.0
 11
436.0590713542225
 21
195.1794460600338
 31
0.0
  0
LINE
  5
6AC4
330
1A
100
AcDbEntity
  8
150
  6
DASHED
100
AcDbLine
 10
436.0590713542225
 20
195.1794460600338
 30
0.0
 11
431.1420793542225
 21
195.1794460600338
 31
0.0
  0
LINE
  5
6AC5
330
1A
100
AcDbEntity
  8
150
  6
DASHED
100
AcDbLine
 10
436.6005753542225
 20
195.7209500600338
 30
0.0
 11
430.6005753542225
 21
195.7209500600339
 31
0.0
  0
LWPOLYLINE
  5
6AD2
330
1A
100
AcDbEntity
  8
230
 62
     6
100
AcDbPolyline
 90
        4
 70
     1
 43
0.0
 10
748.057129839161
 20
83.33950888153152
 10
837.5401344923771
 20
83.33950888153152
 10
837.5401344923771
 20
100.6208271123618
 10
748.057129839161
 20
100.6208271123618
  0
TEXT
  5
6AD3
330
1A
100
AcDbEntity
  8
230
 62
     6
100
AcDbText
 10
761.2947936724253
 20
87.18862888153138
 30
0.0
 40
10.0
  1
XDI3H
100
AcDbText
  0
LINE
  5
6B0C
330
1A
100
AcDbEntity
  8
150
  6
CONTINUOUS
100
AcDbLine
 10
254.1005443542228
 20
323.079440164754
 30
0.0
 11
249.1005443542228
 21
323.079440164754
 31
0.0
  0
ARC
  5
6B0D
330
1A
100
AcDbEntity
  8
170
  6
PHANTOM2
 62
     1
100
AcDbCircle
 10
885.3508107677004
 20
528.1231101647541
 30
0.0
 40
7.0
100
AcDbArc
 50
0.0
 51
90.00000299999769
  0
ARC
  5
6B0E
330
1A
100
AcDbEntity
  8
170
  6
PHANTOM2
 62
     1
100
AcDbCircle
 10
669.3508107677001
 20
528.1231101647541
 30
0.0
 40
7.0
100
AcDbArc
 50
89.9999970000023
 51
180.0
  0
ARC
  5
6B0F
330
1A
100
AcDbEntity
  8
170
  6
PHANTOM2
 62
     1
100
AcDbCircle
 10
885.3508107677004
 20
422.123079164754
 30
0.0
 40
7.0
100
AcDbArc
 50
269.9999970000023
 51
0.0
  0
ARC
  5
6B10
330
1A
100
AcDbEntity
  8
170
  6
PHANTOM2
 62
     1
100
AcDbCircle
 10
669.3508107677001
 20
422.123079164754
 30
0.0
 40
7.0
100
AcDbArc
 50
180.0
 51
270.0000029999977
  0
ENDSEC
  0
SECTION
  2
OBJECTS
  0
DICTIONARY
  5
C
330
0
100
AcDbDictionary
  3
ACAD_GROUP
350
D
  3
ACAD_LAYOUT
350
1B83
  3
ACAD_MLINESTYLE
350
E
  3
ACAD_PLOTSETTINGS
350
1B84
  3
ACAD_PLOTSTYLENAME
350
1B81
  3
ACDBHEADERROUNDTRIPXREC
350
6B6B
  3
ACDBVARIABLEDICTIONARY
350
E7A
  0
DICTIONARY
  5
1BF7
330
1A
100
AcDbDictionary
280
     1
  3
ACAD_LAYOUTSELFREF
360
6B8D
  0
DICTIONARY
  5
1BF5
330
17
100
AcDbDictionary
280
     1
  3
ACAD_LAYOUTSELFREF
360
6B8C
  0
DICTIONARY
  5
D
102
{ACAD_REACTORS
330
C
102
}
330
C
100
AcDbDictionary
  0
DICTIONARY
  5
1B83
102
{ACAD_REACTORS
330
C
102
}
330
C
100
AcDbDictionary
  0
DICTIONARY
  5
E
102
{ACAD_REACTORS
330
C
102
}
330
C
100
AcDbDictionary
  3
STANDARD
350
13
  0
DICTIONARY
  5
1B84
102
{ACAD_REACTORS
330
C
102
}
330
C
100
AcDbDictionary
  0
ACDBDICTIONARYWDFLT
  5
1B81
102
{ACAD_REACTORS
330
C
102
}
330
C
100
AcDbDictionary
281
     1
  3
Normal
350
1B82
100
AcDbDictionaryWithDefault
340
1B82
  0
DICTIONARY
  5
6B6B
102
{ACAD_REACTORS
330
C
102
}
330
C
100
AcDbDictionary
  3
CEPSNTYPE
350
6B75
  3
DIMSTYLEDATA
350
6B79
  3
FINGERPRINTGUID
350
6B76
  3
HYPERLINKBASE
350
6B6E
  3
INSUNITS
350
6B74
  3
LAYOUTDICT
350
6B70
  3
LWETCUNION
350
6B73
  3
PLOTSETDICT
350
6B71
  3
PLOTSTYLNAMDICT
350
6B72
  3
PSVPSCALE
350
6B78
  3
PUCSBASE
350
6B7C
  3
PUCSORGBACK
350
6B82
  3
PUCSORGBOTTOM
350
6B7E
  3
PUCSORGFRONT
350
6B81
  3
PUCSORGLEFT
350
6B7F
  3
PUCSORGRIGHT
350
6B80
  3
PUCSORGTOP
350
6B7D
  3
PUCSORTHOREF
350
6B7A
  3
PUCSORTHOVIEW
350
6B7B
  3
STYLESHEET
350
6B6F
  3
TSTACKALIGN
350
6B6C
  3
TSTACKSIZE
350
6B6D
  3
UCSBASE
350
6B85
  3
UCSORGBACK
350
6B8B
  3
UCSORGBOTTOM
350
6B87
  3
UCSORGFRONT
350
6B8A
  3
UCSORGLEFT
350
6B88
  3
UCSORGRIGHT
350
6B89
  3
UCSORGTOP
350
6B86
  3
UCSORTHOREF
350
6B83
  3
UCSORTHOVIEW
350
6B84
  3
VERSIONGUID
350
6B77
  0
DICTIONARY
  5
E7A
102
{ACAD_REACTORS
330
C
102
}
330
C
100
AcDbDictionary
  3
SORTENTS
350
E7B
  0
XRECORD
  5
6B8D
102
{ACAD_REACTORS
330
1BF7
102
}
330
1BF7
100
AcDbXrecord
340
1A
  0
XRECORD
  5
6B8C
102
{ACAD_REACTORS
330
1BF5
102
}
330
1BF5
100
AcDbXrecord
340
17
  0
MLINESTYLE
  5
13
102
{ACAD_REACTORS
330
E
102
}
330
E
100
AcDbMlineStyle
  2
STANDARD
 70
     0
  3

 62
     0
 51
90.0
 52
90.0
 71
     2
 49
0.5
 62
   256
  6
BYLAYER
 49
-0.5
 62
   256
  6
BYLAYER
  0
ACDBPLACEHOLDER
  5
1B82
102
{ACAD_REACTORS
330
1B81
102
}
330
1B81
100
AcDbPlaceHolder
280
     0
  0
XRECORD
  5
6B75
102
{ACAD_REACTORS
330
6B6B
102
}
330
6B6B
100
AcDbXrecord
 90
        0
  0
XRECORD
  5
6B79
102
{ACAD_REACTORS
330
6B6B
102
}
330
6B6B
100
AcDbXrecord
1000
DSTYLE
1002
{
1070
   341
340
3A8D
1070
   342
340
3A8D
1002
}
  0
XRECORD
  5
6B76
102
{ACAD_REACTORS
330
6B6B
102
}
330
6B6B
100
AcDbXrecord
  1
{D592FCE0-8350-11D5-ACAE-009099148E29}
  0
XRECORD
  5
6B6E
102
{ACAD_REACTORS
330
6B6B
102
}
330
6B6B
100
AcDbXrecord
  1

  0
XRECORD
  5
6B74
102
{ACAD_REACTORS
330
6B6B
102
}
330
6B6B
100
AcDbXrecord
 90
        0
  0
XRECORD
  5
6B70
102
{ACAD_REACTORS
330
6B6B
102
}
330
6B6B
100
AcDbXrecord
340
1B83
  0
XRECORD
  5
6B73
102
{ACAD_REACTORS
330
6B6B
102
}
330
6B6B
100
AcDbXrecord
 90
    10781
  0
XRECORD
  5
6B71
102
{ACAD_REACTORS
330
6B6B
102
}
330
6B6B
100
AcDbXrecord
340
1B84
  0
XRECORD
  5
6B72
102
{ACAD_REACTORS
330
6B6B
102
}
330
6B6B
100
AcDbXrecord
340
1B81
  0
XRECORD
  5
6B78
102
{ACAD_REACTORS
330
6B6B
102
}
330
6B6B
100
AcDbXrecord
 40
0.0
  0
XRECORD
  5
6B7C
102
{ACAD_REACTORS
330
6B6B
102
}
330
6B6B
100
AcDbXrecord
340
0
  0
XRECORD
  5
6B82
102
{ACAD_REACTORS
330
6B6B
102
}
330
6B6B
100
AcDbXrecord
 10
0.0
 20
0.0
 30
0.0
  0
XRECORD
  5
6B7E
102
{ACAD_REACTORS
330
6B6B
102
}
330
6B6B
100
AcDbXrecord
 10
0.0
 20
0.0
 30
0.0
  0
XRECORD
  5
6B81
102
{ACAD_REACTORS
330
6B6B
102
}
330
6B6B
100
AcDbXrecord
 10
0.0
 20
0.0
 30
0.0
  0
XRECORD
  5
6B7F
102
{ACAD_REACTORS
330
6B6B
102
}
330
6B6B
100
AcDbXrecord
 10
0.0
 20
0.0
 30
0.0
  0
XRECORD
  5
6B80
102
{ACAD_REACTORS
330
6B6B
102
}
330
6B6B
100
AcDbXrecord
 10
0.0
 20
0.0
 30
0.0
  0
XRECORD
  5
6B7D
102
{ACAD_REACTORS
330
6B6B
102
}
330
6B6B
100
AcDbXrecord
 10
0.0
 20
0.0
 30
0.0
  0
XRECORD
  5
6B7A
102
{ACAD_REACTORS
330
6B6B
102
}
330
6B6B
100
AcDbXrecord
340
0
  0
XRECORD
  5
6B7B
102
{ACAD_REACTORS
330
6B6B
102
}
330
6B6B
100
AcDbXrecord
 70
     0
  0
XRECORD
  5
6B6F
102
{ACAD_REACTORS
330
6B6B
102
}
330
6B6B
100
AcDbXrecord
  1
機械図面設定（みずいろ細線）.ctb
  0
XRECORD
  5
6B6C
102
{ACAD_REACTORS
330
6B6B
102
}
330
6B6B
100
AcDbXrecord
 90
        1
  0
XRECORD
  5
6B6D
102
{ACAD_REACTORS
330
6B6B
102
}
330
6B6B
100
AcDbXrecord
 90
       70
  0
XRECORD
  5
6B85
102
{ACAD_REACTORS
330
6B6B
102
}
330
6B6B
100
AcDbXrecord
340
0
  0
XRECORD
  5
6B8B
102
{ACAD_REACTORS
330
6B6B
102
}
330
6B6B
100
AcDbXrecord
 10
0.0
 20
0.0
 30
0.0
  0
XRECORD
  5
6B87
102
{ACAD_REACTORS
330
6B6B
102
}
330
6B6B
100
AcDbXrecord
 10
0.0
 20
0.0
 30
0.0
  0
XRECORD
  5
6B8A
102
{ACAD_REACTORS
330
6B6B
102
}
330
6B6B
100
AcDbXrecord
 10
0.0
 20
0.0
 30
0.0
  0
XRECORD
  5
6B88
102
{ACAD_REACTORS
330
6B6B
102
}
330
6B6B
100
AcDbXrecord
 10
0.0
 20
0.0
 30
0.0
  0
XRECORD
  5
6B89
102
{ACAD_REACTORS
330
6B6B
102
}
330
6B6B
100
AcDbXrecord
 10
0.0
 20
0.0
 30
0.0
  0
XRECORD
  5
6B86
102
{ACAD_REACTORS
330
6B6B
102
}
330
6B6B
100
AcDbXrecord
 10
0.0
 20
0.0
 30
0.0
  0
XRECORD
  5
6B83
102
{ACAD_REACTORS
330
6B6B
102
}
330
6B6B
100
AcDbXrecord
340
0
  0
XRECORD
  5
6B84
102
{ACAD_REACTORS
330
6B6B
102
}
330
6B6B
100
AcDbXrecord
 70
     0
  0
XRECORD
  5
6B77
102
{ACAD_REACTORS
330
6B6B
102
}
330
6B6B
100
AcDbXrecord
  1
{8C8829F0-97E0-11D5-A38A-00B0D0356B67}
  0
DICTIONARYVAR
  5
E7B
102
{ACAD_REACTORS
330
E7A
102
}
330
E7A
100
DictionaryVariables
280
     0
  1
96
  0
ENDSEC
  0
EOF
