  0
SECTION
  2
HEADER
  9
$ACADVER
  1
AC1014
  9
$ACADMAINTVER
 70
     9
  9
$DWGCODEPAGE
  3
ANSI_932
  9
$INSBASE
 10
0.0
 20
0.0
 30
0.0
  9
$EXTMIN
 10
133.4340916429878
 20
49.69190719245102
 30
-0.0015258207003583
  9
$EXTMAX
 10
932.5019584122243
 20
553.1093975836027
 30
0.0000000349246037
  9
$LIMMIN
 10
0.0
 20
0.0
  9
$LIMMAX
 10
554.0
 20
395.0
  9
$ORTHOMODE
 70
     1
  9
$REGENMODE
 70
     1
  9
$FILLMODE
 70
     1
  9
$QTEXTMODE
 70
     0
  9
$MIRRTEXT
 70
     0
  9
$DRAGMODE
 70
     2
  9
$LTSCALE
 40
12.0
  9
$OSMODE
 70
    37
  9
$ATTMODE
 70
     1
  9
$TEXTSIZE
 40
3.0
  9
$TRACEWID
 40
0.05
  9
$TEXTSTYLE
  7
KANJI
  9
$CLAYER
  8
10
  9
$CELTYPE
  6
HIDDEN2
  9
$CECOLOR
 62
   256
  9
$CELTSCALE
 40
1.0
  9
$DELOBJ
 70
     1
  9
$DISPSILH
 70
     0
  9
$DIMSCALE
 40
1.0
  9
$DIMASZ
 40
2.2
  9
$DIMEXO
 40
0.0625
  9
$DIMDLI
 40
0.38
  9
$DIMRND
 40
0.05
  9
$DIMDLE
 40
0.0
  9
$DIMEXE
 40
2.5
  9
$DIMTP
 40
0.0
  9
$DIMTM
 40
0.0
  9
$DIMTXT
 40
5.0
  9
$DIMCEN
 40
0.09
  9
$DIMTSZ
 40
0.0
  9
$DIMTOL
 70
     0
  9
$DIMLIM
 70
     0
  9
$DIMTIH
 70
     0
  9
$DIMTOH
 70
     0
  9
$DIMSE1
 70
     0
  9
$DIMSE2
 70
     0
  9
$DIMTAD
 70
     1
  9
$DIMZIN
 70
     0
  9
$DIMBLK
  1
OPEN30
  9
$DIMASO
 70
     1
  9
$DIMSHO
 70
     1
  9
$DIMPOST
  1

  9
$DIMAPOST
  1

  9
$DIMALT
 70
     0
  9
$DIMALTD
 70
     2
  9
$DIMALTF
 40
25.4
  9
$DIMLFAC
 40
1.0
  9
$DIMTOFL
 70
     0
  9
$DIMTVP
 40
0.0
  9
$DIMTIX
 70
     0
  9
$DIMSOXD
 70
     0
  9
$DIMSAH
 70
     0
  9
$DIMBLK1
  1

  9
$DIMBLK2
  1

  9
$DIMSTYLE
  2
STANDARD
  9
$DIMCLRD
 70
     4
  9
$DIMCLRE
 70
     4
  9
$DIMCLRT
 70
     4
  9
$DIMTFAC
 40
1.0
  9
$DIMGAP
 40
2.0
  9
$DIMJUST
 70
     0
  9
$DIMSD1
 70
     0
  9
$DIMSD2
 70
     0
  9
$DIMTOLJ
 70
     1
  9
$DIMTZIN
 70
     0
  9
$DIMALTZ
 70
     0
  9
$DIMALTTZ
 70
     0
  9
$DIMFIT
 70
     3
  9
$DIMUPT
 70
     0
  9
$DIMUNIT
 70
     2
  9
$DIMDEC
 70
     0
  9
$DIMTDEC
 70
     0
  9
$DIMALTU
 70
     2
  9
$DIMALTTD
 70
     2
  9
$DIMTXSTY
  7
STANDARD
  9
$DIMAUNIT
 70
     0
  9
$LUNITS
 70
     2
  9
$LUPREC
 70
     4
  9
$SKETCHINC
 40
0.1
  9
$FILLETRAD
 40
0.0
  9
$AUNITS
 70
     0
  9
$AUPREC
 70
     0
  9
$MENU
  1
C:\Tcad\TCAD\tcad-s
  9
$ELEVATION
 40
0.0
  9
$PELEVATION
 40
0.0
  9
$THICKNESS
 40
0.0
  9
$LIMCHECK
 70
     0
  9
$BLIPMODE
 70
     0
  9
$CHAMFERA
 40
0.0
  9
$CHAMFERB
 40
0.0
  9
$CHAMFERC
 40
0.0
  9
$CHAMFERD
 40
0.0
  9
$SKPOLY
 70
     0
  9
$TDCREATE
 40
2450752.336623958
  9
$TDUPDATE
 40
2452145.669541666
  9
$TDINDWG
 40
0.4832284722
  9
$TDUSRTIMER
 40
0.4832284722
  9
$USRTIMER
 70
     1
  9
$ANGBASE
 50
0.0
  9
$ANGDIR
 70
     0
  9
$PDMODE
 70
    35
  9
$PDSIZE
 40
23.99999999999998
  9
$PLINEWID
 40
0.0
  9
$COORDS
 70
     1
  9
$SPLFRAME
 70
     0
  9
$SPLINETYPE
 70
     6
  9
$SPLINESEGS
 70
     8
  9
$ATTDIA
 70
     0
  9
$ATTREQ
 70
     1
  9
$HANDLING
 70
-16383
  9
$HANDSEED
  5
451A
  9
$SURFTAB1
 70
     6
  9
$SURFTAB2
 70
     6
  9
$SURFTYPE
 70
     6
  9
$SURFU
 70
     6
  9
$SURFV
 70
     6
  9
$UCSNAME
  2

  9
$UCSORG
 10
0.0
 20
0.0
 30
0.0
  9
$UCSXDIR
 10
1.0
 20
0.0
 30
0.0
  9
$UCSYDIR
 10
0.0
 20
1.0
 30
0.0
  9
$PUCSNAME
  2

  9
$PUCSORG
 10
0.0
 20
0.0
 30
0.0
  9
$PUCSXDIR
 10
1.0
 20
0.0
 30
0.0
  9
$PUCSYDIR
 10
0.0
 20
1.0
 30
0.0
  9
$USERI1
 70
     0
  9
$USERI2
 70
     0
  9
$USERI3
 70
     0
  9
$USERI4
 70
     0
  9
$USERI5
 70
     0
  9
$USERR1
 40
0.0
  9
$USERR2
 40
0.0
  9
$USERR3
 40
0.0
  9
$USERR4
 40
0.0
  9
$USERR5
 40
0.0
  9
$WORLDVIEW
 70
     1
  9
$SHADEDGE
 70
     3
  9
$SHADEDIF
 70
    70
  9
$TILEMODE
 70
     1
  9
$MAXACTVP
 70
    16
  9
$PINSBASE
 10
0.0
 20
0.0
 30
0.0
  9
$PLIMCHECK
 70
     0
  9
$PEXTMIN
 10
1.000000000000000E+20
 20
1.000000000000000E+20
 30
1.000000000000000E+20
  9
$PEXTMAX
 10
-1.000000000000000E+20
 20
-1.000000000000000E+20
 30
-1.000000000000000E+20
  9
$PLIMMIN
 10
0.0
 20
0.0
  9
$PLIMMAX
 10
12.0
 20
9.0
  9
$UNITMODE
 70
     0
  9
$VISRETAIN
 70
     0
  9
$PLINEGEN
 70
     0
  9
$PSLTSCALE
 70
     1
  9
$TREEDEPTH
 70
  3020
  9
$PICKSTYLE
 70
     1
  9
$CMLSTYLE
  2
STANDARD
  9
$CMLJUST
 70
     0
  9
$CMLSCALE
 40
1.0
  9
$PROXYGRAPHICS
 70
     1
  9
$MEASUREMENT
 70
     0
  0
ENDSEC
  0
SECTION
  2
CLASSES
  0
CLASS
  1
LWPOLYLINE
  2
AcDbPolyline
  3
AutoCAD 2000
 90
        0
280
     0
281
     1
  0
CLASS
  1
DICTIONARYVAR
  2
AcDbDictionaryVar
  3
AutoCAD 2000
 90
        0
280
     0
281
     0
  0
CLASS
  1
HATCH
  2
AcDbHatch
  3
AutoCAD 2000
 90
        0
280
     0
281
     1
  0
CLASS
  1
ACDBDICTIONARYWDFLT
  2
AcDbDictionaryWithDefault
  3
AutoCAD 2000
 90
        0
280
     0
281
     0
  0
CLASS
  1
ACDBPLACEHOLDER
  2
AcDbPlaceHolder
  3
AutoCAD 2000
 90
        0
280
     0
281
     0
  0
CLASS
  1
LAYOUT
  2
AcDbLayout
  3
AutoCAD 2000
 90
        0
280
     0
281
     0
  0
CLASS
  1
LONG_TRANSACTION
  2
AcDbLongTransaction
  3
AutoCAD 2000
 90
        0
280
     0
281
     0
  0
CLASS
  1
LWPOLYLINE
  2
AcDbPolyline
  3
AutoCAD 2000
 90
        0
280
     0
281
     1
  0
CLASS
  1
HATCH
  2
AcDbHatch
  3
AutoCAD 2000
 90
        0
280
     0
281
     1
  0
CLASS
  1
XRECORD
  2
AcDbXrecord
  3
AutoCAD 2000
 90
        0
280
     0
281
     0
  0
CLASS
  1
LONG_TRANSACTION
  2
AcDbLongTransaction
  3
AutoCAD 2000
 90
        0
280
     0
281
     0
  0
CLASS
  1
LWPOLYLINE
  2
AcDbPolyline
  3
AutoCAD 2000
 90
        0
280
     0
281
     1
  0
CLASS
  1
HATCH
  2
AcDbHatch
  3
AutoCAD 2000
 90
        0
280
     0
281
     1
  0
CLASS
  1
XRECORD
  2
AcDbXrecord
  3
AutoCAD 2000
 90
        0
280
     0
281
     0
  0
CLASS
  1
LONG_TRANSACTION
  2
AcDbLongTransaction
  3
AutoCAD 2000
 90
        0
280
     0
281
     0
  0
CLASS
  1
LWPOLYLINE
  2
AcDbPolyline
  3
AutoCAD 2000
 90
        0
280
     0
281
     1
  0
CLASS
  1
HATCH
  2
AcDbHatch
  3
AutoCAD 2000
 90
        0
280
     0
281
     1
  0
CLASS
  1
XRECORD
  2
AcDbXrecord
  3
AutoCAD 2000
 90
        0
280
     0
281
     0
  0
CLASS
  1
LONG_TRANSACTION
  2
AcDbLongTransaction
  3
AutoCAD 2000
 90
        0
280
     0
281
     0
  0
CLASS
  1
LWPOLYLINE
  2
AcDbPolyline
  3
AutoCAD 2000
 90
        0
280
     0
281
     1
  0
CLASS
  1
HATCH
  2
AcDbHatch
  3
AutoCAD 2000
 90
        0
280
     0
281
     1
  0
CLASS
  1
XRECORD
  2
AcDbXrecord
  3
AutoCAD 2000
 90
        0
280
     0
281
     0
  0
ENDSEC
  0
SECTION
  2
TABLES
  0
TABLE
  2
VPORT
  5
8
330
0
100
AcDbSymbolTable
 70
     2
  0
VPORT
  5
44F6
330
8
100
AcDbSymbolTableRecord
100
AcDbViewportTableRecord
  2
*ACTIVE
 70
     0
 10
0.0
 20
0.0
 11
1.0
 21
1.0
 12
466.2509792061121
 22
276.5546987918013
 13
0.0
 23
0.0
 14
1.0
 24
1.0
 15
0.0
 25
0.0
 16
0.0
 26
0.0
 36
1.0
 17
0.0
 27
0.0
 37
0.0
 40
559.6940332691217
 41
1.862823061630218
 42
50.0
 43
0.0
 44
0.0
 50
0.0
 51
0.0
 71
     0
 72
  1000
 73
     1
 74
     1
 75
     0
 76
     0
 77
     0
 78
     0
  0
ENDTAB
  0
TABLE
  2
LTYPE
  5
5
330
0
100
AcDbSymbolTable
 70
     5
  0
LTYPE
  5
14
330
5
100
AcDbSymbolTableRecord
100
AcDbLinetypeTableRecord
  2
BYBLOCK
 70
     0
  3

 72
    65
 73
     0
 40
0.0
  0
LTYPE
  5
15
330
5
100
AcDbSymbolTableRecord
100
AcDbLinetypeTableRecord
  2
BYLAYER
 70
     0
  3

 72
    65
 73
     0
 40
0.0
  0
LTYPE
  5
16
330
5
100
AcDbSymbolTableRecord
100
AcDbLinetypeTableRecord
  2
CONTINUOUS
 70
     0
  3
Solid line
 72
    65
 73
     0
 40
0.0
  0
LTYPE
  5
37
330
5
100
AcDbSymbolTableRecord
100
AcDbLinetypeTableRecord
  2
CENTER
 70
     0
  3
____ _ ____ _ ____ _ ____ _ ____ _ ____ _ ____ 
 72
    65
 73
     4
 40
2.0
 49
1.25
 74
     0
 49
-0.25
 74
     0
 49
0.25
 74
     0
 49
-0.25
 74
     0
  0
LTYPE
  5
1FC
330
5
100
AcDbSymbolTableRecord
100
AcDbLinetypeTableRecord
  2
HIDDEN2
 70
     0
  3
_ _ _ _ _ _ _ _ _ _ _ _ _ _ _ _ _ _ _ _ _ _ _ _
 72
    65
 73
     2
 40
0.1875
 49
0.125
 74
     0
 49
-0.0625
 74
     0
  0
LTYPE
  5
1FE
330
5
100
AcDbSymbolTableRecord
100
AcDbLinetypeTableRecord
  2
PHANTOM2
 70
     0
  3
___ _ _ ___ _ _ ___ _ _ ___ _ _ ___ _ _ ___ _ _
 72
    65
 73
     6
 40
1.25
 49
0.625
 74
     0
 49
-0.125
 74
     0
 49
0.125
 74
     0
 49
-0.125
 74
     0
 49
0.125
 74
     0
 49
-0.125
 74
     0
  0
LTYPE
  5
3E5
330
5
100
AcDbSymbolTableRecord
100
AcDbLinetypeTableRecord
  2
DASHED
 70
     0
  3
Dashed line
 72
    65
 73
     2
 40
0.75
 49
0.5
 74
     0
 49
-0.25
 74
     0
  0
ENDTAB
  0
TABLE
  2
LAYER
  5
2
330
0
100
AcDbSymbolTable
 70
     9
  0
LAYER
  5
F
330
2
100
AcDbSymbolTableRecord
100
AcDbLayerTableRecord
  2
0
 70
     0
 62
     2
  6
CONTINUOUS
  0
LAYER
  5
40
330
2
100
AcDbSymbolTableRecord
100
AcDbLayerTableRecord
  2
パターン
 70
     0
 62
     8
  6
CONTINUOUS
  0
LAYER
  5
3E7
330
2
100
AcDbSymbolTableRecord
100
AcDbLayerTableRecord
  2
210
 70
     0
 62
     4
  6
CONTINUOUS
  0
LAYER
  5
3E8
330
2
100
AcDbSymbolTableRecord
100
AcDbLayerTableRecord
  2
170
 70
     0
 62
     1
  6
CONTINUOUS
  0
LAYER
  5
3EA
330
2
100
AcDbSymbolTableRecord
100
AcDbLayerTableRecord
  2
150
 70
     0
 62
     7
  6
CONTINUOUS
  0
LAYER
  5
3EC
330
2
100
AcDbSymbolTableRecord
100
AcDbLayerTableRecord
  2
225
 70
     0
 62
     3
  6
CONTINUOUS
  0
LAYER
  5
3ED
330
2
100
AcDbSymbolTableRecord
100
AcDbLayerTableRecord
  2
230
 70
     0
 62
     6
  6
CONTINUOUS
  0
LAYER
  5
3EF
330
2
100
AcDbSymbolTableRecord
100
AcDbLayerTableRecord
  2
10
 70
     0
 62
     7
  6
CONTINUOUS
  0
LAYER
  5
3F0
330
2
100
AcDbSymbolTableRecord
100
AcDbLayerTableRecord
  2
DEFPOINTS
 70
     0
 62
     7
  6
CONTINUOUS
  0
ENDTAB
  0
TABLE
  2
STYLE
  5
3
330
0
100
AcDbSymbolTable
 70
     3
  0
STYLE
  5
10
330
3
100
AcDbSymbolTableRecord
100
AcDbTextStyleTableRecord
  2
STANDARD
 70
     0
 40
0.0
 41
1.0
 50
0.0
 71
     0
 42
30.0
  3
ROMANS
  4
BIGFONT
  0
STYLE
  5
108
330
3
100
AcDbSymbolTableRecord
100
AcDbTextStyleTableRecord
  2
KANJI
 70
     0
 40
0.0
 41
0.8
 50
0.0
 71
     0
 42
3.0
  3
romans
  4
bigfont
  0
STYLE
  5
3F1
330
3
100
AcDbSymbolTableRecord
100
AcDbTextStyleTableRecord
  2
BIGFONT
 70
     0
 40
0.0
 41
1.0
 50
0.0
 71
     0
 42
1.0
  3
txt.shx
  4
BIGFONT
  0
ENDTAB
  0
TABLE
  2
VIEW
  5
6
330
0
100
AcDbSymbolTable
 70
     0
  0
ENDTAB
  0
TABLE
  2
UCS
  5
7
330
0
100
AcDbSymbolTable
 70
     0
  0
ENDTAB
  0
TABLE
  2
APPID
  5
9
330
0
100
AcDbSymbolTable
 70
     1
  0
APPID
  5
11
330
9
100
AcDbSymbolTableRecord
100
AcDbRegAppTableRecord
  2
ACAD
 70
     0
  0
ENDTAB
  0
TABLE
  2
DIMSTYLE
  5
A
330
0
100
AcDbSymbolTable
 70
     1
  0
DIMSTYLE
105
1D
330
A
100
AcDbSymbolTableRecord
100
AcDbDimStyleTableRecord
  2
STANDARD
 70
     0
  3

  4

  5
OPEN30
  6

  7

 40
1.0
 41
2.2
 42
0.0625
 43
0.38
 44
2.5
 45
0.05
 46
0.0
 47
0.0
 48
0.0
140
5.0
141
0.09
142
0.0
143
25.4
144
1.0
145
0.0
146
1.0
147
2.0
 71
     0
 72
     0
 73
     0
 74
     0
 75
     0
 76
     0
 77
     1
 78
     0
170
     0
171
     2
172
     0
173
     0
174
     0
175
     0
176
     4
177
     4
178
     4
270
     2
271
     0
272
     0
273
     2
274
     2
340
10
275
     0
280
     0
281
     0
282
     0
283
     1
284
     0
285
     0
286
     0
287
     3
288
     0
  0
ENDTAB
  0
TABLE
  2
BLOCK_RECORD
  5
1
330
0
100
AcDbSymbolTable
 70
     2
  0
BLOCK_RECORD
  5
1A
102
{ACAD_XDICTIONARY
360
1BF7
102
}
330
1
100
AcDbSymbolTableRecord
100
AcDbBlockTableRecord
  2
*MODEL_SPACE
  0
BLOCK_RECORD
  5
17
102
{ACAD_XDICTIONARY
360
1BF5
102
}
330
1
100
AcDbSymbolTableRecord
100
AcDbBlockTableRecord
  2
*PAPER_SPACE
  0
BLOCK_RECORD
  5
32
330
1
100
AcDbSymbolTableRecord
100
AcDbBlockTableRecord
  2
TCAD
  0
BLOCK_RECORD
  5
3A8D
330
1
100
AcDbSymbolTableRecord
100
AcDbBlockTableRecord
  2
_OPEN30
  0
ENDTAB
  0
ENDSEC
  0
SECTION
  2
BLOCKS
  0
BLOCK
  5
1B
330
1A
100
AcDbEntity
  8
0
100
AcDbBlockBegin
  2
*MODEL_SPACE
 70
     0
 10
0.0
 20
0.0
 30
0.0
  3
*MODEL_SPACE
  1

  0
ENDBLK
  5
1C
330
1A
100
AcDbEntity
  8
0
100
AcDbBlockEnd
  0
BLOCK
  5
18
330
17
100
AcDbEntity
 67
     1
  8
0
100
AcDbBlockBegin
  2
*PAPER_SPACE
 70
     0
 10
0.0
 20
0.0
 30
0.0
  3
*PAPER_SPACE
  1

  0
ENDBLK
  5
19
330
17
100
AcDbEntity
 67
     1
  8
0
100
AcDbBlockEnd
  0
BLOCK
  5
33
330
32
100
AcDbEntity
  8
0
100
AcDbBlockBegin
  2
TCAD
 70
     0
 10
0.0
 20
0.0
 30
0.0
  3
TCAD
  1

  0
ENDBLK
  5
34
330
32
100
AcDbEntity
  8
0
100
AcDbBlockEnd
  0
BLOCK
  5
3A91
330
3A8D
100
AcDbEntity
  8
0
 62
     2
100
AcDbBlockBegin
  2
_OPEN30
 70
     0
 10
0.0
 20
0.0
 30
0.0
  3
_OPEN30
  1

  0
LINE
  5
3A8E
330
3A8D
100
AcDbEntity
  8
0
  6
BYBLOCK
 62
     0
100
AcDbLine
 10
-1.0
 20
0.26794919
 30
0.0
 11
0.0
 21
0.0
 31
0.0
  0
LINE
  5
3A8F
330
3A8D
100
AcDbEntity
  8
0
  6
BYBLOCK
 62
     0
100
AcDbLine
 10
0.0
 20
0.0
 30
0.0
 11
-1.0
 21
-0.26794919
 31
0.0
  0
LINE
  5
3A90
330
3A8D
100
AcDbEntity
  8
0
  6
BYBLOCK
 62
     0
100
AcDbLine
 10
0.0
 20
0.0
 30
0.0
 11
-1.0
 21
0.0
 31
0.0
  0
ENDBLK
  5
3A92
330
3A8D
100
AcDbEntity
  8
0
 62
     2
100
AcDbBlockEnd
  0
ENDSEC
  0
SECTION
  2
ENTITIES
  0
INSERT
  5
109
330
1A
100
AcDbEntity
  8
パターン
100
AcDbBlockReference
  2
TCAD
 10
0.0
 20
0.0
 30
0.0
  0
INSERT
  5
10A
330
1A
100
AcDbEntity
  8
パターン
100
AcDbBlockReference
  2
TCAD
 10
0.0
 20
0.0
 30
0.0
  0
LINE
  5
17DA
330
1A
100
AcDbEntity
  8
170
  6
DASHED
100
AcDbLine
 10
864.6215109914351
 20
501.6224092517088
 30
0.0
 11
864.6215109914351
 21
381.6223482517087
 31
0.0
  0
LINE
  5
17DB
330
1A
100
AcDbEntity
  8
170
  6
CONTINUOUS
100
AcDbLine
 10
829.6215109914351
 20
505.0599092517088
 30
0.0
 11
829.6215109914351
 21
385.0598482517087
 31
0.0
  0
LINE
  5
17DC
330
1A
100
AcDbEntity
  8
170
  6
CONTINUOUS
100
AcDbLine
 10
645.6215109914351
 20
505.0599092517088
 30
0.0
 11
645.6215109914351
 21
385.0598482517087
 31
0.0
  0
LINE
  5
17DD
330
1A
100
AcDbEntity
  8
170
  6
DASHED
100
AcDbLine
 10
610.6216329914352
 20
508.4974702517087
 30
0.0
 11
610.6216329914352
 21
388.4974092517087
 31
0.0
  0
LINE
  5
17DE
330
1A
100
AcDbEntity
  8
225
  6
CONTINUOUS
 62
     3
100
AcDbLine
 10
630.6216329914352
 20
478.0599092517087
 30
0.0
 11
630.6216329914352
 21
457.0599092517087
 31
0.0
  0
LINE
  5
17DF
330
1A
100
AcDbEntity
  8
170
  6
PHANTOM2
 62
     1
100
AcDbLine
 10
852.6215109914351
 20
407.0598482517087
 30
0.0
 11
852.6215109914351
 21
483.0599092517088
 31
0.0
  0
LINE
  5
17E0
330
1A
100
AcDbEntity
  8
170
  6
PHANTOM2
 62
     1
100
AcDbLine
 10
622.6215109914351
 20
407.0598482517087
 30
0.0
 11
622.6215109914351
 21
483.0599092517088
 31
0.0
  0
LINE
  5
17E1
330
1A
100
AcDbEntity
  8
170
  6
CONTINUOUS
100
AcDbLine
 10
869.6215109914351
 20
505.0599092517088
 30
0.0
 11
869.6215109914351
 21
385.0598482517087
 31
0.0
  0
LINE
  5
17E2
330
1A
100
AcDbEntity
  8
170
  6
CONTINUOUS
100
AcDbLine
 10
605.6215109914351
 20
505.0599092517088
 30
0.0
 11
605.6215109914351
 21
385.0598482517087
 31
0.0
  0
LINE
  5
17E9
330
1A
100
AcDbEntity
  8
170
  6
PHANTOM2
 62
     1
100
AcDbLine
 10
629.6215109914351
 20
400.0598482517087
 30
0.0
 11
845.6215109914351
 21
400.0598482517087
 31
0.0
  0
LINE
  5
17EA
330
1A
100
AcDbEntity
  8
225
  6
CENTER
 62
     3
100
AcDbLine
 10
565.621510991435
 20
445.0599092517087
 30
0.0
 11
909.6215109914352
 21
445.0599092517087
 31
0.0
  0
LINE
  5
17EF
330
1A
100
AcDbEntity
  8
170
  6
PHANTOM2
 62
     1
100
AcDbLine
 10
629.6215109914351
 20
251.8461693306879
 30
0.0
 11
845.6215109914351
 21
251.8461693306879
 31
0.0
  0
LINE
  5
17F0
330
1A
100
AcDbEntity
  8
170
  6
PHANTOM2
 62
     1
100
AcDbLine
 10
629.6215109914351
 20
161.8461393306879
 30
0.0
 11
845.6215109914351
 21
161.8461393306879
 31
0.0
  0
LINE
  5
17F1
330
1A
100
AcDbEntity
  8
225
  6
CENTER
 62
     3
100
AcDbLine
 10
565.621510991435
 20
206.8461693306878
 30
0.0
 11
909.6215109914352
 21
206.8461693306878
 31
0.0
  0
LINE
  5
17F2
330
1A
100
AcDbEntity
  8
225
  6
CENTER
 62
     3
100
AcDbLine
 10
737.6215109914351
 20
281.8461693306879
 30
0.0
 11
737.6215109914351
 21
134.3461693306878
 31
0.0
  0
LINE
  5
17F5
330
1A
100
AcDbEntity
  8
10
  6
CONTINUOUS
 62
     7
100
AcDbLine
 10
691.6215109914351
 20
271.8461693306879
 30
0.0
 11
691.6215109914351
 21
141.8461393306879
 31
0.0
  0
LINE
  5
17F6
330
1A
100
AcDbEntity
  8
170
  6
PHANTOM2
 62
     1
100
AcDbLine
 10
622.6215109914351
 20
168.8461393306879
 30
0.0
 11
622.6215109914351
 21
244.8461693306879
 31
0.0
  0
ARC
  5
17F7
330
1A
100
AcDbEntity
  8
170
  6
PHANTOM2
 62
     1
100
AcDbCircle
 10
629.6215109914351
 20
168.8461393306879
 30
0.0
 40
7.0
100
AcDbArc
 50
180.000005
 51
270.000001
  0
ARC
  5
17F8
330
1A
100
AcDbEntity
  8
170
  6
PHANTOM2
 62
     1
100
AcDbCircle
 10
629.6215109914351
 20
244.8461693306879
 30
0.0
 40
7.0
100
AcDbArc
 50
90.0
 51
180.0000029999999
  0
LINE
  5
17FD
330
1A
100
AcDbEntity
  8
170
  6
CONTINUOUS
100
AcDbLine
 10
608.9548849914351
 20
387.5598482517087
 30
0.0
 11
615.6216329914352
 21
392.5598482517087
 31
0.0
  0
LINE
  5
1804
330
1A
100
AcDbEntity
  8
170
  6
CONTINUOUS
100
AcDbLine
 10
605.6215109914351
 20
385.0598482517087
 30
0.0
 11
608.9548849914351
 21
387.5598482517087
 31
0.0
  0
LINE
  5
1807
330
1A
100
AcDbEntity
  8
170
  6
CONTINUOUS
100
AcDbLine
 10
635.6216329914352
 20
377.5598482517087
 30
0.0
 11
642.2882589914352
 21
382.5598482517087
 31
0.0
  0
LINE
  5
1808
330
1A
100
AcDbEntity
  8
170
  6
CONTINUOUS
100
AcDbLine
 10
625.6216329914352
 20
385.0598482517087
 30
0.0
 11
635.6216329914352
 21
377.5598482517087
 31
0.0
  0
LINE
  5
1809
330
1A
100
AcDbEntity
  8
225
  6
CENTER
 62
     3
100
AcDbLine
 10
737.6215109914351
 20
513.6481745976145
 30
0.0
 11
737.6215109914351
 21
375.0598482517087
 31
0.0
  0
ARC
  5
180A
330
1A
100
AcDbEntity
  8
170
  6
PHANTOM2
 62
     1
100
AcDbCircle
 10
629.6215109914351
 20
407.0598482517087
 30
0.0
 40
7.0
100
AcDbArc
 50
180.000005
 51
270.000001
  0
LINE
  5
180B
330
1A
100
AcDbEntity
  8
170
  6
CONTINUOUS
100
AcDbLine
 10
615.6216329914352
 20
392.5598482517087
 30
0.0
 11
625.6216329914352
 21
385.0598482517087
 31
0.0
  0
LINE
  5
180C
330
1A
100
AcDbEntity
  8
170
  6
CONTINUOUS
100
AcDbLine
 10
642.2882589914352
 20
382.5598482517087
 30
0.0
 11
645.6215109914351
 21
385.0598482517087
 31
0.0
  0
CIRCLE
  5
1811
330
1A
100
AcDbEntity
  8
10
  6
CONTINUOUS
100
AcDbCircle
 10
630.6216329914352
 20
467.5599092517088
 30
0.0
 40
3.0
  0
LINE
  5
1812
330
1A
100
AcDbEntity
  8
225
  6
CONTINUOUS
 62
     3
100
AcDbLine
 10
641.1216329914353
 20
467.5599092517088
 30
0.0
 11
620.1216329914352
 21
467.5599092517088
 31
0.0
  0
CIRCLE
  5
1813
330
1A
100
AcDbEntity
  8
10
  6
CONTINUOUS
100
AcDbCircle
 10
630.6216329914352
 20
467.5599092517088
 30
0.0
 40
2.458499999999999
  0
LINE
  5
1815
330
1A
100
AcDbEntity
  8
10
  6
CONTINUOUS
 62
     7
100
AcDbLine
 10
783.6215109914351
 20
271.8461693306879
 30
0.0
 11
783.6215109914351
 21
141.8461393306879
 31
0.0
  0
LINE
  5
1816
330
1A
100
AcDbEntity
  8
170
  6
PHANTOM2
 62
     1
100
AcDbLine
 10
852.6215109914351
 20
168.8461393306879
 30
0.0
 11
852.6215109914351
 21
244.8461693306879
 31
0.0
  0
ARC
  5
1817
330
1A
100
AcDbEntity
  8
170
  6
PHANTOM2
 62
     1
100
AcDbCircle
 10
845.6215109914351
 20
168.8461393306879
 30
0.0
 40
7.0
100
AcDbArc
 50
270.0
 51
0.0000090000000252
  0
ARC
  5
181B
330
1A
100
AcDbEntity
  8
170
  6
PHANTOM2
 62
     1
100
AcDbCircle
 10
845.6215109914351
 20
244.8461693306879
 30
0.0
 40
7.0
100
AcDbArc
 50
0.0
 51
90.00000300000001
  0
LINE
  5
181C
330
1A
100
AcDbEntity
  8
170
  6
CONTINUOUS
100
AcDbLine
 10
859.6215109914352
 20
377.5598482517087
 30
0.0
 11
866.2882589914351
 21
382.5598482517087
 31
0.0
  0
LINE
  5
181D
330
1A
100
AcDbEntity
  8
170
  6
CONTINUOUS
100
AcDbLine
 10
849.621510991435
 20
385.0598482517087
 30
0.0
 11
859.6215109914352
 21
377.5598482517087
 31
0.0
  0
LINE
  5
181F
330
1A
100
AcDbEntity
  8
225
  6
CONTINUOUS
 62
     3
100
AcDbLine
 10
844.6215109914351
 20
433.0599092517088
 30
0.0
 11
844.6215109914351
 21
412.0599092517087
 31
0.0
  0
LINE
  5
1820
330
1A
100
AcDbEntity
  8
170
  6
CONTINUOUS
100
AcDbLine
 10
839.6215109914351
 20
392.5598482517087
 30
0.0
 11
849.621510991435
 21
385.0598482517087
 31
0.0
  0
LINE
  5
1821
330
1A
100
AcDbEntity
  8
225
  6
CONTINUOUS
 62
     3
100
AcDbLine
 10
834.1215109914351
 20
422.5599092517088
 30
0.0
 11
855.121510991435
 21
422.5599092517088
 31
0.0
  0
CIRCLE
  5
1822
330
1A
100
AcDbEntity
  8
10
  6
CONTINUOUS
100
AcDbCircle
 10
844.6215109914351
 20
422.5599092517088
 30
0.0
 40
2.458499999999999
  0
CIRCLE
  5
1823
330
1A
100
AcDbEntity
  8
10
  6
CONTINUOUS
100
AcDbCircle
 10
844.6215109914351
 20
422.5599092517088
 30
0.0
 40
3.0
  0
LINE
  5
1824
330
1A
100
AcDbEntity
  8
170
  6
CONTINUOUS
100
AcDbLine
 10
832.9548849914351
 20
387.5598482517087
 30
0.0
 11
839.6215109914351
 21
392.5598482517087
 31
0.0
  0
LINE
  5
1825
330
1A
100
AcDbEntity
  8
170
  6
CONTINUOUS
100
AcDbLine
 10
829.6215109914351
 20
385.0598482517087
 30
0.0
 11
832.9548849914351
 21
387.5598482517087
 31
0.0
  0
ARC
  5
1826
330
1A
100
AcDbEntity
  8
170
  6
PHANTOM2
 62
     1
100
AcDbCircle
 10
845.6215109914351
 20
407.0598482517087
 30
0.0
 40
7.0
100
AcDbArc
 50
270.0
 51
0.0000090000000252
  0
LINE
  5
1827
330
1A
100
AcDbEntity
  8
170
  6
CONTINUOUS
100
AcDbLine
 10
866.2882589914351
 20
382.5598482517087
 30
0.0
 11
869.6215109914351
 21
385.0598482517087
 31
0.0
  0
LINE
  5
182D
330
1A
100
AcDbEntity
  8
170
  6
PHANTOM2
 62
     1
100
AcDbLine
 10
629.6215109914351
 20
490.0599092517087
 30
0.0
 11
845.6215109914351
 21
490.0599092517087
 31
0.0
  0
LINE
  5
182F
330
1A
100
AcDbEntity
  8
170
  6
CONTINUOUS
100
AcDbLine
 10
608.9548849914351
 20
507.5599092517087
 30
0.0
 11
615.6216329914352
 21
512.5599092517088
 31
0.0
  0
LINE
  5
1830
330
1A
100
AcDbEntity
  8
170
  6
CONTINUOUS
100
AcDbLine
 10
605.6215109914351
 20
505.0599092517088
 30
0.0
 11
608.9548849914351
 21
507.5599092517087
 31
0.0
  0
ARC
  5
1838
330
1A
100
AcDbEntity
  8
170
  6
PHANTOM2
 62
     1
100
AcDbCircle
 10
629.6215109914351
 20
483.0599092517088
 30
0.0
 40
7.0
100
AcDbArc
 50
90.0
 51
180.0000029999999
  0
LINE
  5
183B
330
1A
100
AcDbEntity
  8
170
  6
CONTINUOUS
100
AcDbLine
 10
625.6216329914352
 20
505.0599092517088
 30
0.0
 11
635.6216329914352
 21
497.5599092517088
 31
0.0
  0
LINE
  5
183C
330
1A
100
AcDbEntity
  8
170
  6
CONTINUOUS
100
AcDbLine
 10
615.6216329914352
 20
512.5599092517088
 30
0.0
 11
625.6216329914352
 21
505.0599092517088
 31
0.0
  0
LINE
  5
183E
330
1A
100
AcDbEntity
  8
170
  6
CONTINUOUS
100
AcDbLine
 10
642.2882589914352
 20
502.5599092517087
 30
0.0
 11
645.6215109914351
 21
505.0599092517088
 31
0.0
  0
LINE
  5
183F
330
1A
100
AcDbEntity
  8
170
  6
CONTINUOUS
100
AcDbLine
 10
635.6216329914352
 20
497.5599092517088
 30
0.0
 11
642.2882589914352
 21
502.5599092517087
 31
0.0
  0
LINE
  5
184C
330
1A
100
AcDbEntity
  8
170
  6
CONTINUOUS
100
AcDbLine
 10
839.6215109914351
 20
512.5599092517088
 30
0.0
 11
849.621510991435
 21
505.0599092517088
 31
0.0
  0
LINE
  5
184E
330
1A
100
AcDbEntity
  8
170
  6
CONTINUOUS
100
AcDbLine
 10
832.9548849914351
 20
507.5599092517087
 30
0.0
 11
839.6215109914351
 21
512.5599092517088
 31
0.0
  0
LINE
  5
184F
330
1A
100
AcDbEntity
  8
170
  6
CONTINUOUS
100
AcDbLine
 10
829.6215109914351
 20
505.0599092517088
 30
0.0
 11
832.9548849914351
 21
507.5599092517087
 31
0.0
  0
ARC
  5
1850
330
1A
100
AcDbEntity
  8
170
  6
PHANTOM2
 62
     1
100
AcDbCircle
 10
845.6215109914351
 20
483.0599092517088
 30
0.0
 40
7.0
100
AcDbArc
 50
0.0
 51
90.00000300000001
  0
LINE
  5
1852
330
1A
100
AcDbEntity
  8
170
  6
CONTINUOUS
100
AcDbLine
 10
849.621510991435
 20
505.0599092517088
 30
0.0
 11
859.6215109914352
 21
497.5599092517088
 31
0.0
  0
LINE
  5
1855
330
1A
100
AcDbEntity
  8
170
  6
CONTINUOUS
100
AcDbLine
 10
866.2882589914351
 20
502.5599092517087
 30
0.0
 11
869.6215109914351
 21
505.0599092517088
 31
0.0
  0
LINE
  5
1856
330
1A
100
AcDbEntity
  8
170
  6
CONTINUOUS
100
AcDbLine
 10
859.6215109914352
 20
497.5599092517088
 30
0.0
 11
866.2882589914351
 21
502.5599092517087
 31
0.0
  0
HATCH
  5
1862
330
1A
100
AcDbEntity
  8
170
100
AcDbHatch
 10
0.0
 20
0.0
 30
0.0
210
0.0
220
0.0
230
1.0
  2
ANSI31
 70
     0
 71
     0
 91
        1
 92
        1
 93
        4
 72
     1
 10
691.6215109914351
 20
271.8461693306879
 11
603.6215109914351
 21
271.8461693306878
 72
     1
 10
603.6215109914351
 20
271.8461693306879
 11
603.6215109914351
 21
141.8461393306879
 72
     1
 10
603.6215109914351
 20
141.8461393306879
 11
691.6215109914351
 21
141.8461393306879
 72
     1
 10
691.6215109914351
 20
141.8461393306879
 11
691.6215109914351
 21
271.8461693306879
 97
        0
 75
     0
 76
     1
 52
0.0
 41
50.0
 77
     0
 78
     1
 53
45.0
 43
0.0
 44
50.23726451656262
 45
-4.419417382415921
 46
4.419417382415922
 79
     0
 98
        1
 10
188.0088877239218
 20
58.61637839093305
  0
LINE
  5
1863
330
1A
100
AcDbEntity
  8
210
  6
CONTINUOUS
 62
     4
100
AcDbLine
 10
373.1088891478727
 20
147.7868612517088
 30
0.0
 11
458.1714201478726
 21
147.7868612517088
 31
0.0
  0
LINE
  5
1864
330
1A
100
AcDbEntity
  8
210
  6
CONTINUOUS
 62
     4
100
AcDbLine
 10
378.7960841478727
 20
475.0599092517088
 30
0.0
 11
458.1714201478726
 21
475.0599092517088
 31
0.0
  0
LINE
  5
1865
330
1A
100
AcDbEntity
  8
210
  6
CONTINUOUS
 62
     4
100
AcDbLine
 10
378.7960841478727
 20
415.0598792517087
 30
0.0
 11
458.1714201478726
 21
415.0598792517087
 31
0.0
  0
LINE
  5
1867
330
1A
100
AcDbEntity
  8
210
  6
CONTINUOUS
 62
     4
100
AcDbLine
 10
379.6088891478727
 20
257.7868532517087
 30
0.0
 11
458.1714201478726
 21
257.7868532517087
 31
0.0
  0
LINE
  5
1868
330
1A
100
AcDbEntity
  8
230
  6
CONTINUOUS
 62
     6
100
AcDbLine
 10
431.9003650536179
 20
310.9276170204676
 30
0.0
 11
464.3262313297029
 21
310.9276170204676
 31
0.0
  0
LINE
  5
1869
330
1A
100
AcDbEntity
  8
210
  6
CONTINUOUS
 62
     4
100
AcDbLine
 10
417.7960841478727
 20
490.0599092517087
 30
0.0
 11
478.1714201478727
 21
490.0599092517087
 31
0.0
  0
LINE
  5
186A
330
1A
100
AcDbEntity
  8
210
  6
CONTINUOUS
 62
     4
100
AcDbLine
 10
417.7960841478727
 20
400.0598792517087
 30
0.0
 11
478.1714201478727
 21
400.0598792517087
 31
0.0
  0
LINE
  5
186E
330
1A
100
AcDbEntity
  8
230
  6
CONTINUOUS
100
AcDbLine
 10
414.0408937212548
 20
341.7827382160421
 30
0.0
 11
468.8674655798783
 21
341.7827382160421
 31
0.0
  0
LINE
  5
186F
330
1A
100
AcDbEntity
  8
210
  6
CONTINUOUS
 62
     4
100
AcDbLine
 10
393.1088891478727
 20
125.2868612517088
 30
0.0
 11
478.1714201478727
 21
125.2868612517088
 31
0.0
  0
LINE
  5
1871
330
1A
100
AcDbEntity
  8
170
  6
PHANTOM2
100
AcDbLine
 10
434.1089271478726
 20
300.2868572517087
 30
0.0
 11
348.1088971478726
 21
300.2868572517087
 31
0.0
  0
TEXT
  5
1873
330
1A
100
AcDbEntity
  8
230
  6
CONTINUOUS
 62
     6
100
AcDbText
 10
422.1244622055115
 20
350.2877132160421
 30
0.0
 40
5.0
  1
負荷側接続ねじ
100
AcDbText
  0
LINE
  5
1875
330
1A
100
AcDbEntity
  8
170
  6
PHANTOM2
100
AcDbLine
 10
394.1089271478726
 20
175.2868572517087
 30
0.0
 11
434.1089271478726
 21
175.2868572517087
 31
0.0
  0
LINE
  5
1876
330
1A
100
AcDbEntity
  8
170
  6
PHANTOM2
100
AcDbLine
 10
434.1089271478726
 20
302.2868572517087
 30
0.0
 11
348.1088971478726
 21
302.2868572517087
 31
0.0
  0
LINE
  5
1877
330
1A
100
AcDbEntity
  8
225
  6
CENTER
 62
     3
100
AcDbLine
 10
168.1088971478727
 20
445.0598672517088
 30
0.0
 11
440.1089271478727
 21
445.0598672517088
 31
0.0
  0
LINE
  5
1878
330
1A
100
AcDbEntity
  8
170
  6
PHANTOM2
100
AcDbLine
 10
432.1089271478727
 20
135.2868572517087
 30
0.0
 11
434.1089271478726
 21
135.2868572517087
 31
0.0
  0
LINE
  5
187F
330
1A
100
AcDbEntity
  8
230
  6
CONTINUOUS
 62
     6
100
AcDbLine
 10
222.6089051478727
 20
286.1453582517087
 30
0.0
 11
196.4584531478727
 21
322.8520842517088
 31
0.0
  0
LINE
  5
1882
330
1A
100
AcDbEntity
  8
230
  6
CONTINUOUS
 62
     6
100
AcDbLine
 10
372.0460846611444
 20
269.0455807511135
 30
0.0
 11
414.0408937212548
 21
341.7827382160421
 31
0.0
  0
LINE
  5
1883
330
1A
100
AcDbEntity
  8
225
  6
CENTER
 62
     3
100
AcDbLine
 10
302.1088971478727
 20
327.2868572517087
 30
0.0
 11
302.1088971478727
 21
73.78687225170882
 31
0.0
  0
ARC
  5
1884
330
1A
100
AcDbEntity
  8
0
  6
CONTINUOUS
 62
     2
100
AcDbCircle
 10
288.3239541478727
 20
315.8403242517087
 30
0.0
 40
1.0
100
AcDbArc
 50
106.99994
 51
195.210044
  0
LINE
  5
1885
330
1A
100
AcDbEntity
  8
0
  6
CONTINUOUS
 62
     2
100
AcDbLine
 10
288.0315651478726
 20
316.7966532517088
 30
0.0
 11
292.8719581478727
 21
318.2764812517087
 31
0.0
  0
LINE
  5
1886
330
1A
100
AcDbEntity
  8
0
  6
CONTINUOUS
 62
     2
100
AcDbLine
 10
294.1110331478727
 20
317.6422952517087
 30
0.0
 11
298.1446031478727
 21
305.7868572517087
 31
0.0
  0
LINE
  5
188B
330
1A
100
AcDbEntity
  8
230
  6
CONTINUOUS
 62
     6
100
AcDbLine
 10
176.7439601478727
 20
250.8874852517088
 30
0.0
 11
133.4853851478727
 21
250.8874852517088
 31
0.0
  0
LINE
  5
188E
330
1A
100
AcDbEntity
  8
170
  6
PHANTOM2
100
AcDbLine
 10
170.1088971478727
 20
175.2868572517087
 30
0.0
 11
210.1088971478727
 21
175.2868572517087
 31
0.0
  0
TEXT
  5
188F
330
1A
100
AcDbEntity
  8
230
  6
CONTINUOUS
 62
     6
100
AcDbText
 10
133.4391811478727
 20
261.1666752517087
 30
0.0
 40
5.0
  1
差込台取付けねじ
100
AcDbText
  0
LINE
  5
1890
330
1A
100
AcDbEntity
  8
170
  6
PHANTOM2
100
AcDbLine
 10
170.1088971478727
 20
300.2868572517087
 30
0.0
 11
256.1088971478727
 21
300.2868572517087
 31
0.0
  0
LINE
  5
1891
330
1A
100
AcDbEntity
  8
170
  6
PHANTOM2
100
AcDbLine
 10
170.1088971478727
 20
302.2868572517087
 30
0.0
 11
256.1088971478727
 21
302.2868572517087
 31
0.0
  0
LINE
  5
1892
330
1A
100
AcDbEntity
  8
170
  6
PHANTOM2
100
AcDbLine
 10
170.1088971478727
 20
135.2868572517087
 30
0.0
 11
172.1088971478727
 21
135.2868572517087
 31
0.0
  0
LINE
  5
189D
330
1A
100
AcDbEntity
  8
170
  6
PHANTOM2
100
AcDbLine
 10
170.1088971478727
 20
175.2868572517087
 30
0.0
 11
170.1088971478727
 21
135.2868722517088
 31
0.0
  0
TEXT
  5
18B1
330
1A
100
AcDbEntity
  8
230
  6
CONTINUOUS
 62
     6
100
AcDbText
 10
134.2103679204654
 20
253.5500212517088
 30
0.0
 40
5.0
  1
ナベM6
100
AcDbText
  0
LINE
  5
18B8
330
1A
100
AcDbEntity
  8
0
  6
CONTINUOUS
 62
     2
100
AcDbLine
 10
307.9053751478726
 20
147.3344642517088
 30
0.0
 11
308.3588971478727
 21
128.2868572517087
 31
0.0
  0
LINE
  5
18B9
330
1A
100
AcDbEntity
  8
0
  6
CONTINUOUS
 62
     2
100
AcDbLine
 10
296.3124191478726
 20
147.3344642517088
 30
0.0
 11
295.8588971478727
 21
128.2868572517087
 31
0.0
  0
LINE
  5
18BA
330
1A
100
AcDbEntity
  8
0
  6
CONTINUOUS
 62
     2
100
AcDbLine
 10
237.9053751478727
 20
147.3344642517088
 30
0.0
 11
238.3588971478727
 21
128.2868572517087
 31
0.0
  0
LINE
  5
18BB
330
1A
100
AcDbEntity
  8
0
  6
CONTINUOUS
 62
     2
100
AcDbLine
 10
226.3124191478727
 20
147.3344642517088
 30
0.0
 11
225.8588971478727
 21
128.2868572517087
 31
0.0
  0
LINE
  5
18BC
330
1A
100
AcDbEntity
  8
0
  6
CONTINUOUS
 62
     2
100
AcDbLine
 10
281.1088971478726
 20
126.2868572517087
 30
0.0
 11
281.1088971478726
 21
150.2868572517087
 31
0.0
  0
LINE
  5
18BD
330
1A
100
AcDbEntity
  8
0
  6
CONTINUOUS
 62
     2
100
AcDbLine
 10
323.1088971478726
 20
126.2868572517087
 30
0.0
 11
323.1088971478726
 21
150.2868572517087
 31
0.0
  0
LINE
  5
18BE
330
1A
100
AcDbEntity
  8
0
  6
CONTINUOUS
 62
     2
100
AcDbLine
 10
377.9053751478727
 20
147.3344642517088
 30
0.0
 11
378.3588971478727
 21
128.2868572517087
 31
0.0
  0
LINE
  5
18BF
330
1A
100
AcDbEntity
  8
0
  6
CONTINUOUS
 62
     2
100
AcDbLine
 10
366.3124191478726
 20
147.3344642517088
 30
0.0
 11
365.8588971478727
 21
128.2868572517087
 31
0.0
  0
LINE
  5
18C0
330
1A
100
AcDbEntity
  8
0
  6
CONTINUOUS
 62
     2
100
AcDbLine
 10
351.1088971478727
 20
126.2868572517087
 30
0.0
 11
351.1088971478727
 21
150.2868572517087
 31
0.0
  0
LINE
  5
18C1
330
1A
100
AcDbEntity
  8
0
  6
CONTINUOUS
 62
     2
100
AcDbLine
 10
253.1088971478727
 20
126.2868572517087
 30
0.0
 11
253.1088971478727
 21
150.2868572517087
 31
0.0
  0
LINE
  5
18C2
330
1A
100
AcDbEntity
  8
0
  6
CONTINUOUS
 62
     2
100
AcDbLine
 10
393.1088971478727
 20
126.2868572517087
 30
0.0
 11
393.1088971478727
 21
175.2868572517087
 31
0.0
  0
LINE
  5
18C3
330
1A
100
AcDbEntity
  8
0
  6
CONTINUOUS
 62
     2
100
AcDbLine
 10
211.1088971478727
 20
126.2868572517087
 30
0.0
 11
211.1088971478727
 21
175.2868572517087
 31
0.0
  0
LINE
  5
18C4
330
1A
100
AcDbEntity
  8
225
  6
CENTER
 62
     3
100
AcDbLine
 10
372.1088971478727
 20
160.7868572517087
 30
0.0
 11
372.1088971478727
 21
73.78687225170882
 31
0.0
  0
LINE
  5
18C5
330
1A
100
AcDbEntity
  8
225
  6
CENTER
 62
     3
100
AcDbLine
 10
232.1088971478727
 20
160.7868572517087
 30
0.0
 11
232.1088971478727
 21
73.78687225170882
 31
0.0
  0
LINE
  5
18C6
330
1A
100
AcDbEntity
  8
170
  6
PHANTOM2
100
AcDbLine
 10
377.1088971478727
 20
142.7868572517087
 30
0.0
 11
377.1088971478727
 21
93.78687225170882
 31
0.0
  0
LINE
  5
18C7
330
1A
100
AcDbEntity
  8
170
  6
PHANTOM2
100
AcDbLine
 10
367.1088971478727
 20
142.7868572517087
 30
0.0
 11
367.1088971478727
 21
93.78687225170882
 31
0.0
  0
LINE
  5
18C8
330
1A
100
AcDbEntity
  8
170
  6
PHANTOM2
100
AcDbLine
 10
307.1088971478727
 20
142.7868572517087
 30
0.0
 11
307.1088971478727
 21
93.78687225170882
 31
0.0
  0
LINE
  5
18C9
330
1A
100
AcDbEntity
  8
170
  6
PHANTOM2
100
AcDbLine
 10
297.1088971478727
 20
142.7868572517087
 30
0.0
 11
297.1088971478727
 21
93.78687225170882
 31
0.0
  0
LINE
  5
18CA
330
1A
100
AcDbEntity
  8
170
  6
PHANTOM2
100
AcDbLine
 10
237.1088971478727
 20
142.7868572517087
 30
0.0
 11
237.1088971478727
 21
93.78687225170882
 31
0.0
  0
LINE
  5
18CB
330
1A
100
AcDbEntity
  8
170
  6
PHANTOM2
100
AcDbLine
 10
227.1088971478727
 20
142.7868572517087
 30
0.0
 11
227.1088971478727
 21
93.78687225170882
 31
0.0
  0
LINE
  5
18CC
330
1A
100
AcDbEntity
  8
210
  6
CONTINUOUS
 62
     4
100
AcDbLine
 10
302.1088891478727
 20
77.78686425170872
 30
0.0
 11
300.1368631478726
 21
77.45353125170879
 31
0.0
  0
LINE
  5
18CD
330
1A
100
AcDbEntity
  8
210
  6
CONTINUOUS
 62
     4
100
AcDbLine
 10
302.1088891478727
 20
77.78686425170872
 30
0.0
 11
300.1368631478726
 21
78.12019825170875
 31
0.0
  0
LINE
  5
18CE
330
1A
100
AcDbEntity
  8
210
  6
CONTINUOUS
 62
     4
100
AcDbLine
 10
232.1089051478727
 20
77.78686425170872
 30
0.0
 11
302.1088891478727
 21
77.78686425170872
 31
0.0
  0
LINE
  5
18CF
330
1A
100
AcDbEntity
  8
210
  6
CONTINUOUS
 62
     4
100
AcDbLine
 10
297.1088891478727
 20
97.78687625170881
 30
0.0
 11
307.1088891478727
 21
97.78687625170881
 31
0.0
  0
LINE
  5
18D0
330
1A
100
AcDbEntity
  8
210
  6
CONTINUOUS
 62
     4
100
AcDbLine
 10
211.1089051478727
 20
53.77687425170882
 30
0.0
 11
393.1088891478727
 21
53.77687425170882
 31
0.0
  0
TEXT
  5
18D1
330
1A
100
AcDbEntity
  8
210
  6
CONTINUOUS
 62
     4
100
AcDbText
 10
296.4005561478726
 20
56.90187425170882
 30
0.0
 40
5.0
  1
182
100
AcDbText
  0
LINE
  5
18D2
330
1A
100
AcDbEntity
  8
210
  6
CONTINUOUS
 62
     4
100
AcDbLine
 10
211.1089051478727
 20
125.2868612517088
 30
0.0
 11
211.1089051478727
 21
49.71437425170882
 31
0.0
  0
LINE
  5
18D3
330
1A
100
AcDbEntity
  8
210
  6
CONTINUOUS
 62
     4
100
AcDbLine
 10
211.1089051478727
 20
53.77687425170882
 30
0.0
 11
213.0809311478727
 21
53.44354025170878
 31
0.0
  0
LINE
  5
18D4
330
1A
100
AcDbEntity
  8
210
  6
CONTINUOUS
 62
     4
100
AcDbLine
 10
211.1089051478727
 20
53.77687425170882
 30
0.0
 11
213.0809311478727
 21
54.11020725170875
 31
0.0
  0
LINE
  5
18D5
330
1A
100
AcDbEntity
  8
210
  6
CONTINUOUS
 62
     4
100
AcDbLine
 10
232.1089051478727
 20
77.78686425170872
 30
0.0
 11
234.0809311478727
 21
77.45353125170879
 31
0.0
  0
LINE
  5
18D6
330
1A
100
AcDbEntity
  8
210
  6
CONTINUOUS
 62
     4
100
AcDbLine
 10
232.1089051478727
 20
77.78686425170872
 30
0.0
 11
234.0809311478727
 21
78.12019825170875
 31
0.0
  0
LINE
  5
18D7
330
1A
100
AcDbEntity
  8
0
  6
CONTINUOUS
 62
     2
100
AcDbLine
 10
224.1088971478727
 20
125.2868572517087
 30
0.0
 11
212.1088971478727
 21
125.2868572517087
 31
0.0
  0
ARC
  5
18D8
330
1A
100
AcDbEntity
  8
0
  6
CONTINUOUS
 62
     2
100
AcDbCircle
 10
212.1088971478727
 20
126.2868572517087
 30
0.0
 40
1.0
100
AcDbArc
 50
180.000005
 51
270.000001
  0
LINE
  5
18D9
330
1A
100
AcDbEntity
  8
0
  6
CONTINUOUS
 62
     2
100
AcDbLine
 10
225.8588971478727
 20
128.2868572517087
 30
0.0
 11
224.1088971478727
 21
125.2868572517087
 31
0.0
  0
TEXT
  5
18DA
330
1A
100
AcDbEntity
  8
210
  6
CONTINUOUS
 62
     4
100
AcDbText
 10
262.6505711478727
 20
80.91186425170873
 30
0.0
 40
5.0
  1
70
100
AcDbText
  0
ARC
  5
18DC
330
1A
100
AcDbEntity
  8
0
  6
CONTINUOUS
 62
     2
100
AcDbCircle
 10
252.1088971478727
 20
126.2868572517087
 30
0.0
 40
1.0
100
AcDbArc
 50
270.0
 51
359.999996
  0
LINE
  5
18DD
330
1A
100
AcDbEntity
  8
0
  6
CONTINUOUS
 62
     2
100
AcDbLine
 10
240.1088971478727
 20
125.2868572517087
 30
0.0
 11
252.1088971478727
 21
125.2868572517087
 31
0.0
  0
LINE
  5
18DE
330
1A
100
AcDbEntity
  8
0
  6
CONTINUOUS
 62
     2
100
AcDbLine
 10
238.3588971478727
 20
128.2868572517087
 30
0.0
 11
240.1088971478727
 21
125.2868572517087
 31
0.0
  0
LINE
  5
18DF
330
1A
100
AcDbEntity
  8
210
  6
CONTINUOUS
 62
     4
100
AcDbLine
 10
297.1088891478727
 20
97.78687625170881
 30
0.0
 11
291.7768891478727
 21
97.78687625170881
 31
0.0
  0
LINE
  5
18E0
330
1A
100
AcDbEntity
  8
210
  6
CONTINUOUS
 62
     4
100
AcDbLine
 10
297.1088891478727
 20
97.78687625170881
 30
0.0
 11
295.1368631478727
 21
97.45354325170877
 31
0.0
  0
LINE
  5
18E1
330
1A
100
AcDbEntity
  8
210
  6
CONTINUOUS
 62
     4
100
AcDbLine
 10
297.1088891478727
 20
97.78687625170881
 30
0.0
 11
295.1368631478727
 21
98.12020925170873
 31
0.0
  0
LINE
  5
18E2
330
1A
100
AcDbEntity
  8
0
  6
CONTINUOUS
 62
     2
100
AcDbLine
 10
294.1088971478727
 20
125.2868572517087
 30
0.0
 11
282.1088971478727
 21
125.2868572517087
 31
0.0
  0
ARC
  5
18E3
330
1A
100
AcDbEntity
  8
0
  6
CONTINUOUS
 62
     2
100
AcDbCircle
 10
282.1088971478727
 20
126.2868572517087
 30
0.0
 40
1.0
100
AcDbArc
 50
180.000005
 51
270.000001
  0
LINE
  5
18E4
330
1A
100
AcDbEntity
  8
0
  6
CONTINUOUS
 62
     2
100
AcDbLine
 10
295.8588971478727
 20
128.2868572517087
 30
0.0
 11
294.1088971478727
 21
125.2868572517087
 31
0.0
  0
LINE
  5
18E5
330
1A
100
AcDbEntity
  8
210
  6
CONTINUOUS
 62
     4
100
AcDbLine
 10
302.1088891478727
 20
77.78686425170872
 30
0.0
 11
372.1088891478727
 21
77.78686425170872
 31
0.0
  0
TEXT
  5
18E6
330
1A
100
AcDbEntity
  8
210
  6
CONTINUOUS
 62
     4
100
AcDbText
 10
332.6505561478727
 20
80.91186425170873
 30
0.0
 40
5.0
  1
70
100
AcDbText
  0
TEXT
  5
18E7
330
1A
100
AcDbEntity
  8
230
  6
CONTINUOUS
 62
     6
100
AcDbText
 10
243.0500685535248
 20
70.56526525170875
 30
0.0
 40
5.0
  1
ブスバーピッチ
100
AcDbText
  0
LINE
  5
18E8
330
1A
100
AcDbEntity
  8
210
  6
CONTINUOUS
 62
     4
100
AcDbLine
 10
302.1088891478727
 20
77.78686425170872
 30
0.0
 11
304.0809161478727
 21
77.45353125170879
 31
0.0
  0
LINE
  5
18E9
330
1A
100
AcDbEntity
  8
210
  6
CONTINUOUS
 62
     4
100
AcDbLine
 10
302.1088891478727
 20
77.78686425170872
 30
0.0
 11
304.0809161478727
 21
78.12019825170875
 31
0.0
  0
TEXT
  5
18EA
330
1A
100
AcDbEntity
  8
230
  6
CONTINUOUS
 62
     6
100
AcDbText
 10
308.4383716216507
 20
90.27049625170878
 30
0.0
 40
5.0
  1
適用ブスバー厚さ
100
AcDbText
  0
LINE
  5
18EB
330
1A
100
AcDbEntity
  8
210
  6
CONTINUOUS
 62
     4
100
AcDbLine
 10
307.1088891478727
 20
97.78687625170881
 30
0.0
 11
318.3365604631444
 21
97.78687625170881
 31
0.0
  0
TEXT
  5
18EC
330
1A
100
AcDbEntity
  8
210
  6
CONTINUOUS
 62
     4
100
AcDbText
 10
309.0448734631444
 20
100.9118762517088
 30
0.0
 40
5.0
  1
10
100
AcDbText
  0
LINE
  5
18ED
330
1A
100
AcDbEntity
  8
210
  6
CONTINUOUS
 62
     4
100
AcDbLine
 10
307.1088891478727
 20
97.78687625170881
 30
0.0
 11
309.0809161478726
 21
97.45354325170877
 31
0.0
  0
LINE
  5
18EE
330
1A
100
AcDbEntity
  8
210
  6
CONTINUOUS
 62
     4
100
AcDbLine
 10
307.1088891478727
 20
97.78687625170881
 30
0.0
 11
309.0809161478726
 21
98.12020925170873
 31
0.0
  0
LINE
  5
18EF
330
1A
100
AcDbEntity
  8
0
  6
CONTINUOUS
 62
     2
100
AcDbLine
 10
310.1088971478727
 20
125.2868572517087
 30
0.0
 11
322.1088971478727
 21
125.2868572517087
 31
0.0
  0
LINE
  5
18F0
330
1A
100
AcDbEntity
  8
0
  6
CONTINUOUS
 62
     2
100
AcDbLine
 10
308.3588971478727
 20
128.2868572517087
 30
0.0
 11
310.1088971478727
 21
125.2868572517087
 31
0.0
  0
ARC
  5
18F1
330
1A
100
AcDbEntity
  8
0
  6
CONTINUOUS
 62
     2
100
AcDbCircle
 10
322.1088971478727
 20
126.2868572517087
 30
0.0
 40
1.0
100
AcDbArc
 50
270.0
 51
359.999996
  0
ARC
  5
18F2
330
1A
100
AcDbEntity
  8
0
  6
CONTINUOUS
 62
     2
100
AcDbCircle
 10
352.1088971478727
 20
126.2868572517087
 30
0.0
 40
1.0
100
AcDbArc
 50
180.000005
 51
270.000001
  0
LINE
  5
18F3
330
1A
100
AcDbEntity
  8
0
  6
CONTINUOUS
 62
     2
100
AcDbLine
 10
364.1088971478727
 20
125.2868572517087
 30
0.0
 11
352.1088971478727
 21
125.2868572517087
 31
0.0
  0
LINE
  5
18F4
330
1A
100
AcDbEntity
  8
0
  6
CONTINUOUS
 62
     2
100
AcDbLine
 10
365.8588971478727
 20
128.2868572517087
 30
0.0
 11
364.1088971478727
 21
125.2868572517087
 31
0.0
  0
LINE
  5
18F5
330
1A
100
AcDbEntity
  8
210
  6
CONTINUOUS
 62
     4
100
AcDbLine
 10
393.1088891478727
 20
125.2868612517088
 30
0.0
 11
393.1088891478727
 21
49.71437425170882
 31
0.0
  0
LINE
  5
18F6
330
1A
100
AcDbEntity
  8
210
  6
CONTINUOUS
 62
     4
100
AcDbLine
 10
393.1088891478727
 20
53.77687425170882
 30
0.0
 11
391.1368631478727
 21
53.44354025170878
 31
0.0
  0
LINE
  5
18F7
330
1A
100
AcDbEntity
  8
210
  6
CONTINUOUS
 62
     4
100
AcDbLine
 10
393.1088891478727
 20
53.77687425170882
 30
0.0
 11
391.1368631478727
 21
54.11020725170875
 31
0.0
  0
LINE
  5
18F8
330
1A
100
AcDbEntity
  8
210
  6
CONTINUOUS
 62
     4
100
AcDbLine
 10
372.1088891478727
 20
77.78686425170872
 30
0.0
 11
370.1368631478727
 21
77.45353125170879
 31
0.0
  0
LINE
  5
18F9
330
1A
100
AcDbEntity
  8
210
  6
CONTINUOUS
 62
     4
100
AcDbLine
 10
372.1088891478727
 20
77.78686425170872
 30
0.0
 11
370.1368631478727
 21
78.12019825170875
 31
0.0
  0
LINE
  5
18FA
330
1A
100
AcDbEntity
  8
0
  6
CONTINUOUS
 62
     2
100
AcDbLine
 10
380.1088971478727
 20
125.2868572517087
 30
0.0
 11
392.1088971478727
 21
125.2868572517087
 31
0.0
  0
LINE
  5
18FB
330
1A
100
AcDbEntity
  8
0
  6
CONTINUOUS
 62
     2
100
AcDbLine
 10
378.3588971478727
 20
128.2868572517087
 30
0.0
 11
380.1088971478727
 21
125.2868572517087
 31
0.0
  0
ARC
  5
18FC
330
1A
100
AcDbEntity
  8
0
  6
CONTINUOUS
 62
     2
100
AcDbCircle
 10
392.1088971478727
 20
126.2868572517087
 30
0.0
 40
1.0
100
AcDbArc
 50
270.0
 51
0.0000090000000252
  0
LINE
  5
18FE
330
1A
100
AcDbEntity
  8
0
  6
CONTINUOUS
 62
     2
100
AcDbLine
 10
278.1088971478727
 20
305.7868572517087
 30
0.0
 11
326.1088971478727
 21
305.7868572517087
 31
0.0
  0
LINE
  5
18FF
330
1A
100
AcDbEntity
  8
0
  6
CONTINUOUS
 62
     2
100
AcDbLine
 10
261.1088971478727
 20
301.7868572517087
 30
0.0
 11
277.1088971478727
 21
301.7868572517087
 31
0.0
  0
LINE
  5
1900
330
1A
100
AcDbEntity
  8
0
  6
CONTINUOUS
 62
     2
100
AcDbLine
 10
351.1088971478727
 20
150.2868572517087
 30
0.0
 11
211.1088971478726
 21
150.2868572517087
 31
0.0
  0
LINE
  5
1901
330
1A
100
AcDbEntity
  8
0
  6
CONTINUOUS
 62
     2
100
AcDbLine
 10
305.9059551478727
 20
149.2868572517087
 30
0.0
 11
298.3118391478727
 21
149.2868572517087
 31
0.0
  0
LINE
  5
1902
330
1A
100
AcDbEntity
  8
150
  6
CONTINUOUS
 62
     7
100
AcDbLine
 10
356.1088971478727
 20
178.2868572517087
 30
0.0
 11
227.1088971478727
 21
178.2868572517087
 31
0.0
  0
LINE
  5
1903
330
1A
100
AcDbEntity
  8
150
  6
CONTINUOUS
 62
     7
100
AcDbLine
 10
222.6088971478727
 20
233.7868572517087
 30
0.0
 11
379.6088971478727
 21
233.7868572517087
 31
0.0
  0
ARC
  5
1906
330
1A
100
AcDbEntity
  8
170
  6
PHANTOM2
100
AcDbCircle
 10
302.1088971478727
 20
142.7868572517087
 30
0.0
 40
5.0
100
AcDbArc
 50
0.0
 51
180.000005
  0
LINE
  5
1908
330
1A
100
AcDbEntity
  8
230
  6
CONTINUOUS
 62
     6
100
AcDbLine
 10
192.3404411478727
 20
195.5104102517087
 30
0.0
 11
176.7439601478727
 21
250.8874852517088
 31
0.0
  0
LINE
  5
1909
330
1A
100
AcDbEntity
  8
0
  6
CONTINUOUS
 62
     2
100
AcDbLine
 10
218.1088971478727
 20
235.7868572517087
 30
0.0
 11
218.1088971478727
 21
196.2868572517087
 31
0.0
  0
LINE
  5
190A
330
1A
100
AcDbEntity
  8
150
  6
CONTINUOUS
 62
     7
100
AcDbLine
 10
223.1088971478726
 20
233.7868572517087
 30
0.0
 11
223.1088971478726
 21
196.2868572517087
 31
0.0
  0
ARC
  5
190B
330
1A
100
AcDbEntity
  8
0
  6
CONTINUOUS
 62
     2
100
AcDbCircle
 10
235.9059551478726
 20
147.2868572517087
 30
0.0
 40
2.0
100
AcDbArc
 50
1.363928
 51
90.00000300000001
  0
ARC
  5
190C
330
1A
100
AcDbEntity
  8
170
  6
PHANTOM2
100
AcDbCircle
 10
232.1088971478727
 20
142.7868572517087
 30
0.0
 40
5.0
100
AcDbArc
 50
0.0
 51
180.000005
  0
LINE
  5
190D
330
1A
100
AcDbEntity
  8
150
  6
DASHED
100
AcDbLine
 10
192.6504011478727
 20
189.2868572517087
 30
0.0
 11
192.6504011478727
 21
166.7868572517087
 31
0.0
  0
LINE
  5
190E
330
1A
100
AcDbEntity
  8
150
  6
DASHED
100
AcDbLine
 10
192.1088971478727
 20
189.2868572517087
 30
0.0
 11
192.1088971478727
 21
167.3283612517087
 31
0.0
  0
LINE
  5
190F
330
1A
100
AcDbEntity
  8
150
  6
DASHED
100
AcDbLine
 10
198.1088971478727
 20
189.2868572517087
 30
0.0
 11
198.1088971478727
 21
167.3283612517087
 31
0.0
  0
LINE
  5
1910
330
1A
100
AcDbEntity
  8
150
  6
DASHED
100
AcDbLine
 10
197.5673931478727
 20
189.2868572517087
 30
0.0
 11
197.5673931478727
 21
166.7868572517087
 31
0.0
  0
LINE
  5
1911
330
1A
100
AcDbEntity
  8
225
  6
CENTER
 62
     3
100
AcDbLine
 10
195.1088971478727
 20
201.2868572517087
 30
0.0
 11
195.1088971478727
 21
162.2868422517087
 31
0.0
  0
LINE
  5
1912
330
1A
100
AcDbEntity
  8
0
  6
CONTINUOUS
 62
     2
100
AcDbLine
 10
187.1088971478727
 20
175.2868572517087
 30
0.0
 11
187.1088971478727
 21
194.2868572517087
 31
0.0
  0
LINE
  5
1913
330
1A
100
AcDbEntity
  8
0
  6
CONTINUOUS
 62
     2
100
AcDbLine
 10
211.1088971478727
 20
175.2868572517087
 30
0.0
 11
187.1088971478727
 21
175.2868572517087
 31
0.0
  0
LINE
  5
1914
330
1A
100
AcDbEntity
  8
170
  6
PHANTOM2
100
AcDbLine
 10
207.1088971478727
 20
170.2868572517087
 30
0.0
 11
179.6088971478727
 21
170.2868572517087
 31
0.0
  0
LINE
  5
1915
330
1A
100
AcDbEntity
  8
170
  6
PHANTOM2
100
AcDbLine
 10
175.1088971478727
 20
165.7868572517087
 30
0.0
 11
175.1088971478727
 21
138.2868572517087
 31
0.0
  0
ARC
  5
1916
330
1A
100
AcDbEntity
  8
170
  6
PHANTOM2
100
AcDbCircle
 10
172.1088971478727
 20
138.2868572517087
 30
0.0
 40
3.0
100
AcDbArc
 50
270.0
 51
0.0000090000000252
  0
ARC
  5
1917
330
1A
100
AcDbEntity
  8
170
  6
PHANTOM2
100
AcDbCircle
 10
179.6088971478727
 20
165.7868572517087
 30
0.0
 40
4.5
100
AcDbArc
 50
90.0
 51
180.0000029999999
  0
LINE
  5
1918
330
1A
100
AcDbEntity
  8
150
  6
CENTER
100
AcDbLine
 10
192.6504011478727
 20
166.7868572517087
 30
0.0
 11
197.5673931478727
 21
166.7868572517087
 31
0.0
  0
LINE
  5
1919
330
1A
100
AcDbEntity
  8
150
  6
CENTER
100
AcDbLine
 10
192.1088971478727
 20
167.3283612517087
 30
0.0
 11
198.1088971478727
 21
167.3283612517087
 31
0.0
  0
LINE
  5
191A
330
1A
100
AcDbEntity
  8
150
  6
CENTER
100
AcDbLine
 10
192.1088971478727
 20
167.3283612517087
 30
0.0
 11
192.6504011478727
 21
166.7868572517087
 31
0.0
  0
LINE
  5
191B
330
1A
100
AcDbEntity
  8
150
  6
CONTINUOUS
100
AcDbLine
 10
192.1088971478727
 20
167.8868482517087
 30
0.0
 11
192.1088971478727
 21
175.2868572517087
 31
0.0
  0
LINE
  5
191C
330
1A
100
AcDbEntity
  8
150
  6
CENTER
100
AcDbLine
 10
198.1088971478727
 20
167.3283612517087
 30
0.0
 11
197.5673931478727
 21
166.7868572517087
 31
0.0
  0
ARC
  5
191D
330
1A
100
AcDbEntity
  8
0
  6
CONTINUOUS
 62
     2
100
AcDbCircle
 10
228.3118391478727
 20
147.2868572517087
 30
0.0
 40
2.0
100
AcDbArc
 50
90.0
 51
178.636068
  0
LINE
  5
191E
330
1A
100
AcDbEntity
  8
0
  6
CONTINUOUS
 62
     2
100
AcDbLine
 10
235.9059551478726
 20
149.2868572517087
 30
0.0
 11
228.3118391478727
 21
149.2868572517087
 31
0.0
  0
ARC
  5
191F
330
1A
100
AcDbEntity
  8
170
  6
PHANTOM2
100
AcDbCircle
 10
207.1088971478727
 20
173.2868572517087
 30
0.0
 40
3.0
100
AcDbArc
 50
270.0
 51
0.0000090000000252
  0
LINE
  5
1920
330
1A
100
AcDbEntity
  8
170
  6
PHANTOM2
100
AcDbLine
 10
210.1088971478727
 20
175.2868572517087
 30
0.0
 11
210.1088971478727
 21
173.2868572517087
 31
0.0
  0
LINE
  5
1921
330
1A
100
AcDbEntity
  8
0
  6
CONTINUOUS
 62
     2
100
AcDbLine
 10
189.1088971478727
 20
196.2868572517087
 30
0.0
 11
218.1088971478727
 21
196.2868572517087
 31
0.0
  0
ARC
  5
1922
330
1A
100
AcDbEntity
  8
150
  6
HIDDEN2
 62
     7
100
AcDbCircle
 10
188.1088971478727
 20
188.2868572517087
 30
0.0
 40
1.0
100
AcDbArc
 50
90.0
 51
180.0000029999999
  0
ARC
  5
1923
330
1A
100
AcDbEntity
  8
0
  6
CONTINUOUS
 62
     2
100
AcDbCircle
 10
189.1088971478727
 20
194.2868572517087
 30
0.0
 40
2.0
100
AcDbArc
 50
90.0
 51
180.0000029999999
  0
LINE
  5
1924
330
1A
100
AcDbEntity
  8
150
  6
DASHED
100
AcDbLine
 10
195.1088971478727
 20
186.5868452517087
 30
0.0
 11
195.1088971478727
 21
189.5868452517087
 31
0.0
  0
ARC
  5
1925
330
1A
100
AcDbEntity
  8
150
  6
HIDDEN2
100
AcDbCircle
 10
195.1088881478726
 20
181.7868642517087
 30
0.0
 40
14.0
100
AcDbArc
 50
74.681475
 51
105.318453
  0
LINE
  5
1926
330
1A
100
AcDbEntity
  8
150
  6
HIDDEN2
 62
     7
100
AcDbLine
 10
188.1088971478727
 20
189.2868572517087
 30
0.0
 11
202.1088971478727
 21
189.2868572517087
 31
0.0
  0
LINE
  5
1927
330
1A
100
AcDbEntity
  8
150
  6
HIDDEN2
100
AcDbLine
 10
189.0088911478727
 20
191.7868572517087
 30
0.0
 11
201.2089031478727
 21
191.7868572517087
 31
0.0
  0
LINE
  5
1928
330
1A
100
AcDbEntity
  8
150
  6
HIDDEN2
100
AcDbLine
 10
188.6088971478727
 20
190.2868572517087
 30
0.0
 11
201.6088971478727
 21
190.2868572517087
 31
0.0
  0
LINE
  5
1929
330
1A
100
AcDbEntity
  8
150
  6
HIDDEN2
100
AcDbLine
 10
195.8588971478727
 20
190.2868572517087
 30
0.0
 11
195.1088971478727
 21
191.7868572517087
 31
0.0
  0
LINE
  5
192A
330
1A
100
AcDbEntity
  8
230
  6
CONTINUOUS
100
AcDbLine
 10
192.3404411478727
 20
195.5104102517087
 30
0.0
 11
192.1266861478727
 21
197.4989542517088
 31
0.0
  0
LINE
  5
192B
330
1A
100
AcDbEntity
  8
230
  6
CONTINUOUS
100
AcDbLine
 10
192.3404411478727
 20
195.5104102517087
 30
0.0
 11
191.4849851478726
 21
197.3182242517087
 31
0.0
  0
LINE
  5
192C
330
1A
100
AcDbEntity
  8
150
  6
HIDDEN2
100
AcDbLine
 10
189.8588971478727
 20
191.7868572517087
 30
0.0
 11
190.0195111478726
 21
193.6225502517087
 31
0.0
  0
ARC
  5
192D
330
1A
100
AcDbEntity
  8
150
  6
HIDDEN2
100
AcDbCircle
 10
191.9122701478727
 20
193.4569702517087
 30
0.0
 40
1.9
100
AcDbArc
 50
105.31845
 51
175.0000399999999
  0
LINE
  5
192E
330
1A
100
AcDbEntity
  8
150
  6
HIDDEN2
100
AcDbLine
 10
189.0088911478727
 20
190.2868572517087
 30
0.0
 11
189.0088911478727
 21
191.7868572517087
 31
0.0
  0
LINE
  5
192F
330
1A
100
AcDbEntity
  8
150
  6
HIDDEN2
100
AcDbLine
 10
188.6088971478727
 20
189.2868572517087
 30
0.0
 11
188.6088971478727
 21
190.2868572517087
 31
0.0
  0
LINE
  5
1930
330
1A
100
AcDbEntity
  8
150
  6
HIDDEN2
100
AcDbLine
 10
195.1088971478727
 20
190.2868572517087
 30
0.0
 11
194.3588971478727
 21
191.7868572517087
 31
0.0
  0
LINE
  5
1931
330
1A
100
AcDbEntity
  8
150
  6
HIDDEN2
 62
     7
100
AcDbLine
 10
202.1088971478727
 20
195.2868572517087
 30
0.0
 11
202.1088971478727
 21
189.2868572517087
 31
0.0
  0
LINE
  5
1932
330
1A
100
AcDbEntity
  8
150
  6
HIDDEN2
100
AcDbLine
 10
200.3588971478726
 20
191.7868572517087
 30
0.0
 11
200.1983131478726
 21
193.6225502517087
 31
0.0
  0
ARC
  5
1933
330
1A
100
AcDbEntity
  8
150
  6
HIDDEN2
100
AcDbCircle
 10
198.3055201478727
 20
193.4569672517087
 30
0.0
 40
1.9
100
AcDbArc
 50
4.999912999999999
 51
74.681475
  0
LINE
  5
1934
330
1A
100
AcDbEntity
  8
150
  6
HIDDEN2
100
AcDbLine
 10
201.6088971478727
 20
189.2868572517087
 30
0.0
 11
201.6088971478727
 21
190.2868572517087
 31
0.0
  0
LINE
  5
1935
330
1A
100
AcDbEntity
  8
150
  6
HIDDEN2
100
AcDbLine
 10
201.2089031478727
 20
190.2868572517087
 30
0.0
 11
201.2089031478727
 21
191.7868572517087
 31
0.0
  0
ARC
  5
1936
330
1A
100
AcDbEntity
  8
150
  6
HIDDEN2
 62
     7
100
AcDbCircle
 10
203.1088971478727
 20
195.2868572517087
 30
0.0
 40
1.0
100
AcDbArc
 50
90.0
 51
180.0000029999999
  0
LINE
  5
1937
330
1A
100
AcDbEntity
  8
150
  6
CONTINUOUS
 62
     7
100
AcDbLine
 10
218.1088971478726
 20
196.2868572517087
 30
0.0
 11
227.1088971478727
 21
196.2868572517087
 31
0.0
  0
LINE
  5
1938
330
1A
100
AcDbEntity
  8
150
  6
CONTINUOUS
 62
     7
100
AcDbLine
 10
227.1088971478727
 20
196.2868572517087
 30
0.0
 11
227.1088971478727
 21
178.2868572517087
 31
0.0
  0
ARC
  5
1939
330
1A
100
AcDbEntity
  8
0
  6
CONTINUOUS
 62
     2
100
AcDbCircle
 10
298.3118391478727
 20
147.2868572517087
 30
0.0
 40
2.0
100
AcDbArc
 50
90.0
 51
178.636068
  0
LINE
  5
193C
330
1A
100
AcDbEntity
  8
150
  6
CONTINUOUS
 62
     7
100
AcDbLine
 10
229.6088971478727
 20
294.7868572517088
 30
0.0
 11
250.2088731478727
 21
294.7868572517088
 31
0.0
  0
LINE
  5
193D
330
1A
100
AcDbEntity
  8
0
  6
CONTINUOUS
 62
     2
100
AcDbLine
 10
224.6088971478727
 20
296.7868572517088
 30
0.0
 11
250.2088731478727
 21
296.7868572517088
 31
0.0
  0
LINE
  5
193E
330
1A
100
AcDbEntity
  8
0
  6
CONTINUOUS
 62
     2
100
AcDbLine
 10
237.6588851478727
 20
296.7868572517088
 30
0.0
 11
224.6088971478727
 21
296.7868572517088
 31
0.0
  0
LINE
  5
193F
330
1A
100
AcDbEntity
  8
0
  6
CONTINUOUS
 62
     2
100
AcDbLine
 10
222.6088971478727
 20
294.7868572517088
 30
0.0
 11
222.6088971478727
 21
236.2868572517088
 31
0.0
  0
LINE
  5
1940
330
1A
100
AcDbEntity
  8
150
  6
HIDDEN2
 62
     7
100
AcDbLine
 10
224.6088971478727
 20
293.7868572517087
 30
0.0
 11
224.6088971478727
 21
233.7868572517087
 31
0.0
  0
LINE
  5
1941
330
1A
100
AcDbEntity
  8
150
  6
CONTINUOUS
 62
     7
100
AcDbLine
 10
229.6088971478727
 20
233.7868572517087
 30
0.0
 11
229.6088971478727
 21
296.7868572517088
 31
0.0
  0
LINE
  5
1943
330
1A
100
AcDbEntity
  8
0
  6
CONTINUOUS
 62
     2
100
AcDbLine
 10
219.1088971478726
 20
236.7868572517088
 30
0.0
 11
222.6088971478727
 21
236.7868572517088
 31
0.0
  0
ARC
  5
1944
330
1A
100
AcDbEntity
  8
0
  6
CONTINUOUS
 62
     2
100
AcDbCircle
 10
219.1088971478726
 20
235.7868572517087
 30
0.0
 40
1.0
100
AcDbArc
 50
90.0
 51
180.0000029999999
  0
LINE
  5
1945
330
1A
100
AcDbEntity
  8
150
  6
CONTINUOUS
 62
     7
100
AcDbLine
 10
222.6088971478727
 20
236.7868572517088
 30
0.0
 11
222.6088971478727
 21
233.7868572517087
 31
0.0
  0
LINE
  5
1946
330
1A
100
AcDbEntity
  8
230
  6
CONTINUOUS
 62
     6
100
AcDbLine
 10
222.6089051478727
 20
286.1453582517087
 30
0.0
 11
221.7361611478726
 21
287.9448912517087
 31
0.0
  0
LINE
  5
1947
330
1A
100
AcDbEntity
  8
230
  6
CONTINUOUS
 62
     6
100
AcDbLine
 10
222.6089051478727
 20
286.1453582517087
 30
0.0
 11
221.1931931478726
 21
287.5580722517087
 31
0.0
  0
LINE
  5
1948
330
1A
100
AcDbEntity
  8
150
  6
HIDDEN2
 62
     7
100
AcDbLine
 10
225.6088971478727
 20
294.7868572517088
 30
0.0
 11
229.6088971478727
 21
294.7868572517088
 31
0.0
  0
ARC
  5
1949
330
1A
100
AcDbEntity
  8
0
  6
CONTINUOUS
 62
     2
100
AcDbCircle
 10
224.6088971478727
 20
294.7868572517088
 30
0.0
 40
2.0
100
AcDbArc
 50
90.0
 51
180.0000029999999
  0
ARC
  5
194A
330
1A
100
AcDbEntity
  8
150
  6
CONTINUOUS
 62
     7
100
AcDbCircle
 10
225.6088971478727
 20
293.7868572517087
 30
0.0
 40
1.0
100
AcDbArc
 50
90.0
 51
180.0000029999999
  0
LINE
  5
194D
330
1A
100
AcDbEntity
  8
0
  6
CONTINUOUS
 62
     2
100
AcDbLine
 10
247.9588731478727
 20
299.2868572517087
 30
0.0
 11
238.8588971478727
 21
299.2868572517087
 31
0.0
  0
LINE
  5
194E
330
1A
100
AcDbEntity
  8
150
  6
CONTINUOUS
 62
     7
100
AcDbLine
 10
247.6588851478727
 20
298.0868452517087
 30
0.0
 11
239.1588851478727
 21
298.0868452517087
 31
0.0
  0
LINE
  5
194F
330
1A
100
AcDbEntity
  8
0
  6
CONTINUOUS
 62
     2
100
AcDbLine
 10
237.6588851478727
 20
296.7868572517088
 30
0.0
 11
237.6588851478727
 21
298.0868452517087
 31
0.0
  0
ARC
  5
1950
330
1A
100
AcDbEntity
  8
0
  6
CONTINUOUS
 62
     2
100
AcDbCircle
 10
238.8588971478727
 20
298.0868452517087
 30
0.0
 40
1.199999999999999
100
AcDbArc
 50
90.0
 51
180.0000029999999
  0
LINE
  5
1951
330
1A
100
AcDbEntity
  8
150
  6
CONTINUOUS
 62
     7
100
AcDbLine
 10
239.1588851478727
 20
296.7868572517088
 30
0.0
 11
239.1588851478727
 21
298.0868452517087
 31
0.0
  0
LINE
  5
1952
330
1A
100
AcDbEntity
  8
0
  6
CONTINUOUS
 62
     2
100
AcDbLine
 10
249.1588851478727
 20
298.0868452517087
 30
0.0
 11
249.1588851478727
 21
296.7868572517088
 31
0.0
  0
ARC
  5
1953
330
1A
100
AcDbEntity
  8
0
  6
CONTINUOUS
 62
     2
100
AcDbCircle
 10
247.9588731478727
 20
298.0868452517087
 30
0.0
 40
1.199999999999999
100
AcDbArc
 50
359.999995
 51
89.99999700000001
  0
LINE
  5
1954
330
1A
100
AcDbEntity
  8
0
  6
CONTINUOUS
 62
     2
100
AcDbLine
 10
250.2088731478727
 20
294.7868572517088
 30
0.0
 11
250.2088731478727
 21
296.7868572517088
 31
0.0
  0
LINE
  5
1955
330
1A
100
AcDbEntity
  8
150
  6
CONTINUOUS
 62
     7
100
AcDbLine
 10
247.6588851478727
 20
296.7868572517088
 30
0.0
 11
247.6588851478727
 21
298.0868452517087
 31
0.0
  0
ARC
  5
1956
330
1A
100
AcDbEntity
  8
0
  6
CONTINUOUS
 62
     2
100
AcDbCircle
 10
261.1088971478727
 20
300.7868572517088
 30
0.0
 40
1.0
100
AcDbArc
 50
90.0
 51
180.0000029999999
  0
LINE
  5
1957
330
1A
100
AcDbEntity
  8
0
  6
CONTINUOUS
 62
     2
100
AcDbLine
 10
260.1088971478727
 20
300.7868572517088
 30
0.0
 11
260.1088971478727
 21
294.7868572517088
 31
0.0
  0
LINE
  5
1958
330
1A
100
AcDbEntity
  8
170
  6
PHANTOM2
100
AcDbLine
 10
256.1088971478727
 20
302.2868572517087
 30
0.0
 11
256.1088971478727
 21
300.2868572517087
 31
0.0
  0
ARC
  5
1959
330
1A
100
AcDbEntity
  8
0
  6
CONTINUOUS
 62
     2
100
AcDbCircle
 10
278.1088971478727
 20
304.7868572517088
 30
0.0
 40
1.0
100
AcDbArc
 50
90.0
 51
180.0000029999999
  0
LINE
  5
195A
330
1A
100
AcDbEntity
  8
0
  6
CONTINUOUS
 62
     2
100
AcDbLine
 10
277.1088971478727
 20
304.7868572517088
 30
0.0
 11
277.1088971478727
 21
301.7868572517087
 31
0.0
  0
LINE
  5
195D
330
1A
100
AcDbEntity
  8
0
  6
CONTINUOUS
 62
     2
100
AcDbLine
 10
290.0210061478727
 20
305.7868572517087
 30
0.0
 11
287.3589891478727
 21
315.5779952517087
 31
0.0
  0
LINE
  5
195F
330
1A
100
AcDbEntity
  8
0
  6
CONTINUOUS
 62
     2
100
AcDbLine
 10
381.1088971478726
 20
233.7868572517087
 30
0.0
 11
381.1088971478726
 21
196.2868572517087
 31
0.0
  0
ARC
  5
1961
330
1A
100
AcDbEntity
  8
0
  6
CONTINUOUS
 62
     2
100
AcDbCircle
 10
368.3118391478727
 20
147.2868572517087
 30
0.0
 40
2.0
100
AcDbArc
 50
90.0
 51
178.636068
  0
LINE
  5
1962
330
1A
100
AcDbEntity
  8
150
  6
CONTINUOUS
 62
     7
100
AcDbLine
 10
356.1088971478727
 20
196.2868572517087
 30
0.0
 11
381.1088971478728
 21
196.2868572517087
 31
0.0
  0
ARC
  5
1963
330
1A
100
AcDbEntity
  8
170
  6
PHANTOM2
100
AcDbCircle
 10
372.1088971478727
 20
142.7868572517087
 30
0.0
 40
5.0
100
AcDbArc
 50
359.999995
 51
180.0
  0
ARC
  5
1964
330
1A
100
AcDbEntity
  8
0
  6
CONTINUOUS
 62
     2
100
AcDbCircle
 10
305.9059551478727
 20
147.2868572517087
 30
0.0
 40
2.0
100
AcDbArc
 50
1.363928
 51
90.00000300000001
  0
LINE
  5
1967
330
1A
100
AcDbEntity
  8
150
  6
CONTINUOUS
 62
     7
100
AcDbLine
 10
356.1088971478727
 20
196.2868572517087
 30
0.0
 11
356.1088971478727
 21
178.2868572517087
 31
0.0
  0
LINE
  5
1968
330
1A
100
AcDbEntity
  8
150
  6
DASHED
 62
     7
100
AcDbLine
 10
406.6504011478727
 20
189.2868572517087
 30
0.0
 11
406.6504011478727
 21
166.7868572517087
 31
0.0
  0
LINE
  5
1969
330
1A
100
AcDbEntity
  8
150
  6
DASHED
 62
     7
100
AcDbLine
 10
406.1088971478727
 20
189.2868572517087
 30
0.0
 11
406.1088971478727
 21
167.3283612517087
 31
0.0
  0
LINE
  5
196A
330
1A
100
AcDbEntity
  8
150
  6
DASHED
 62
     7
100
AcDbLine
 10
412.1088971478727
 20
189.2868572517087
 30
0.0
 11
412.1088971478727
 21
167.3283612517087
 31
0.0
  0
LINE
  5
196B
330
1A
100
AcDbEntity
  8
150
  6
DASHED
 62
     7
100
AcDbLine
 10
411.5673931478727
 20
189.2868572517087
 30
0.0
 11
411.5673931478727
 21
166.7868572517087
 31
0.0
  0
LINE
  5
196C
330
1A
100
AcDbEntity
  8
0
  6
CONTINUOUS
 62
     2
100
AcDbLine
 10
417.1088971478726
 20
175.2868572517087
 30
0.0
 11
417.1088971478726
 21
194.2868572517087
 31
0.0
  0
LINE
  5
196D
330
1A
100
AcDbEntity
  8
225
  6
CENTER
 62
     3
100
AcDbLine
 10
409.1088971478726
 20
201.2868572517087
 30
0.0
 11
409.1088971478726
 21
162.2868572517087
 31
0.0
  0
LINE
  5
196E
330
1A
100
AcDbEntity
  8
0
  6
CONTINUOUS
 62
     2
100
AcDbLine
 10
393.1088971478727
 20
175.2868572517087
 30
0.0
 11
417.1088971478726
 21
175.2868572517087
 31
0.0
  0
LINE
  5
196F
330
1A
100
AcDbEntity
  8
170
  6
PHANTOM2
100
AcDbLine
 10
397.1089271478727
 20
170.2868572517087
 30
0.0
 11
424.6089271478727
 21
170.2868572517087
 31
0.0
  0
LINE
  5
1970
330
1A
100
AcDbEntity
  8
0
  6
CONTINUOUS
 62
     2
100
AcDbLine
 10
375.9059551478727
 20
149.2868572517087
 30
0.0
 11
368.3118391478727
 21
149.2868572517087
 31
0.0
  0
ARC
  5
1972
330
1A
100
AcDbEntity
  8
0
  6
CONTINUOUS
 62
     2
100
AcDbCircle
 10
375.9059551478727
 20
147.2868572517087
 30
0.0
 40
2.0
100
AcDbArc
 50
1.363928
 51
90.00000300000001
  0
ARC
  5
1973
330
1A
100
AcDbEntity
  8
170
  6
PHANTOM2
100
AcDbCircle
 10
397.1089271478727
 20
173.2868572517087
 30
0.0
 40
3.0
100
AcDbArc
 50
180.000005
 51
270.000001
  0
LINE
  5
1974
330
1A
100
AcDbEntity
  8
170
  6
PHANTOM2
100
AcDbLine
 10
394.1089271478726
 20
175.2868572517087
 30
0.0
 11
394.1089271478726
 21
173.2868572517087
 31
0.0
  0
LINE
  5
1975
330
1A
100
AcDbEntity
  8
170
  6
PHANTOM2
100
AcDbLine
 10
429.1089271478726
 20
165.7868572517087
 30
0.0
 11
429.1089271478726
 21
138.2868572517087
 31
0.0
  0
ARC
  5
1976
330
1A
100
AcDbEntity
  8
170
  6
PHANTOM2
100
AcDbCircle
 10
432.1089271478727
 20
138.2868572517087
 30
0.0
 40
3.0
100
AcDbArc
 50
180.000005
 51
270.000001
  0
LINE
  5
1977
330
1A
100
AcDbEntity
  8
150
  6
PHANTOM2
 62
     7
100
AcDbLine
 10
412.1088971478727
 20
167.3283612517087
 30
0.0
 11
406.1088971478727
 21
167.3283612517087
 31
0.0
  0
LINE
  5
1978
330
1A
100
AcDbEntity
  8
150
  6
PHANTOM2
 62
     7
100
AcDbLine
 10
411.5673931478727
 20
166.7868572517087
 30
0.0
 11
406.6504011478727
 21
166.7868572517087
 31
0.0
  0
LINE
  5
1979
330
1A
100
AcDbEntity
  8
150
  6
PHANTOM2
 62
     7
100
AcDbLine
 10
406.1088971478727
 20
167.3283612517087
 30
0.0
 11
406.6504011478727
 21
166.7868572517087
 31
0.0
  0
LINE
  5
197A
330
1A
100
AcDbEntity
  8
150
  6
PHANTOM2
 62
     7
100
AcDbLine
 10
412.1088971478727
 20
167.3283612517087
 30
0.0
 11
411.5673931478727
 21
166.7868572517087
 31
0.0
  0
ARC
  5
197B
330
1A
100
AcDbEntity
  8
170
  6
PHANTOM2
100
AcDbCircle
 10
424.6089271478727
 20
165.7868572517087
 30
0.0
 40
4.5
100
AcDbArc
 50
0.0
 51
90.00000300000001
  0
LINE
  5
197C
330
1A
100
AcDbEntity
  8
0
  6
CONTINUOUS
 62
     2
100
AcDbLine
 10
381.1088971478726
 20
196.2868572517087
 30
0.0
 11
415.1088971478727
 21
196.2868572517087
 31
0.0
  0
ARC
  5
197D
330
1A
100
AcDbEntity
  8
150
  6
HIDDEN2
 62
     7
100
AcDbCircle
 10
416.1088971478727
 20
188.2868572517087
 30
0.0
 40
1.0
100
AcDbArc
 50
359.999995
 51
89.99999700000001
  0
ARC
  5
197E
330
1A
100
AcDbEntity
  8
0
  6
CONTINUOUS
 62
     2
100
AcDbCircle
 10
415.1088971478727
 20
194.2868572517087
 30
0.0
 40
2.0
100
AcDbArc
 50
359.999995
 51
89.99999700000001
  0
LINE
  5
1980
330
1A
100
AcDbEntity
  8
150
  6
HIDDEN2
 62
     7
100
AcDbLine
 10
416.1088971478727
 20
189.2868572517087
 30
0.0
 11
402.1088971478727
 21
189.2868572517087
 31
0.0
  0
LINE
  5
1981
330
1A
100
AcDbEntity
  8
150
  6
HIDDEN2
 62
     7
100
AcDbLine
 10
408.3588971478727
 20
190.2868572517087
 30
0.0
 11
409.1088971478726
 21
191.7868572517087
 31
0.0
  0
LINE
  5
1982
330
1A
100
AcDbEntity
  8
150
  6
HIDDEN2
 62
     7
100
AcDbLine
 10
415.6088971478727
 20
190.2868572517087
 30
0.0
 11
402.6088971478727
 21
190.2868572517087
 31
0.0
  0
ARC
  5
1983
330
1A
100
AcDbEntity
  8
150
  6
HIDDEN2
 62
     7
100
AcDbCircle
 10
409.1089061478727
 20
181.7868632517087
 30
0.0
 40
14.0
100
AcDbArc
 50
74.68154699999999
 51
105.318525
  0
LINE
  5
1984
330
1A
100
AcDbEntity
  8
150
  6
HIDDEN2
 62
     7
100
AcDbLine
 10
415.2089031478726
 20
191.7868572517087
 30
0.0
 11
403.0088911478726
 21
191.7868572517087
 31
0.0
  0
LINE
  5
1985
330
1A
100
AcDbEntity
  8
150
  6
HIDDEN2
 62
     7
100
AcDbLine
 10
402.1088971478727
 20
195.2868572517087
 30
0.0
 11
402.1088971478727
 21
189.2868572517087
 31
0.0
  0
LINE
  5
1986
330
1A
100
AcDbEntity
  8
150
  6
HIDDEN2
 62
     7
100
AcDbLine
 10
403.0088911478726
 20
190.2868572517087
 30
0.0
 11
403.0088911478726
 21
191.7868572517087
 31
0.0
  0
LINE
  5
1987
330
1A
100
AcDbEntity
  8
150
  6
HIDDEN2
 62
     7
100
AcDbLine
 10
402.6088971478727
 20
189.2868572517087
 30
0.0
 11
402.6088971478727
 21
190.2868572517087
 31
0.0
  0
ARC
  5
1988
330
1A
100
AcDbEntity
  8
150
  6
HIDDEN2
 62
     7
100
AcDbCircle
 10
405.9122741478726
 20
193.4569672517087
 30
0.0
 40
1.9
100
AcDbArc
 50
105.318525
 51
175.000087
  0
LINE
  5
1989
330
1A
100
AcDbEntity
  8
150
  6
HIDDEN2
 62
     7
100
AcDbLine
 10
403.8588971478727
 20
191.7868572517087
 30
0.0
 11
404.0194801478727
 21
193.6225502517087
 31
0.0
  0
ARC
  5
198A
330
1A
100
AcDbEntity
  8
150
  6
HIDDEN2
 62
     7
100
AcDbCircle
 10
401.1088971478726
 20
195.2868572517087
 30
0.0
 40
1.0
100
AcDbArc
 50
359.999995
 51
89.99999700000001
  0
LINE
  5
198B
330
1A
100
AcDbEntity
  8
150
  6
HIDDEN2
 62
     7
100
AcDbLine
 10
409.1088971478726
 20
190.2868572517087
 30
0.0
 11
409.8588971478727
 21
191.7868572517087
 31
0.0
  0
LINE
  5
198C
330
1A
100
AcDbEntity
  8
150
  6
HIDDEN2
 62
     7
100
AcDbLine
 10
415.6088971478727
 20
189.2868572517087
 30
0.0
 11
415.6088971478727
 21
190.2868572517087
 31
0.0
  0
LINE
  5
198D
330
1A
100
AcDbEntity
  8
150
  6
HIDDEN2
 62
     7
100
AcDbLine
 10
415.2089031478726
 20
190.2868572517087
 30
0.0
 11
415.2089031478726
 21
191.7868572517087
 31
0.0
  0
ARC
  5
198E
330
1A
100
AcDbEntity
  8
150
  6
HIDDEN2
 62
     7
100
AcDbCircle
 10
412.3055241478726
 20
193.4569702517087
 30
0.0
 40
1.9
100
AcDbArc
 50
4.999959999999999
 51
74.68155
  0
LINE
  5
198F
330
1A
100
AcDbEntity
  8
150
  6
HIDDEN2
 62
     7
100
AcDbLine
 10
414.3588971478727
 20
191.7868572517087
 30
0.0
 11
414.1982831478727
 21
193.6225502517087
 31
0.0
  0
ARC
  5
1990
330
1A
100
AcDbEntity
  8
150
  6
HIDDEN2
 62
     7
100
AcDbCircle
 10
369.1088971478727
 20
251.2868422517087
 30
0.0
 40
18.0
100
AcDbArc
 50
74.1885
 51
105.811429
  0
LINE
  5
1991
330
1A
100
AcDbEntity
  8
150
  6
PHANTOM2
 62
     7
100
AcDbLine
 10
354.0089211478727
 20
296.7868572517088
 30
0.0
 11
417.6088971478726
 21
296.7868572517088
 31
0.0
  0
LINE
  5
1992
330
1A
100
AcDbEntity
  8
0
  6
CONTINUOUS
 62
     2
100
AcDbLine
 10
344.1088971478727
 20
294.7868572517088
 30
0.0
 11
378.6088971478727
 21
294.7868572517088
 31
0.0
  0
LINE
  5
1993
330
1A
100
AcDbEntity
  8
150
  6
HIDDEN2
 62
     7
100
AcDbLine
 10
378.6088971478727
 20
257.7868572517088
 30
0.0
 11
354.1088971478727
 21
257.7868572517088
 31
0.0
  0
LINE
  5
1994
330
1A
100
AcDbEntity
  8
150
  6
HIDDEN2
 62
     7
100
AcDbLine
 10
365.7854111478727
 20
249.8868632517087
 30
0.0
 11
372.4323831478727
 21
249.8868632517087
 31
0.0
  0
LINE
  5
1995
330
1A
100
AcDbEntity
  8
150
  6
HIDDEN2
 62
     7
100
AcDbLine
 10
365.1088971478727
 20
250.5633772517088
 30
0.0
 11
373.1088971478726
 21
250.5633772517088
 31
0.0
  0
LINE
  5
1996
330
1A
100
AcDbEntity
  8
150
  6
HIDDEN2
 62
     7
100
AcDbLine
 10
378.6088971478727
 20
255.1868512517088
 30
0.0
 11
354.1088971478727
 21
255.1868512517088
 31
0.0
  0
LINE
  5
1997
330
1A
100
AcDbEntity
  8
150
  6
HIDDEN2
 62
     7
100
AcDbLine
 10
378.1088971478727
 20
260.2868572517087
 30
0.0
 11
360.1088971478727
 21
260.2868572517087
 31
0.0
  0
LINE
  5
1998
330
1A
100
AcDbEntity
  8
150
  6
HIDDEN2
 62
     7
100
AcDbLine
 10
360.1088971478727
 20
261.8868632517088
 30
0.0
 11
378.1088971478727
 21
261.8868632517088
 31
0.0
  0
LINE
  5
1999
330
1A
100
AcDbEntity
  8
150
  6
HIDDEN2
 62
     7
100
AcDbLine
 10
361.4088851478726
 20
263.8868632517088
 30
0.0
 11
376.8089091478727
 21
263.8868632517088
 31
0.0
  0
LINE
  5
199B
330
1A
100
AcDbEntity
  8
150
  6
HIDDEN2
 62
     7
100
AcDbLine
 10
365.7854111478727
 20
260.2868572517087
 30
0.0
 11
365.7854111478727
 21
249.8868632517087
 31
0.0
  0
LINE
  5
199C
330
1A
100
AcDbEntity
  8
150
  6
HIDDEN2
 62
     7
100
AcDbLine
 10
365.1088971478727
 20
260.2868572517087
 30
0.0
 11
365.1088971478727
 21
250.5633772517088
 31
0.0
  0
LINE
  5
199D
330
1A
100
AcDbEntity
  8
150
  6
HIDDEN2
 62
     7
100
AcDbLine
 10
365.1088971478727
 20
250.5633772517088
 30
0.0
 11
365.7854111478727
 21
249.8868632517087
 31
0.0
  0
LINE
  5
199E
330
1A
100
AcDbEntity
  8
150
  6
HIDDEN2
 62
     7
100
AcDbLine
 10
360.1088971478727
 20
260.2868572517087
 30
0.0
 11
360.1088971478727
 21
261.8868632517088
 31
0.0
  0
LINE
  5
199F
330
1A
100
AcDbEntity
  8
150
  6
HIDDEN2
 62
     7
100
AcDbLine
 10
361.4088851478726
 20
261.8868632517088
 30
0.0
 11
361.4088851478726
 21
263.8868632517088
 31
0.0
  0
ARC
  5
19A0
330
1A
100
AcDbEntity
  8
150
  6
HIDDEN2
 62
     7
100
AcDbCircle
 10
364.9128301478727
 20
266.1041662517088
 30
0.0
 40
2.6
100
AcDbArc
 50
105.8114239999999
 51
174.999958
  0
LINE
  5
19A1
330
1A
100
AcDbEntity
  8
150
  6
HIDDEN2
 62
     7
100
AcDbLine
 10
362.1088971478727
 20
263.8868632517088
 30
0.0
 11
362.3227031478727
 21
266.3307722517087
 31
0.0
  0
ARC
  5
19A4
330
1A
100
AcDbEntity
  8
0
  6
CONTINUOUS
 62
     2
100
AcDbCircle
 10
326.1088971478727
 20
304.7868572517088
 30
0.0
 40
1.0
100
AcDbArc
 50
0.0
 51
90.00000300000001
  0
LINE
  5
19A5
330
1A
100
AcDbEntity
  8
0
  6
CONTINUOUS
 62
     2
100
AcDbLine
 10
327.1088971478727
 20
304.7868572517088
 30
0.0
 11
327.1088971478727
 21
301.7868572517087
 31
0.0
  0
ARC
  5
19A6
330
1A
100
AcDbEntity
  8
0
  6
CONTINUOUS
 62
     2
100
AcDbCircle
 10
343.1088971478727
 20
300.7868572517088
 30
0.0
 40
1.0
100
AcDbArc
 50
0.0
 51
90.00000300000001
  0
LINE
  5
19A7
330
1A
100
AcDbEntity
  8
0
  6
CONTINUOUS
 62
     2
100
AcDbLine
 10
344.1088971478727
 20
300.7868572517088
 30
0.0
 11
344.1088971478727
 21
294.7868572517088
 31
0.0
  0
LINE
  5
19A8
330
1A
100
AcDbEntity
  8
170
  6
PHANTOM2
100
AcDbLine
 10
348.1088971478726
 20
302.2868572517087
 30
0.0
 11
348.1088971478726
 21
300.2868572517087
 31
0.0
  0
LINE
  5
19A9
330
1A
100
AcDbEntity
  8
150
  6
CONTINUOUS
 62
     7
100
AcDbLine
 10
356.2589211478727
 20
299.2868572517087
 30
0.0
 11
365.3588971478727
 21
299.2868572517087
 31
0.0
  0
LINE
  5
19AA
330
1A
100
AcDbEntity
  8
150
  6
CONTINUOUS
 62
     7
100
AcDbLine
 10
356.5589091478727
 20
298.0868452517087
 30
0.0
 11
365.0589091478727
 21
298.0868452517087
 31
0.0
  0
ARC
  5
19AB
330
1A
100
AcDbEntity
  8
150
  6
CONTINUOUS
 62
     7
100
AcDbCircle
 10
356.2589211478727
 20
298.0868452517087
 30
0.0
 40
1.199999999999999
100
AcDbArc
 50
90.0
 51
180.0000029999999
  0
LINE
  5
19AC
330
1A
100
AcDbEntity
  8
150
  6
CONTINUOUS
 62
     7
100
AcDbLine
 10
355.0589091478727
 20
298.0868452517087
 30
0.0
 11
355.0589091478727
 21
296.7868572517088
 31
0.0
  0
LINE
  5
19AD
330
1A
100
AcDbEntity
  8
150
  6
CONTINUOUS
 62
     7
100
AcDbLine
 10
356.5589091478727
 20
296.7868572517088
 30
0.0
 11
356.5589091478727
 21
298.0868452517087
 31
0.0
  0
LINE
  5
19AE
330
1A
100
AcDbEntity
  8
150
  6
CONTINUOUS
 62
     7
100
AcDbLine
 10
354.0089211478727
 20
294.7868572517088
 30
0.0
 11
354.0089211478727
 21
296.7868572517088
 31
0.0
  0
ARC
  5
19AF
330
1A
100
AcDbEntity
  8
150
  6
CONTINUOUS
 62
     7
100
AcDbCircle
 10
365.3588971478727
 20
298.0868452517087
 30
0.0
 40
1.199999999999999
100
AcDbArc
 50
0.0
 51
90.00000300000001
  0
LINE
  5
19B0
330
1A
100
AcDbEntity
  8
150
  6
CONTINUOUS
 62
     7
100
AcDbLine
 10
366.5589091478727
 20
296.7868572517088
 30
0.0
 11
366.5589091478727
 21
298.0868452517087
 31
0.0
  0
LINE
  5
19B1
330
1A
100
AcDbEntity
  8
150
  6
CONTINUOUS
 62
     7
100
AcDbLine
 10
365.0589091478727
 20
296.7868572517088
 30
0.0
 11
365.0589091478727
 21
298.0868452517087
 31
0.0
  0
LINE
  5
19B2
330
1A
100
AcDbEntity
  8
230
  6
CONTINUOUS
 62
     6
100
AcDbLine
 10
372.0460846611444
 20
269.0455807511135
 30
0.0
 11
372.7434226594883
 21
270.9200730676064
 31
0.0
  0
LINE
  5
19B3
330
1A
100
AcDbEntity
  8
150
  6
PHANTOM2
 62
     7
100
AcDbLine
 10
419.6088971478727
 20
294.7868572517088
 30
0.0
 11
419.6088971478727
 21
236.2868572517088
 31
0.0
  0
LINE
  5
19B4
330
1A
100
AcDbEntity
  8
0
  6
CONTINUOUS
 62
     2
100
AcDbLine
 10
379.6088971478727
 20
293.7868572517087
 30
0.0
 11
379.6088971478727
 21
233.7868572517087
 31
0.0
  0
LINE
  5
19B5
330
1A
100
AcDbEntity
  8
150
  6
CONTINUOUS
 62
     7
100
AcDbLine
 10
374.6088971478727
 20
236.2868572517088
 30
0.0
 11
374.6088971478727
 21
296.7868572517088
 31
0.0
  0
LINE
  5
19B6
330
1A
100
AcDbEntity
  8
225
  6
CENTER
 62
     3
100
AcDbLine
 10
369.1088971478727
 20
239.8868632517088
 30
0.0
 11
369.1088971478727
 21
279.2868572517087
 31
0.0
  0
LINE
  5
19B7
330
1A
100
AcDbEntity
  8
150
  6
PHANTOM2
 62
     7
100
AcDbLine
 10
374.6088971478727
 20
236.2868572517088
 30
0.0
 11
419.6088971478727
 21
236.2868572517088
 31
0.0
  0
LINE
  5
19B8
330
1A
100
AcDbEntity
  8
150
  6
HIDDEN2
 62
     7
100
AcDbLine
 10
372.4323831478727
 20
260.2868572517087
 30
0.0
 11
372.4323831478727
 21
249.8868632517087
 31
0.0
  0
LINE
  5
19B9
330
1A
100
AcDbEntity
  8
150
  6
HIDDEN2
 62
     7
100
AcDbLine
 10
373.1088971478726
 20
260.2868572517087
 30
0.0
 11
373.1088971478726
 21
250.5633772517088
 31
0.0
  0
LINE
  5
19BA
330
1A
100
AcDbEntity
  8
150
  6
HIDDEN2
 62
     7
100
AcDbLine
 10
373.1088971478726
 20
250.5633772517088
 30
0.0
 11
372.4323831478727
 21
249.8868632517087
 31
0.0
  0
LINE
  5
19BB
330
1A
100
AcDbEntity
  8
150
  6
HIDDEN2
 62
     7
100
AcDbLine
 10
378.6088971478727
 20
257.7868572517088
 30
0.0
 11
378.6088971478727
 21
255.1868512517088
 31
0.0
  0
ARC
  5
19BC
330
1A
100
AcDbEntity
  8
150
  6
HIDDEN2
 62
     7
100
AcDbCircle
 10
373.3049801478727
 20
266.1041622517088
 30
0.0
 40
2.6
100
AcDbArc
 50
4.999967999999999
 51
74.1885
  0
LINE
  5
19BD
330
1A
100
AcDbEntity
  8
230
  6
CONTINUOUS
 62
     6
100
AcDbLine
 10
372.0460846611444
 20
269.0455807511135
 30
0.0
 11
373.3207728013021
 21
270.5867395074634
 31
0.0
  0
LINE
  5
19BE
330
1A
100
AcDbEntity
  8
150
  6
HIDDEN2
 62
     7
100
AcDbLine
 10
370.1088971478727
 20
261.8868632517088
 30
0.0
 11
369.1088971478727
 21
263.8868632517088
 31
0.0
  0
LINE
  5
19BF
330
1A
100
AcDbEntity
  8
150
  6
HIDDEN2
 62
     7
100
AcDbLine
 10
369.1088971478727
 20
261.8868632517088
 30
0.0
 11
368.1088971478727
 21
263.8868632517088
 31
0.0
  0
LINE
  5
19C0
330
1A
100
AcDbEntity
  8
150
  6
HIDDEN2
 62
     7
100
AcDbLine
 10
378.1088971478727
 20
260.2868572517087
 30
0.0
 11
378.1088971478727
 21
261.8868632517088
 31
0.0
  0
LINE
  5
19C1
330
1A
100
AcDbEntity
  8
150
  6
HIDDEN2
 62
     7
100
AcDbLine
 10
376.8089091478727
 20
261.8868632517088
 30
0.0
 11
376.8089091478727
 21
263.8868632517088
 31
0.0
  0
LINE
  5
19C2
330
1A
100
AcDbEntity
  8
150
  6
HIDDEN2
 62
     7
100
AcDbLine
 10
376.1088971478727
 20
263.8868632517088
 30
0.0
 11
375.8950911478726
 21
266.3307722517087
 31
0.0
  0
ARC
  5
19C3
330
1A
100
AcDbEntity
  8
0
  6
CONTINUOUS
 62
     2
100
AcDbCircle
 10
378.6088971478727
 20
293.7868572517087
 30
0.0
 40
1.0
100
AcDbArc
 50
0.0
 51
90.00000300000001
  0
LINE
  5
19C4
330
1A
100
AcDbEntity
  8
230
  6
CONTINUOUS
 62
     6
100
AcDbLine
 10
419.6088891478727
 20
289.6381562517087
 30
0.0
 11
431.9003650536179
 21
310.9276170204676
 31
0.0
  0
LINE
  5
19C5
330
1A
100
AcDbEntity
  8
230
  6
CONTINUOUS
 62
     6
100
AcDbLine
 10
419.6088891478727
 20
289.6381562517087
 30
0.0
 11
420.8835782188584
 21
291.1793145554159
 31
0.0
  0
LINE
  5
19C6
330
1A
100
AcDbEntity
  8
230
  6
CONTINUOUS
 62
     6
100
AcDbLine
 10
419.6088891478727
 20
289.6381562517087
 30
0.0
 11
420.3062278904211
 21
291.5126483650171
 31
0.0
  0
ARC
  5
19C7
330
1A
100
AcDbEntity
  8
150
  6
CONTINUOUS
 62
     7
100
AcDbCircle
 10
417.6088971478726
 20
294.7868572517088
 30
0.0
 40
2.0
100
AcDbArc
 50
0.0
 51
90.00000300000001
  0
LINE
  5
19C8
330
1A
100
AcDbEntity
  8
210
  6
CONTINUOUS
 62
     4
100
AcDbLine
 10
399.9216951478727
 20
422.5598792517088
 30
0.0
 11
146.0464051478727
 21
422.5598792517088
 31
0.0
  0
LINE
  5
19C9
330
1A
100
AcDbEntity
  8
210
  6
CONTINUOUS
 62
     4
100
AcDbLine
 10
185.9216951478726
 20
467.5598792517087
 30
0.0
 11
146.0464051478727
 21
467.5598792517087
 31
0.0
  0
LINE
  5
19CA
330
1A
100
AcDbEntity
  8
230
  6
CONTINUOUS
 62
     6
100
AcDbLine
 10
196.4584531478727
 20
322.8520842517088
 30
0.0
 11
166.9673951478727
 21
322.8520842517088
 31
0.0
  0
TEXT
  5
19CB
330
1A
100
AcDbEntity
  8
230
  6
CONTINUOUS
 62
     6
100
AcDbText
 10
166.4568971478727
 20
324.3380772517088
 30
0.0
 40
5.0
  1
標準装備
100
AcDbText
  0
LINE
  5
19CC
330
1A
100
AcDbEntity
  8
210
  6
CONTINUOUS
 62
     4
100
AcDbLine
 10
150.1089051478727
 20
467.5598792517087
 30
0.0
 11
150.1089051478727
 21
422.5598792517088
 31
0.0
  0
LINE
  5
19CD
330
1A
100
AcDbEntity
  8
210
  6
CONTINUOUS
 62
     4
100
AcDbLine
 10
150.1089051478727
 20
422.5598792517088
 30
0.0
 11
149.7755711478727
 21
424.5319052517087
 31
0.0
  0
LINE
  5
19CE
330
1A
100
AcDbEntity
  8
210
  6
CONTINUOUS
 62
     4
100
AcDbLine
 10
150.1089051478727
 20
422.5598792517088
 30
0.0
 11
150.4422381478726
 21
424.5319052517087
 31
0.0
  0
TEXT
  5
19CF
330
1A
100
AcDbEntity
  8
210
  6
CONTINUOUS
 62
     4
100
AcDbText
 10
146.9839051478727
 20
440.4348782517088
 30
0.0
 40
5.0
  1
45
 50
90.00000300000001
100
AcDbText
  0
TEXT
  5
19D0
330
1A
100
AcDbEntity
  8
230
 62
     6
100
AcDbText
 10
163.6981841478727
 20
442.0892972517087
 30
0.0
 40
5.0
  1
L
100
AcDbText
  0
TEXT
  5
19D1
330
1A
100
AcDbEntity
  8
230
 62
     6
100
AcDbText
 10
162.0413231478726
 20
443.2324862517088
 30
0.0
 40
5.0
  1
H
100
AcDbText
  0
LINE
  5
19D2
330
1A
100
AcDbEntity
  8
210
  6
CONTINUOUS
 62
     4
100
AcDbLine
 10
150.1089051478727
 20
467.5598792517087
 30
0.0
 11
149.7755711478727
 21
465.5878522517087
 31
0.0
  0
LINE
  5
19D3
330
1A
100
AcDbEntity
  8
210
  6
CONTINUOUS
 62
     4
100
AcDbLine
 10
150.1089051478727
 20
467.5598792517087
 30
0.0
 11
150.4422381478726
 21
465.5878522517087
 31
0.0
  0
LINE
  5
19D4
330
1A
100
AcDbEntity
  8
210
  6
CONTINUOUS
 62
     4
100
AcDbLine
 10
409.1088891478727
 20
431.7470432517088
 30
0.0
 11
409.1088891478727
 21
514.1224092517088
 31
0.0
  0
LINE
  5
19D5
330
1A
100
AcDbEntity
  8
210
  6
CONTINUOUS
 62
     4
100
AcDbLine
 10
195.1089051478727
 20
476.7470432517088
 30
0.0
 11
195.1089051478727
 21
514.1224092517088
 31
0.0
  0
LINE
  5
19D6
330
1A
100
AcDbEntity
  8
210
  6
CONTINUOUS
 62
     4
100
AcDbLine
 10
417.1089201478726
 20
487.0599092517088
 30
0.0
 11
417.1089201478726
 21
534.1223792517086
 31
0.0
  0
LINE
  5
19D7
330
1A
100
AcDbEntity
  8
210
  6
CONTINUOUS
 62
     4
100
AcDbLine
 10
187.1089051478727
 20
487.0599092517088
 30
0.0
 11
187.1089051478727
 21
534.1223792517086
 31
0.0
  0
TEXT
  5
19D8
330
1A
100
AcDbEntity
  8
230
 62
     6
100
AcDbText
 10
294.8916651478727
 20
498.9412872517087
 30
0.0
 40
5.0
  1
ASL
100
AcDbText
  0
TEXT
  5
19DB
330
1A
100
AcDbEntity
  8
230
 62
     6
100
AcDbText
 10
294.8916651478727
 20
328.6963232517088
 30
0.0
 40
5.0
  1
ASL
100
AcDbText
  0
LINE
  5
19DC
330
1A
100
AcDbEntity
  8
0
  6
CONTINUOUS
 62
     2
100
AcDbLine
 10
191.1088971478727
 20
400.0598672517088
 30
0.0
 11
413.1089271478726
 21
400.0598672517088
 31
0.0
  0
LINE
  5
19DD
330
1A
100
AcDbEntity
  8
0
  6
CONTINUOUS
 62
     2
100
AcDbLine
 10
191.1088971478727
 20
490.0598982517087
 30
0.0
 11
413.1089271478726
 21
490.0598982517087
 31
0.0
  0
LINE
  5
19DE
330
1A
100
AcDbEntity
  8
0
  6
CONTINUOUS
 62
     2
100
AcDbLine
 10
278.1088971478727
 20
456.0598672517088
 30
0.0
 11
326.1088971478727
 21
456.0598672517088
 31
0.0
  0
LINE
  5
19DF
330
1A
100
AcDbEntity
  8
0
  6
CONTINUOUS
 62
     2
100
AcDbLine
 10
278.1088971478727
 20
434.0598672517088
 30
0.0
 11
326.1088971478727
 21
434.0598672517088
 31
0.0
  0
LINE
  5
19E0
330
1A
100
AcDbEntity
  8
150
  6
CONTINUOUS
 62
     7
100
AcDbLine
 10
290.7089031478727
 20
437.8098672517088
 30
0.0
 11
319.8089091478727
 21
437.8098672517088
 31
0.0
  0
LINE
  5
19E1
330
1A
100
AcDbEntity
  8
150
  6
CONTINUOUS
 62
     7
100
AcDbLine
 10
290.7089031478727
 20
452.3098672517088
 30
0.0
 11
319.8089091478727
 21
452.3098672517088
 31
0.0
  0
LINE
  5
19E2
330
1A
100
AcDbEntity
  8
0
  6
CONTINUOUS
 62
     2
100
AcDbLine
 10
187.1088971478727
 20
404.0598672517088
 30
0.0
 11
187.1088971478727
 21
486.0598982517087
 31
0.0
  0
LINE
  5
19E3
330
1A
100
AcDbEntity
  8
0
  6
CONTINUOUS
 62
     2
100
AcDbLine
 10
218.1088971478727
 20
410.0598672517088
 30
0.0
 11
218.1088971478727
 21
407.0598672517088
 31
0.0
  0
LINE
  5
19E4
330
1A
100
AcDbEntity
  8
0
  6
CONTINUOUS
 62
     2
100
AcDbLine
 10
222.6088971478727
 20
488.0598982517088
 30
0.0
 11
222.6088971478727
 21
402.0598672517088
 31
0.0
  0
LINE
  5
19E5
330
1A
100
AcDbEntity
  8
150
  6
CONTINUOUS
 62
     7
100
AcDbLine
 10
250.2088731478727
 20
402.0598672517088
 30
0.0
 11
250.2088731478727
 21
421.8098672517088
 31
0.0
  0
LINE
  5
19E6
330
1A
100
AcDbEntity
  8
225
  6
CENTER
 62
     3
100
AcDbLine
 10
235.1088971478727
 20
405.5598672517088
 30
0.0
 11
235.1088971478727
 21
424.5598672517088
 31
0.0
  0
LINE
  5
19E7
330
1A
100
AcDbEntity
  8
150
  6
HIDDEN2
 62
     7
100
AcDbLine
 10
224.6088971478727
 20
488.0598982517088
 30
0.0
 11
224.6088971478727
 21
402.0598672517088
 31
0.0
  0
LINE
  5
19E8
330
1A
100
AcDbEntity
  8
0
  6
CONTINUOUS
 62
     2
100
AcDbLine
 10
260.1088971478727
 20
400.0598672517088
 30
0.0
 11
260.1088971478727
 21
490.0598982517087
 31
0.0
  0
CIRCLE
  5
19E9
330
1A
100
AcDbEntity
  8
150
  6
HIDDEN2
 62
     7
100
AcDbCircle
 10
235.1089231478727
 20
415.0598852517088
 30
0.0
 40
6.5
  0
LINE
  5
19EA
330
1A
100
AcDbEntity
  8
150
  6
HIDDEN2
 62
     7
100
AcDbLine
 10
243.3089091478727
 20
409.3098672517088
 30
0.0
 11
243.3089091478727
 21
420.8098672517088
 31
0.0
  0
TEXT
  5
19EB
330
1A
100
AcDbEntity
  8
230
  6
CONTINUOUS
 62
     6
100
AcDbText
 10
166.4832905136049
 20
331.4485022517088
 30
0.0
 40
5.0
  1
端子カバー
100
AcDbText
  0
LINE
  5
19EC
330
1A
100
AcDbEntity
  8
150
  6
HIDDEN2
 62
     7
100
AcDbLine
 10
240.3089091478727
 20
406.3098672517088
 30
0.0
 11
224.6088971478727
 21
406.3098672517088
 31
0.0
  0
ARC
  5
19F7
330
1A
100
AcDbEntity
  8
0
  6
CONTINUOUS
 62
     2
100
AcDbCircle
 10
191.1088971478727
 20
404.0598672517088
 30
0.0
 40
4.0
100
AcDbArc
 50
180.000005
 51
270.000001
  0
LINE
  5
19F8
330
1A
100
AcDbEntity
  8
0
  6
CONTINUOUS
 62
     2
100
AcDbLine
 10
222.6088971478727
 20
407.0598672517088
 30
0.0
 11
218.1088971478727
 21
407.0598672517088
 31
0.0
  0
LINE
  5
19F9
330
1A
100
AcDbEntity
  8
150
  6
HIDDEN2
 62
     7
100
AcDbLine
 10
225.6088971478727
 20
401.0598672517089
 30
0.0
 11
229.6088971478727
 21
401.0598672517089
 31
0.0
  0
ARC
  5
19FA
330
1A
100
AcDbEntity
  8
150
  6
HIDDEN2
 62
     7
100
AcDbCircle
 10
225.6088971478727
 20
402.0598672517088
 30
0.0
 40
1.0
100
AcDbArc
 50
179.9999899999999
 51
269.999999
  0
ARC
  5
19FB
330
1A
100
AcDbEntity
  8
0
  6
CONTINUOUS
 62
     2
100
AcDbCircle
 10
224.6088971478727
 20
402.0598672517088
 30
0.0
 40
2.0
100
AcDbArc
 50
180.000005
 51
270.000001
  0
LINE
  5
19FC
330
1A
100
AcDbEntity
  8
150
  6
HIDDEN2
 62
     7
100
AcDbLine
 10
229.6088971478727
 20
401.0598672517089
 30
0.0
 11
229.6088971478727
 21
400.0598672517088
 31
0.0
  0
ARC
  5
19FD
330
1A
100
AcDbEntity
  8
0
  6
CONTINUOUS
 62
     2
100
AcDbCircle
 10
293.1643171478727
 20
317.3201822517087
 30
0.0
 40
1.0
100
AcDbArc
 50
18.789857
 51
106.9998379999999
  0
ARC
  5
19FE
330
1A
100
AcDbEntity
  8
150
  6
HIDDEN2
 62
     7
100
AcDbCircle
 10
240.3089091478727
 20
409.3098672517088
 30
0.0
 40
3.0
100
AcDbArc
 50
270.0
 51
0.0000090000000252
  0
ARC
  5
19FF
330
1A
100
AcDbEntity
  8
150
  6
CONTINUOUS
 62
     7
100
AcDbCircle
 10
248.2088731478726
 20
402.0598672517088
 30
0.0
 40
2.0
100
AcDbArc
 50
270.0
 51
359.999995
  0
LINE
  5
1A00
330
1A
100
AcDbEntity
  8
150
  6
CONTINUOUS
 62
     7
100
AcDbLine
 10
231.6088971478726
 20
466.3098672517088
 30
0.0
 11
248.2088731478726
 21
466.3098672517088
 31
0.0
  0
LINE
  5
1A01
330
1A
100
AcDbEntity
  8
150
  6
CONTINUOUS
 62
     7
100
AcDbLine
 10
231.6088971478726
 20
423.8098672517088
 30
0.0
 11
248.2088731478726
 21
423.8098672517088
 31
0.0
  0
LINE
  5
1A02
330
1A
100
AcDbEntity
  8
150
  6
CONTINUOUS
 62
     7
100
AcDbLine
 10
231.6088971478726
 20
436.3098672517089
 30
0.0
 11
248.2088731478726
 21
436.3098672517089
 31
0.0
  0
LINE
  5
1A03
330
1A
100
AcDbEntity
  8
150
  6
CONTINUOUS
 62
     7
100
AcDbLine
 10
231.6088971478726
 20
453.8098672517088
 30
0.0
 11
248.2088731478726
 21
453.8098672517088
 31
0.0
  0
LINE
  5
1A04
330
1A
100
AcDbEntity
  8
225
  6
CENTER
 62
     3
100
AcDbLine
 10
229.6089271478726
 20
430.0598672517089
 30
0.0
 11
242.6089271478726
 21
430.0598672517089
 31
0.0
  0
LINE
  5
1A05
330
1A
100
AcDbEntity
  8
225
  6
CENTER
 62
     3
100
AcDbLine
 10
225.6089271478726
 20
415.0598672517088
 30
0.0
 11
244.6088971478727
 21
415.0598672517088
 31
0.0
  0
LINE
  5
1A06
330
1A
100
AcDbEntity
  8
225
  6
CENTER
 62
     3
100
AcDbLine
 10
225.6089271478726
 20
475.0598982517088
 30
0.0
 11
244.6088971478727
 21
475.0598982517088
 31
0.0
  0
CIRCLE
  5
1A07
330
1A
100
AcDbEntity
  8
150
  6
HIDDEN2
 62
     7
100
AcDbCircle
 10
235.1089191478727
 20
475.0598862517088
 30
0.0
 40
6.5
  0
CIRCLE
  5
1A08
330
1A
100
AcDbEntity
  8
150
  6
HIDDEN2
 62
     7
100
AcDbCircle
 10
235.1089191478727
 20
475.0598862517088
 30
0.0
 40
5.25
  0
LINE
  5
1A09
330
1A
100
AcDbEntity
  8
150
  6
HIDDEN2
 62
     7
100
AcDbLine
 10
236.8059491478727
 20
477.8175882517087
 30
0.0
 11
235.6392311478726
 21
476.6509012517088
 31
0.0
  0
LINE
  5
1A0A
330
1A
100
AcDbEntity
  8
150
  6
HIDDEN2
 62
     7
100
AcDbLine
 10
235.6392311478726
 20
473.4688642517087
 30
0.0
 11
236.8059491478727
 21
472.3021462517087
 31
0.0
  0
LINE
  5
1A0B
330
1A
100
AcDbEntity
  8
225
  6
CONTINUOUS
 62
     3
100
AcDbLine
 10
225.6089271478726
 20
445.0598672517088
 30
0.0
 11
244.6088971478727
 21
445.0598672517088
 31
0.0
  0
CIRCLE
  5
1A0C
330
1A
100
AcDbEntity
  8
150
  6
CONTINUOUS
 62
     7
100
AcDbCircle
 10
236.1089271478726
 20
430.0598672517089
 30
0.0
 40
4.5
  0
CIRCLE
  5
1A0D
330
1A
100
AcDbEntity
  8
150
  6
HIDDEN2
 62
     7
100
AcDbCircle
 10
235.1089211478726
 20
445.0598852517088
 30
0.0
 40
5.25
  0
CIRCLE
  5
1A0E
330
1A
100
AcDbEntity
  8
150
  6
HIDDEN2
 62
     7
100
AcDbCircle
 10
235.1089211478726
 20
445.0598852517088
 30
0.0
 40
6.5
  0
LINE
  5
1A0F
330
1A
100
AcDbEntity
  8
150
  6
HIDDEN2
 62
     7
100
AcDbLine
 10
235.6392311478726
 20
443.4688642517087
 30
0.0
 11
236.8059491478727
 21
442.3021462517087
 31
0.0
  0
LINE
  5
1A10
330
1A
100
AcDbEntity
  8
150
  6
HIDDEN2
 62
     7
100
AcDbLine
 10
236.8059491478727
 20
447.8175882517088
 30
0.0
 11
235.6392311478726
 21
446.6508712517087
 31
0.0
  0
CIRCLE
  5
1A11
330
1A
100
AcDbEntity
  8
150
  6
HIDDEN2
 62
     7
100
AcDbCircle
 10
235.1089231478727
 20
415.0598852517088
 30
0.0
 40
5.25
  0
LINE
  5
1A12
330
1A
100
AcDbEntity
  8
150
  6
HIDDEN2
 62
     7
100
AcDbLine
 10
235.6392311478726
 20
413.4688642517088
 30
0.0
 11
236.8059491478727
 21
412.3021462517087
 31
0.0
  0
LINE
  5
1A13
330
1A
100
AcDbEntity
  8
150
  6
HIDDEN2
 62
     7
100
AcDbLine
 10
236.8059491478727
 20
417.8175882517088
 30
0.0
 11
235.6392311478726
 21
416.6508712517087
 31
0.0
  0
LINE
  5
1A14
330
1A
100
AcDbEntity
  8
150
  6
HIDDEN2
 62
     7
100
AcDbLine
 10
240.3089091478727
 20
483.8098982517087
 30
0.0
 11
224.6088971478727
 21
483.8098982517087
 31
0.0
  0
LINE
  5
1A15
330
1A
100
AcDbEntity
  8
150
  6
CONTINUOUS
 62
     7
100
AcDbLine
 10
229.6088971478727
 20
464.3098672517088
 30
0.0
 11
229.6088971478727
 21
455.8098672517088
 31
0.0
  0
LINE
  5
1A16
330
1A
100
AcDbEntity
  8
150
  6
CONTINUOUS
 62
     7
100
AcDbLine
 10
229.6088971478727
 20
425.8098672517088
 30
0.0
 11
229.6088971478727
 21
434.3098672517088
 31
0.0
  0
LINE
  5
1A17
330
1A
100
AcDbEntity
  8
225
  6
CENTER
 62
     3
100
AcDbLine
 10
236.1088971478727
 20
423.5598672517088
 30
0.0
 11
236.1088971478727
 21
436.5598672517088
 31
0.0
  0
LINE
  5
1A18
330
1A
100
AcDbEntity
  8
0
  6
CONTINUOUS
 62
     2
100
AcDbLine
 10
218.1088971478727
 20
410.0598672517088
 30
0.0
 11
222.6088971478727
 21
410.0598672517088
 31
0.0
  0
LINE
  5
1A19
330
1A
100
AcDbEntity
  8
150
  6
HIDDEN2
 62
     7
100
AcDbLine
 10
233.4118451478727
 20
412.3021462517087
 30
0.0
 11
234.5785621478727
 21
413.4688642517088
 31
0.0
  0
LINE
  5
1A1A
330
1A
100
AcDbEntity
  8
150
  6
HIDDEN2
 62
     7
100
AcDbLine
 10
232.3511761478727
 20
413.3628152517087
 30
0.0
 11
233.4118451478727
 21
412.3021462517087
 31
0.0
  0
ARC
  5
1A1B
330
1A
100
AcDbEntity
  8
150
  6
HIDDEN2
 62
     7
100
AcDbCircle
 10
235.1089221478726
 20
412.9385642517087
 30
0.0
 40
0.75
100
AcDbArc
 50
44.999983
 51
134.999986
  0
ARC
  5
1A1C
330
1A
100
AcDbEntity
  8
150
  6
HIDDEN2
 62
     7
100
AcDbCircle
 10
232.9876021478726
 20
415.0598852517088
 30
0.0
 40
0.75
100
AcDbArc
 50
314.9999839999999
 51
44.99999300000006
  0
ARC
  5
1A1D
330
1A
100
AcDbEntity
  8
150
  6
HIDDEN2
 62
     7
100
AcDbCircle
 10
235.1089231478727
 20
417.1812052517088
 30
0.0
 40
0.75
100
AcDbArc
 50
224.999988
 51
314.9999839999999
  0
LINE
  5
1A1E
330
1A
100
AcDbEntity
  8
150
  6
HIDDEN2
 62
     7
100
AcDbLine
 10
233.5178941478726
 20
414.5295332517087
 30
0.0
 11
232.3511761478727
 21
413.3628152517087
 31
0.0
  0
LINE
  5
1A1F
330
1A
100
AcDbEntity
  8
150
  6
HIDDEN2
 62
     7
100
AcDbLine
 10
232.3511761478727
 20
416.7569192517087
 30
0.0
 11
233.5178941478726
 21
415.5902022517087
 31
0.0
  0
LINE
  5
1A20
330
1A
100
AcDbEntity
  8
150
  6
HIDDEN2
 62
     7
100
AcDbLine
 10
233.4118451478727
 20
417.8175882517088
 30
0.0
 11
232.3511761478727
 21
416.7569192517087
 31
0.0
  0
LINE
  5
1A21
330
1A
100
AcDbEntity
  8
150
  6
HIDDEN2
 62
     7
100
AcDbLine
 10
234.5785621478727
 20
416.6508712517087
 30
0.0
 11
233.4118451478727
 21
417.8175882517088
 31
0.0
  0
LINE
  5
1A22
330
1A
100
AcDbEntity
  8
150
  6
HIDDEN2
 62
     7
100
AcDbLine
 10
231.6088971478726
 20
423.8098672517088
 30
0.0
 11
224.6088971478727
 21
423.8098672517088
 31
0.0
  0
ARC
  5
1A23
330
1A
100
AcDbEntity
  8
150
  6
CONTINUOUS
 62
     7
100
AcDbCircle
 10
231.6088971478726
 20
425.8098672517088
 30
0.0
 40
2.0
100
AcDbArc
 50
179.9999899999999
 51
269.999999
  0
LINE
  5
1A24
330
1A
100
AcDbEntity
  8
225
  6
CENTER
 62
     3
100
AcDbLine
 10
235.1088971478727
 20
435.5598672517088
 30
0.0
 11
235.1088971478727
 21
454.5598672517088
 31
0.0
  0
LINE
  5
1A25
330
1A
100
AcDbEntity
  8
150
  6
HIDDEN2
 62
     7
100
AcDbLine
 10
233.5178941478726
 20
444.5295332517087
 30
0.0
 11
232.3511761478727
 21
443.3628152517087
 31
0.0
  0
LINE
  5
1A26
330
1A
100
AcDbEntity
  8
150
  6
HIDDEN2
 62
     7
100
AcDbLine
 10
231.6088971478726
 20
436.3098672517089
 30
0.0
 11
224.6088971478727
 21
436.3098672517089
 31
0.0
  0
ARC
  5
1A27
330
1A
100
AcDbEntity
  8
150
  6
CONTINUOUS
 62
     7
100
AcDbCircle
 10
231.6088971478726
 20
434.3098672517088
 30
0.0
 40
2.0
100
AcDbArc
 50
90.0
 51
180.0000029999999
  0
LINE
  5
1A28
330
1A
100
AcDbEntity
  8
150
  6
HIDDEN2
 62
     7
100
AcDbLine
 10
233.4118451478727
 20
442.3021462517087
 30
0.0
 11
234.5785621478727
 21
443.4688642517087
 31
0.0
  0
LINE
  5
1A29
330
1A
100
AcDbEntity
  8
150
  6
HIDDEN2
 62
     7
100
AcDbLine
 10
232.3511761478727
 20
443.3628152517087
 30
0.0
 11
233.4118451478727
 21
442.3021462517087
 31
0.0
  0
ARC
  5
1A2A
330
1A
100
AcDbEntity
  8
150
  6
HIDDEN2
 62
     7
100
AcDbCircle
 10
235.1089201478727
 20
442.9385652517088
 30
0.0
 40
0.75
100
AcDbArc
 50
44.999983
 51
134.999986
  0
LINE
  5
1A2B
330
1A
100
AcDbEntity
  8
150
  6
HIDDEN2
 62
     7
100
AcDbLine
 10
231.6088971478726
 20
453.8098672517088
 30
0.0
 11
224.6088971478727
 21
453.8098672517088
 31
0.0
  0
ARC
  5
1A2C
330
1A
100
AcDbEntity
  8
150
  6
CONTINUOUS
 62
     7
100
AcDbCircle
 10
231.6088971478726
 20
455.8098672517088
 30
0.0
 40
2.0
100
AcDbArc
 50
180.0
 51
270.0000029999999
  0
ARC
  5
1A2D
330
1A
100
AcDbEntity
  8
150
  6
HIDDEN2
 62
     7
100
AcDbCircle
 10
232.9876001478726
 20
445.0598862517088
 30
0.0
 40
0.75
100
AcDbArc
 50
314.9999839999999
 51
44.99999300000006
  0
ARC
  5
1A2E
330
1A
100
AcDbEntity
  8
150
  6
HIDDEN2
 62
     7
100
AcDbCircle
 10
235.1089211478726
 20
447.1812062517087
 30
0.0
 40
0.75
100
AcDbArc
 50
224.999988
 51
314.9999839999999
  0
LINE
  5
1A2F
330
1A
100
AcDbEntity
  8
150
  6
HIDDEN2
 62
     7
100
AcDbLine
 10
232.3511761478727
 20
446.7569192517087
 30
0.0
 11
233.5178941478726
 21
445.5902022517087
 31
0.0
  0
LINE
  5
1A30
330
1A
100
AcDbEntity
  8
150
  6
HIDDEN2
 62
     7
100
AcDbLine
 10
233.4118451478727
 20
447.8175882517088
 30
0.0
 11
232.3511761478727
 21
446.7569192517087
 31
0.0
  0
LINE
  5
1A31
330
1A
100
AcDbEntity
  8
150
  6
HIDDEN2
 62
     7
100
AcDbLine
 10
234.5785621478727
 20
446.6508712517087
 30
0.0
 11
233.4118451478727
 21
447.8175882517088
 31
0.0
  0
LINE
  5
1A32
330
1A
100
AcDbEntity
  8
225
  6
CENTER
 62
     3
100
AcDbLine
 10
204.1088971478727
 20
467.5598672517089
 30
0.0
 11
186.1088971478727
 21
467.5598672517089
 31
0.0
  0
ARC
  5
1A33
330
1A
100
AcDbEntity
  8
0
  6
CONTINUOUS
 62
     2
100
AcDbCircle
 10
188.1088971478727
 20
475.5598672517088
 30
0.0
 40
1.0
100
AcDbArc
 50
180.000005
 51
270.000001
  0
ARC
  5
1A34
330
1A
100
AcDbEntity
  8
0
  6
CONTINUOUS
 62
     2
100
AcDbCircle
 10
188.1088971478727
 20
459.5598672517088
 30
0.0
 40
1.0
100
AcDbArc
 50
90.0
 51
180.0000029999999
  0
CIRCLE
  5
1A35
330
1A
100
AcDbEntity
  8
150
  6
CENTER
100
AcDbCircle
 10
195.1089161478727
 20
467.5598792517087
 30
0.0
 40
6.5
  0
ARC
  5
1A36
330
1A
100
AcDbEntity
  8
150
  6
CENTER
100
AcDbCircle
 10
197.2302361478726
 20
467.5598782517087
 30
0.0
 40
0.75
100
AcDbArc
 50
134.999986
 51
224.999988
  0
ARC
  5
1A37
330
1A
100
AcDbEntity
  8
150
  6
CENTER
100
AcDbCircle
 10
192.9875951478726
 20
467.5598792517087
 30
0.0
 40
0.75
100
AcDbArc
 50
314.9999839999999
 51
44.99999300000006
  0
CIRCLE
  5
1A38
330
1A
100
AcDbEntity
  8
150
  6
CENTER
100
AcDbCircle
 10
195.1089161478727
 20
467.5598792517087
 30
0.0
 40
5.25
  0
ARC
  5
1A39
330
1A
100
AcDbEntity
  8
0
  6
CONTINUOUS
 62
     2
100
AcDbCircle
 10
195.1088971478727
 20
467.5598672517089
 30
0.0
 40
7.0
100
AcDbArc
 50
270.0
 51
89.99999100000005
  0
LINE
  5
1A3A
330
1A
100
AcDbEntity
  8
225
  6
CENTER
 62
     3
100
AcDbLine
 10
195.1088971478727
 20
476.5598372517088
 30
0.0
 11
195.1088971478727
 21
458.5598372517087
 31
0.0
  0
ARC
  5
1A3B
330
1A
100
AcDbEntity
  8
150
  6
CENTER
100
AcDbCircle
 10
195.1089151478727
 20
465.4385582517087
 30
0.0
 40
0.75
100
AcDbArc
 50
44.999983
 51
134.999986
  0
LINE
  5
1A3C
330
1A
100
AcDbEntity
  8
150
  6
CENTER
100
AcDbLine
 10
193.5178941478726
 20
467.0295332517087
 30
0.0
 11
192.3511761478727
 21
465.8628152517088
 31
0.0
  0
LINE
  5
1A3D
330
1A
100
AcDbEntity
  8
150
  6
CENTER
100
AcDbLine
 10
192.3511761478727
 20
465.8628152517088
 30
0.0
 11
193.4118451478727
 21
464.8021462517087
 31
0.0
  0
LINE
  5
1A3E
330
1A
100
AcDbEntity
  8
150
  6
CENTER
100
AcDbLine
 10
193.4118451478727
 20
464.8021462517087
 30
0.0
 11
194.5785621478727
 21
465.9688642517088
 31
0.0
  0
LINE
  5
1A3F
330
1A
100
AcDbEntity
  8
0
  6
CONTINUOUS
 62
     2
100
AcDbLine
 10
195.1088971478727
 20
460.5598672517088
 30
0.0
 11
188.1088971478727
 21
460.5598672517088
 31
0.0
  0
LINE
  5
1A40
330
1A
100
AcDbEntity
  8
150
  6
CENTER
100
AcDbLine
 10
196.8059491478727
 20
464.8021462517087
 30
0.0
 11
197.8666181478727
 21
465.8628152517088
 31
0.0
  0
LINE
  5
1A41
330
1A
100
AcDbEntity
  8
150
  6
CENTER
100
AcDbLine
 10
197.8666181478727
 20
465.8628152517088
 30
0.0
 11
196.6999001478727
 21
467.0295332517087
 31
0.0
  0
LINE
  5
1A42
330
1A
100
AcDbEntity
  8
150
  6
CENTER
100
AcDbLine
 10
195.6392311478726
 20
465.9688642517088
 30
0.0
 11
196.8059491478727
 21
464.8021462517087
 31
0.0
  0
ARC
  5
1A43
330
1A
100
AcDbEntity
  8
150
  6
CENTER
100
AcDbCircle
 10
195.1089161478727
 20
469.6811992517088
 30
0.0
 40
0.75
100
AcDbArc
 50
224.999988
 51
314.9999839999999
  0
LINE
  5
1A44
330
1A
100
AcDbEntity
  8
150
  6
CENTER
100
AcDbLine
 10
193.4118451478727
 20
470.3175882517087
 30
0.0
 11
192.3511761478727
 21
469.2569192517088
 31
0.0
  0
LINE
  5
1A45
330
1A
100
AcDbEntity
  8
150
  6
CENTER
100
AcDbLine
 10
194.5785621478727
 20
469.1508712517087
 30
0.0
 11
193.4118451478727
 21
470.3175882517087
 31
0.0
  0
LINE
  5
1A46
330
1A
100
AcDbEntity
  8
150
  6
CENTER
100
AcDbLine
 10
192.3511761478727
 20
469.2569192517088
 30
0.0
 11
193.5178941478726
 21
468.0902022517087
 31
0.0
  0
LINE
  5
1A47
330
1A
100
AcDbEntity
  8
0
  6
CONTINUOUS
 62
     2
100
AcDbLine
 10
195.1088971478727
 20
474.5598672517088
 30
0.0
 11
188.1088971478727
 21
474.5598672517088
 31
0.0
  0
LINE
  5
1A48
330
1A
100
AcDbEntity
  8
150
  6
CENTER
100
AcDbLine
 10
196.6999001478727
 20
468.0902022517087
 30
0.0
 11
197.8666181478727
 21
469.2569192517088
 31
0.0
  0
LINE
  5
1A49
330
1A
100
AcDbEntity
  8
150
  6
CENTER
100
AcDbLine
 10
196.8059491478727
 20
470.3175882517087
 30
0.0
 11
195.6392311478726
 21
469.1508712517087
 31
0.0
  0
LINE
  5
1A4A
330
1A
100
AcDbEntity
  8
150
  6
CENTER
100
AcDbLine
 10
197.8666181478727
 20
469.2569192517088
 30
0.0
 11
196.8059491478727
 21
470.3175882517087
 31
0.0
  0
ARC
  5
1A4B
330
1A
100
AcDbEntity
  8
0
  6
CONTINUOUS
 62
     2
100
AcDbCircle
 10
191.1088971478727
 20
486.0598982517087
 30
0.0
 40
4.0
100
AcDbArc
 50
90.0
 51
180.0000029999999
  0
LINE
  5
1A4C
330
1A
100
AcDbEntity
  8
225
  6
CENTER
 62
     3
100
AcDbLine
 10
235.1088971478727
 20
465.5598672517088
 30
0.0
 11
235.1088971478727
 21
484.5598982517087
 31
0.0
  0
LINE
  5
1A4D
330
1A
100
AcDbEntity
  8
150
  6
HIDDEN2
 62
     7
100
AcDbLine
 10
231.6088971478726
 20
466.3098672517088
 30
0.0
 11
224.6088971478727
 21
466.3098672517088
 31
0.0
  0
ARC
  5
1A4E
330
1A
100
AcDbEntity
  8
150
  6
CONTINUOUS
 62
     7
100
AcDbCircle
 10
231.6088971478726
 20
464.3098672517088
 30
0.0
 40
2.0
100
AcDbArc
 50
90.0
 51
180.000009
  0
LINE
  5
1A4F
330
1A
100
AcDbEntity
  8
150
  6
HIDDEN2
 62
     7
100
AcDbLine
 10
234.5785621478727
 20
476.6509012517088
 30
0.0
 11
233.4118451478727
 21
477.8175882517087
 31
0.0
  0
LINE
  5
1A50
330
1A
100
AcDbEntity
  8
150
  6
HIDDEN2
 62
     7
100
AcDbLine
 10
233.4118451478727
 20
477.8175882517087
 30
0.0
 11
232.3511761478727
 21
476.7569192517087
 31
0.0
  0
LINE
  5
1A51
330
1A
100
AcDbEntity
  8
150
  6
HIDDEN2
 62
     7
100
AcDbLine
 10
232.3511761478727
 20
476.7569192517087
 30
0.0
 11
233.5178941478726
 21
475.5902322517087
 31
0.0
  0
LINE
  5
1A52
330
1A
100
AcDbEntity
  8
150
  6
HIDDEN2
 62
     7
100
AcDbLine
 10
233.5178941478726
 20
474.5295332517087
 30
0.0
 11
232.3511761478727
 21
473.3628152517087
 31
0.0
  0
LINE
  5
1A53
330
1A
100
AcDbEntity
  8
150
  6
HIDDEN2
 62
     7
100
AcDbLine
 10
232.3511761478727
 20
473.3628152517087
 30
0.0
 11
233.4118451478727
 21
472.3021462517087
 31
0.0
  0
LINE
  5
1A54
330
1A
100
AcDbEntity
  8
150
  6
HIDDEN2
 62
     7
100
AcDbLine
 10
233.4118451478727
 20
472.3021462517087
 30
0.0
 11
234.5785621478727
 21
473.4688642517087
 31
0.0
  0
ARC
  5
1A55
330
1A
100
AcDbEntity
  8
150
  6
HIDDEN2
 62
     7
100
AcDbCircle
 10
235.1089201478727
 20
477.1812062517088
 30
0.0
 40
0.75
100
AcDbArc
 50
224.999988
 51
314.9999839999999
  0
ARC
  5
1A56
330
1A
100
AcDbEntity
  8
150
  6
HIDDEN2
 62
     7
100
AcDbCircle
 10
232.9875991478727
 20
475.0598872517087
 30
0.0
 40
0.75
100
AcDbArc
 50
314.9999839999999
 51
44.99999300000006
  0
ARC
  5
1A57
330
1A
100
AcDbEntity
  8
150
  6
HIDDEN2
 62
     7
100
AcDbCircle
 10
235.1089181478727
 20
472.9385662517088
 30
0.0
 40
0.75
100
AcDbArc
 50
44.999983
 51
134.999986
  0
LINE
  5
1A58
330
1A
100
AcDbEntity
  8
0
  6
CONTINUOUS
 62
     2
100
AcDbLine
 10
222.6088971478727
 20
480.0598672517089
 30
0.0
 11
218.1088971478727
 21
480.0598672517089
 31
0.0
  0
LINE
  5
1A59
330
1A
100
AcDbEntity
  8
0
  6
CONTINUOUS
 62
     2
100
AcDbLine
 10
218.1088971478727
 20
483.0598672517088
 30
0.0
 11
222.6088971478727
 21
483.0598672517088
 31
0.0
  0
LINE
  5
1A5A
330
1A
100
AcDbEntity
  8
0
  6
CONTINUOUS
 62
     2
100
AcDbLine
 10
218.1088971478727
 20
483.0598672517088
 30
0.0
 11
218.1088971478727
 21
480.0598672517089
 31
0.0
  0
LINE
  5
1A5B
330
1A
100
AcDbEntity
  8
150
  6
HIDDEN2
 62
     7
100
AcDbLine
 10
225.6088971478727
 20
489.0598982517087
 30
0.0
 11
229.6088971478727
 21
489.0598982517087
 31
0.0
  0
ARC
  5
1A5C
330
1A
100
AcDbEntity
  8
150
  6
HIDDEN2
 62
     7
100
AcDbCircle
 10
225.6088971478727
 20
488.0598982517088
 30
0.0
 40
1.0
100
AcDbArc
 50
90.0
 51
180.0000029999999
  0
ARC
  5
1A5D
330
1A
100
AcDbEntity
  8
0
  6
CONTINUOUS
 62
     2
100
AcDbCircle
 10
224.6088971478727
 20
488.0598982517088
 30
0.0
 40
2.0
100
AcDbArc
 50
90.0
 51
180.0000029999999
  0
LINE
  5
1A5E
330
1A
100
AcDbEntity
  8
150
  6
HIDDEN2
 62
     7
100
AcDbLine
 10
229.6088971478727
 20
490.0598982517087
 30
0.0
 11
229.6088971478727
 21
489.0598982517087
 31
0.0
  0
ARC
  5
1A5F
330
1A
100
AcDbEntity
  8
0
  6
CONTINUOUS
 62
     2
100
AcDbCircle
 10
278.1088971478727
 20
455.0598672517089
 30
0.0
 40
1.0
100
AcDbArc
 50
90.0
 51
180.0000029999999
  0
ARC
  5
1A60
330
1A
100
AcDbEntity
  8
150
  6
HIDDEN2
 62
     7
100
AcDbCircle
 10
240.3089091478727
 20
420.8098672517088
 30
0.0
 40
3.0
100
AcDbArc
 50
0.0
 51
90.00000300000001
  0
ARC
  5
1A61
330
1A
100
AcDbEntity
  8
150
  6
HIDDEN2
 62
     7
100
AcDbCircle
 10
237.2302431478727
 20
415.0598842517088
 30
0.0
 40
0.75
100
AcDbArc
 50
134.999986
 51
224.999988
  0
LINE
  5
1A62
330
1A
100
AcDbEntity
  8
150
  6
HIDDEN2
 62
     7
100
AcDbLine
 10
236.6999001478727
 20
415.5902022517087
 30
0.0
 11
237.8666181478727
 21
416.7569192517087
 31
0.0
  0
LINE
  5
1A63
330
1A
100
AcDbEntity
  8
150
  6
HIDDEN2
 62
     7
100
AcDbLine
 10
237.8666181478727
 20
413.3628152517087
 30
0.0
 11
236.6999001478727
 21
414.5295332517087
 31
0.0
  0
LINE
  5
1A64
330
1A
100
AcDbEntity
  8
150
  6
HIDDEN2
 62
     7
100
AcDbLine
 10
236.8059491478727
 20
412.3021462517087
 30
0.0
 11
237.8666181478727
 21
413.3628152517087
 31
0.0
  0
LINE
  5
1A65
330
1A
100
AcDbEntity
  8
150
  6
HIDDEN2
 62
     7
100
AcDbLine
 10
237.8666181478727
 20
416.7569192517087
 30
0.0
 11
236.8059491478727
 21
417.8175882517088
 31
0.0
  0
ARC
  5
1A66
330
1A
100
AcDbEntity
  8
150
  6
CONTINUOUS
 62
     7
100
AcDbCircle
 10
248.2088731478726
 20
421.8098672517088
 30
0.0
 40
2.0
100
AcDbArc
 50
359.999995
 51
89.99999700000001
  0
LINE
  5
1A67
330
1A
100
AcDbEntity
  8
150
  6
CONTINUOUS
 62
     7
100
AcDbLine
 10
250.2088731478727
 20
438.3098672517088
 30
0.0
 11
250.2088731478727
 21
451.8098672517088
 31
0.0
  0
LINE
  5
1A68
330
1A
100
AcDbEntity
  8
150
  6
HIDDEN2
 62
     7
100
AcDbLine
 10
237.8666181478727
 20
443.3628152517087
 30
0.0
 11
236.6999001478727
 21
444.5295332517087
 31
0.0
  0
LINE
  5
1A69
330
1A
100
AcDbEntity
  8
150
  6
HIDDEN2
 62
     7
100
AcDbLine
 10
243.3089091478727
 20
439.3098672517088
 30
0.0
 11
243.3089091478727
 21
450.8098672517088
 31
0.0
  0
ARC
  5
1A6A
330
1A
100
AcDbEntity
  8
150
  6
HIDDEN2
 62
     7
100
AcDbCircle
 10
240.3089091478727
 20
439.3098672517088
 30
0.0
 40
3.0
100
AcDbArc
 50
270.0
 51
0.0000090000000252
  0
LINE
  5
1A6B
330
1A
100
AcDbEntity
  8
150
  6
HIDDEN2
 62
     7
100
AcDbLine
 10
236.8059491478727
 20
442.3021462517087
 30
0.0
 11
237.8666181478727
 21
443.3628152517087
 31
0.0
  0
ARC
  5
1A6C
330
1A
100
AcDbEntity
  8
150
  6
CONTINUOUS
 62
     7
100
AcDbCircle
 10
248.2088731478726
 20
438.3098672517088
 30
0.0
 40
2.0
100
AcDbArc
 50
270.0
 51
359.999996
  0
ARC
  5
1A6D
330
1A
100
AcDbEntity
  8
150
  6
HIDDEN2
 62
     7
100
AcDbCircle
 10
240.3089091478727
 20
450.8098672517088
 30
0.0
 40
3.0
100
AcDbArc
 50
0.0
 51
90.00000300000001
  0
ARC
  5
1A6E
330
1A
100
AcDbEntity
  8
150
  6
HIDDEN2
 62
     7
100
AcDbCircle
 10
237.2302411478727
 20
445.0598852517088
 30
0.0
 40
0.75
100
AcDbArc
 50
134.999986
 51
224.999988
  0
LINE
  5
1A6F
330
1A
100
AcDbEntity
  8
150
  6
HIDDEN2
 62
     7
100
AcDbLine
 10
236.6999001478727
 20
445.5902022517087
 30
0.0
 11
237.8666181478727
 21
446.7569192517087
 31
0.0
  0
LINE
  5
1A70
330
1A
100
AcDbEntity
  8
150
  6
HIDDEN2
 62
     7
100
AcDbLine
 10
237.8666181478727
 20
446.7569192517087
 30
0.0
 11
236.8059491478727
 21
447.8175882517088
 31
0.0
  0
ARC
  5
1A71
330
1A
100
AcDbEntity
  8
150
  6
CONTINUOUS
 62
     7
100
AcDbCircle
 10
248.2088731478726
 20
451.8098672517088
 30
0.0
 40
2.0
100
AcDbArc
 50
0.000005
 51
90.00000099999999
  0
LINE
  5
1A72
330
1A
100
AcDbEntity
  8
0
  6
CONTINUOUS
 62
     2
100
AcDbLine
 10
277.1088971478727
 20
455.0598672517089
 30
0.0
 11
277.1088971478727
 21
435.0598672517088
 31
0.0
  0
ARC
  5
1A73
330
1A
100
AcDbEntity
  8
0
  6
CONTINUOUS
 62
     2
100
AcDbCircle
 10
278.1088971478727
 20
435.0598672517088
 30
0.0
 40
1.0
100
AcDbArc
 50
180.000005
 51
270.000001
  0
LINE
  5
1A74
330
1A
100
AcDbEntity
  8
0
  6
CONTINUOUS
 62
     2
100
AcDbLine
 10
298.9549361478726
 20
451.8098672517089
 30
0.0
 11
298.9549361478726
 21
438.3098672517088
 31
0.0
  0
LINE
  5
1A75
330
1A
100
AcDbEntity
  8
0
  6
CONTINUOUS
 62
     2
100
AcDbLine
 10
293.7988381478727
 20
450.8098672517088
 30
0.0
 11
293.7988381478727
 21
439.3098672517088
 31
0.0
  0
LINE
  5
1A76
330
1A
100
AcDbEntity
  8
0
  6
CONTINUOUS
 62
     2
100
AcDbLine
 10
287.1046861478727
 20
439.3098672517088
 30
0.0
 11
287.1046861478727
 21
450.8098672517088
 31
0.0
  0
ARC
  5
1A77
330
1A
100
AcDbEntity
  8
0
  6
CONTINUOUS
 62
     2
100
AcDbCircle
 10
292.7988381478726
 20
439.3098672517088
 30
0.0
 40
1.0
100
AcDbArc
 50
270.0
 51
0.0000090000000252
  0
LINE
  5
1A78
330
1A
100
AcDbEntity
  8
0
  6
CONTINUOUS
 62
     2
100
AcDbLine
 10
288.1046861478727
 20
438.3098672517088
 30
0.0
 11
298.9549361478726
 21
438.3098672517088
 31
0.0
  0
ARC
  5
1A79
330
1A
100
AcDbEntity
  8
0
  6
CONTINUOUS
 62
     2
100
AcDbCircle
 10
288.1046861478727
 20
439.3098672517088
 30
0.0
 40
1.0
100
AcDbArc
 50
180.000005
 51
270.000001
  0
LINE
  5
1A7A
330
1A
100
AcDbEntity
  8
150
  6
CONTINUOUS
 62
     7
100
AcDbLine
 10
290.7089031478727
 20
438.3098672517088
 30
0.0
 11
290.7089031478727
 21
437.8098672517088
 31
0.0
  0
ARC
  5
1A7B
330
1A
100
AcDbEntity
  8
0
  6
CONTINUOUS
 62
     2
100
AcDbCircle
 10
292.7988381478726
 20
450.8098672517088
 30
0.0
 40
1.0
100
AcDbArc
 50
0.0
 51
90.00000300000001
  0
LINE
  5
1A7C
330
1A
100
AcDbEntity
  8
0
  6
CONTINUOUS
 62
     2
100
AcDbLine
 10
288.1046861478727
 20
451.8098672517088
 30
0.0
 11
298.9549361478726
 21
451.8098672517089
 31
0.0
  0
ARC
  5
1A7D
330
1A
100
AcDbEntity
  8
0
  6
CONTINUOUS
 62
     2
100
AcDbCircle
 10
288.1046861478727
 20
450.8098672517088
 30
0.0
 40
1.0
100
AcDbArc
 50
90.0
 51
180.0000029999999
  0
LINE
  5
1A7E
330
1A
100
AcDbEntity
  8
150
  6
CONTINUOUS
 62
     7
100
AcDbLine
 10
290.7089031478727
 20
452.3098672517088
 30
0.0
 11
290.7089031478727
 21
451.8098672517088
 31
0.0
  0
LINE
  5
1A7F
330
1A
100
AcDbEntity
  8
150
  6
CONTINUOUS
 62
     7
100
AcDbLine
 10
250.2088731478727
 20
468.3098672517088
 30
0.0
 11
250.2088731478727
 21
488.0598982517088
 31
0.0
  0
LINE
  5
1A80
330
1A
100
AcDbEntity
  8
150
  6
HIDDEN2
 62
     7
100
AcDbLine
 10
243.3089091478727
 20
469.3098672517088
 30
0.0
 11
243.3089091478727
 21
480.8098982517087
 31
0.0
  0
ARC
  5
1A81
330
1A
100
AcDbEntity
  8
150
  6
CONTINUOUS
 62
     7
100
AcDbCircle
 10
248.2088731478726
 20
468.3098672517088
 30
0.0
 40
2.0
100
AcDbArc
 50
270.0
 51
0.0000030000000084
  0
ARC
  5
1A82
330
1A
100
AcDbEntity
  8
150
  6
HIDDEN2
 62
     7
100
AcDbCircle
 10
240.3089091478727
 20
469.3098672517088
 30
0.0
 40
3.0
100
AcDbArc
 50
270.0
 51
0.0000090000000252
  0
LINE
  5
1A83
330
1A
100
AcDbEntity
  8
150
  6
HIDDEN2
 62
     7
100
AcDbLine
 10
237.8666181478727
 20
476.7569192517087
 30
0.0
 11
236.8059491478727
 21
477.8175882517087
 31
0.0
  0
LINE
  5
1A84
330
1A
100
AcDbEntity
  8
150
  6
HIDDEN2
 62
     7
100
AcDbLine
 10
236.8059491478727
 20
472.3021462517087
 30
0.0
 11
237.8666181478727
 21
473.3628152517087
 31
0.0
  0
LINE
  5
1A85
330
1A
100
AcDbEntity
  8
150
  6
HIDDEN2
 62
     7
100
AcDbLine
 10
237.8666181478727
 20
473.3628152517087
 30
0.0
 11
236.6999001478727
 21
474.5295332517087
 31
0.0
  0
LINE
  5
1A86
330
1A
100
AcDbEntity
  8
150
  6
HIDDEN2
 62
     7
100
AcDbLine
 10
236.6999001478727
 20
475.5902322517087
 30
0.0
 11
237.8666181478727
 21
476.7569192517087
 31
0.0
  0
ARC
  5
1A87
330
1A
100
AcDbEntity
  8
150
  6
HIDDEN2
 62
     7
100
AcDbCircle
 10
237.2302391478727
 20
475.0598852517088
 30
0.0
 40
0.75
100
AcDbArc
 50
134.999986
 51
224.999988
  0
ARC
  5
1A88
330
1A
100
AcDbEntity
  8
150
  6
HIDDEN2
 62
     7
100
AcDbCircle
 10
240.3089091478727
 20
480.8098982517087
 30
0.0
 40
3.0
100
AcDbArc
 50
0.0
 51
90.00000300000001
  0
ARC
  5
1A89
330
1A
100
AcDbEntity
  8
150
  6
CONTINUOUS
 62
     7
100
AcDbCircle
 10
248.2088731478726
 20
488.0598982517088
 30
0.0
 40
2.0
100
AcDbArc
 50
0.0
 51
90.0
  0
LINE
  5
1A8A
330
1A
100
AcDbEntity
  8
0
  6
CONTINUOUS
 62
     2
100
AcDbLine
 10
417.1089271478726
 20
404.0598672517088
 30
0.0
 11
417.1089271478726
 21
486.0598982517087
 31
0.0
  0
LINE
  5
1A8B
330
1A
100
AcDbEntity
  8
150
  6
PHANTOM2
 62
     7
100
AcDbLine
 10
419.6088971478727
 20
402.0598672517088
 30
0.0
 11
419.6088971478727
 21
488.0598982517088
 31
0.0
  0
LINE
  5
1A8C
330
1A
100
AcDbEntity
  8
150
  6
PHANTOM2
 62
     7
100
AcDbLine
 10
354.0089211478727
 20
402.0598672517088
 30
0.0
 11
354.0089211478727
 21
421.8098672517088
 31
0.0
  0
LINE
  5
1A8D
330
1A
100
AcDbEntity
  8
225
  6
CENTER
 62
     3
100
AcDbLine
 10
369.1088971478727
 20
405.5598672517088
 30
0.0
 11
369.1088971478727
 21
424.5598672517088
 31
0.0
  0
LINE
  5
1A8E
330
1A
100
AcDbEntity
  8
225
  6
CENTER
 62
     3
100
AcDbLine
 10
302.1088971478727
 20
392.5598672517088
 30
0.0
 11
302.1088971478727
 21
497.5598982517087
 31
0.0
  0
LINE
  5
1A8F
330
1A
100
AcDbEntity
  8
150
  6
CONTINUOUS
 62
     7
100
AcDbLine
 10
379.6088971478727
 20
402.0598672517088
 30
0.0
 11
379.6088971478727
 21
488.0598982517088
 31
0.0
  0
LINE
  5
1A90
330
1A
100
AcDbEntity
  8
0
  6
CONTINUOUS
 62
     2
100
AcDbLine
 10
344.1088971478727
 20
400.0598672517088
 30
0.0
 11
344.1088971478727
 21
490.0598982517087
 31
0.0
  0
LINE
  5
1A91
330
1A
100
AcDbEntity
  8
0
  6
CONTINUOUS
 62
     2
100
AcDbLine
 10
381.1088971478726
 20
490.0598982517087
 30
0.0
 11
381.1088971478728
 21
400.0598672517088
 31
0.0
  0
LINE
  5
1A92
330
1A
100
AcDbEntity
  8
150
  6
CONTINUOUS
 62
     7
100
AcDbLine
 10
360.9088851478726
 20
409.3098672517088
 30
0.0
 11
360.9088851478726
 21
420.8098672517088
 31
0.0
  0
CIRCLE
  5
1A93
330
1A
100
AcDbEntity
  8
150
  6
CONTINUOUS
 62
     7
100
AcDbCircle
 10
369.1089171478727
 20
415.0598692517087
 30
0.0
 40
7.0
  0
CIRCLE
  5
1A94
330
1A
100
AcDbEntity
  8
150
  6
CONTINUOUS
 62
     7
100
AcDbCircle
 10
369.1089171478727
 20
415.0598692517087
 30
0.0
 40
8.0
  0
LINE
  5
1A95
330
1A
100
AcDbEntity
  8
210
  6
CONTINUOUS
 62
     4
100
AcDbLine
 10
369.1088891478727
 20
380.0598792517088
 30
0.0
 11
367.1368631478727
 21
379.7265452517088
 31
0.0
  0
LINE
  5
1A96
330
1A
100
AcDbEntity
  8
210
  6
CONTINUOUS
 62
     4
100
AcDbLine
 10
369.1088891478727
 20
380.0598792517088
 30
0.0
 11
367.1368631478727
 21
380.3932122517088
 31
0.0
  0
LINE
  5
1A97
330
1A
100
AcDbEntity
  8
210
  6
CONTINUOUS
 62
     4
100
AcDbLine
 10
302.1088891478727
 20
380.0598792517088
 30
0.0
 11
369.1088891478727
 21
380.0598792517088
 31
0.0
  0
LINE
  5
1A98
330
1A
100
AcDbEntity
  8
150
  6
CONTINUOUS
 62
     7
100
AcDbLine
 10
363.9088851478727
 20
406.3098672517088
 30
0.0
 11
379.6088971478727
 21
406.3098672517088
 31
0.0
  0
TEXT
  5
1A99
330
1A
100
AcDbEntity
  8
210
  6
CONTINUOUS
 62
     4
100
AcDbText
 10
330.9838891478727
 20
383.1848792517088
 30
0.0
 40
5.0
  1
67
100
AcDbText
  0
LINE
  5
1A9A
330
1A
100
AcDbEntity
  8
210
  6
CONTINUOUS
 62
     4
100
AcDbLine
 10
302.1088891478727
 20
392.3726532517087
 30
0.0
 11
302.1088891478727
 21
375.9973792517088
 31
0.0
  0
LINE
  5
1A9B
330
1A
100
AcDbEntity
  8
210
  6
CONTINUOUS
 62
     4
100
AcDbLine
 10
302.1088891478727
 20
380.0598792517088
 30
0.0
 11
304.0809161478727
 21
379.7265452517088
 31
0.0
  0
LINE
  5
1A9C
330
1A
100
AcDbEntity
  8
210
  6
CONTINUOUS
 62
     4
100
AcDbLine
 10
302.1088891478727
 20
380.0598792517088
 30
0.0
 11
304.0809161478727
 21
380.3932122517088
 31
0.0
  0
ARC
  5
1A9D
330
1A
100
AcDbEntity
  8
150
  6
CONTINUOUS
 62
     7
100
AcDbCircle
 10
356.0089211478727
 20
402.0598672517088
 30
0.0
 40
2.0
100
AcDbArc
 50
180.000005
 51
270.000001
  0
ARC
  5
1A9E
330
1A
100
AcDbEntity
  8
150
  6
CONTINUOUS
 62
     7
100
AcDbCircle
 10
363.9088851478727
 20
409.3098672517088
 30
0.0
 40
3.0
100
AcDbArc
 50
180.000005
 51
270.000001
  0
LINE
  5
1AA7
330
1A
100
AcDbEntity
  8
210
  6
CONTINUOUS
 62
     4
100
AcDbLine
 10
369.1088891478727
 20
405.3726532517087
 30
0.0
 11
369.1088891478727
 21
375.9973792517088
 31
0.0
  0
LINE
  5
1AA8
330
1A
100
AcDbEntity
  8
150
  6
CONTINUOUS
 62
     7
100
AcDbLine
 10
378.6088971478727
 20
401.0598672517089
 30
0.0
 11
374.6088971478727
 21
401.0598672517089
 31
0.0
  0
LINE
  5
1AA9
330
1A
100
AcDbEntity
  8
150
  6
CONTINUOUS
 62
     7
100
AcDbLine
 10
374.6088971478727
 20
401.0598672517089
 30
0.0
 11
374.6088971478727
 21
400.0598672517088
 31
0.0
  0
ARC
  5
1AAA
330
1A
100
AcDbEntity
  8
150
  6
CONTINUOUS
 62
     7
100
AcDbCircle
 10
378.6088971478727
 20
402.0598672517088
 30
0.0
 40
1.0
100
AcDbArc
 50
270.0
 51
0.0000090000000252
  0
ARC
  5
1AAB
330
1A
100
AcDbEntity
  8
0
  6
CONTINUOUS
 62
     2
100
AcDbCircle
 10
413.1089271478726
 20
404.0598672517088
 30
0.0
 40
4.0
100
AcDbArc
 50
270.0
 51
0.0000090000000252
  0
LINE
  5
1AAC
330
1A
100
AcDbEntity
  8
150
  6
CONTINUOUS
 62
     7
100
AcDbLine
 10
412.9818831478727
 20
400.0598672517088
 30
0.0
 11
417.6088971478726
 21
400.0598672517088
 31
0.0
  0
ARC
  5
1AAD
330
1A
100
AcDbEntity
  8
150
  6
CONTINUOUS
 62
     7
100
AcDbCircle
 10
417.6088971478726
 20
402.0598672517088
 30
0.0
 40
2.0
100
AcDbArc
 50
270.0
 51
0.0000090000000252
  0
LINE
  5
1AAE
330
1A
100
AcDbEntity
  8
225
  6
CENTER
 62
     3
100
AcDbLine
 10
378.6088971478727
 20
415.0598672517088
 30
0.0
 11
359.6088971478727
 21
415.0598672517088
 31
0.0
  0
LINE
  5
1AAF
330
1A
100
AcDbEntity
  8
225
  6
CENTER
 62
     3
100
AcDbLine
 10
378.6088971478727
 20
475.0598982517088
 30
0.0
 11
359.6088971478727
 21
475.0598982517088
 31
0.0
  0
LINE
  5
1AB0
330
1A
100
AcDbEntity
  8
225
  6
CENTER
 62
     3
100
AcDbLine
 10
374.6088971478727
 20
460.0598672517088
 30
0.0
 11
361.6088661478726
 21
460.0598672517088
 31
0.0
  0
LINE
  5
1AB1
330
1A
100
AcDbEntity
  8
150
  6
CONTINUOUS
 62
     7
100
AcDbLine
 10
363.9088851478727
 20
436.3098672517089
 30
0.0
 11
379.6088971478727
 21
436.3098672517089
 31
0.0
  0
LINE
  5
1AB2
330
1A
100
AcDbEntity
  8
150
  6
CONTINUOUS
 62
     7
100
AcDbLine
 10
363.9088851478727
 20
453.8098672517088
 30
0.0
 11
379.6088971478727
 21
453.8098672517088
 31
0.0
  0
CIRCLE
  5
1AB3
330
1A
100
AcDbEntity
  8
150
  6
CONTINUOUS
 62
     7
100
AcDbCircle
 10
369.1089131478727
 20
475.0598712517087
 30
0.0
 40
8.0
  0
CIRCLE
  5
1AB4
330
1A
100
AcDbEntity
  8
150
  6
CONTINUOUS
 62
     7
100
AcDbCircle
 10
369.1089131478727
 20
475.0598712517087
 30
0.0
 40
7.0
  0
LINE
  5
1AB5
330
1A
100
AcDbEntity
  8
150
  6
CONTINUOUS
 62
     7
100
AcDbLine
 10
368.4018051478727
 20
477.1811742517087
 30
0.0
 11
367.0582991478726
 21
478.5246802517088
 31
0.0
  0
LINE
  5
1AB6
330
1A
100
AcDbEntity
  8
150
  6
CONTINUOUS
 62
     7
100
AcDbLine
 10
367.0582991478726
 20
471.5950542517087
 30
0.0
 11
368.4018051478727
 21
472.9385602517088
 31
0.0
  0
CIRCLE
  5
1AB7
330
1A
100
AcDbEntity
  8
150
  6
CONTINUOUS
 62
     7
100
AcDbCircle
 10
368.1088971478727
 20
460.0598672517088
 30
0.0
 40
4.5
  0
LINE
  5
1AB8
330
1A
100
AcDbEntity
  8
150
  6
CONTINUOUS
 62
     7
100
AcDbLine
 10
363.9088851478727
 20
466.3098672517088
 30
0.0
 11
379.6088971478727
 21
466.3098672517088
 31
0.0
  0
LINE
  5
1AB9
330
1A
100
AcDbEntity
  8
150
  6
CONTINUOUS
 62
     7
100
AcDbLine
 10
363.9088851478727
 20
483.8098982517087
 30
0.0
 11
379.6088971478727
 21
483.8098982517087
 31
0.0
  0
LINE
  5
1ABA
330
1A
100
AcDbEntity
  8
150
  6
CONTINUOUS
 62
     7
100
AcDbLine
 10
363.9088851478727
 20
423.8098672517088
 30
0.0
 11
379.6088971478727
 21
423.8098672517088
 31
0.0
  0
CIRCLE
  5
1ABB
330
1A
100
AcDbEntity
  8
150
  6
CONTINUOUS
 62
     7
100
AcDbCircle
 10
369.1089141478727
 20
445.0598712517087
 30
0.0
 40
7.0
  0
CIRCLE
  5
1ABC
330
1A
100
AcDbEntity
  8
150
  6
CONTINUOUS
 62
     7
100
AcDbCircle
 10
369.1089141478727
 20
445.0598712517087
 30
0.0
 40
8.0
  0
LINE
  5
1ABD
330
1A
100
AcDbEntity
  8
150
  6
CONTINUOUS
 62
     7
100
AcDbLine
 10
367.0582991478726
 20
441.5950542517087
 30
0.0
 11
368.4018051478727
 21
442.9385602517087
 31
0.0
  0
LINE
  5
1ABE
330
1A
100
AcDbEntity
  8
150
  6
CONTINUOUS
 62
     7
100
AcDbLine
 10
368.4018051478727
 20
447.1811742517087
 30
0.0
 11
367.0582991478726
 21
448.5246802517088
 31
0.0
  0
LINE
  5
1ABF
330
1A
100
AcDbEntity
  8
150
  6
CONTINUOUS
 62
     7
100
AcDbLine
 10
367.0582991478726
 20
411.5950542517087
 30
0.0
 11
368.4018051478727
 21
412.9385602517087
 31
0.0
  0
LINE
  5
1AC0
330
1A
100
AcDbEntity
  8
150
  6
CONTINUOUS
 62
     7
100
AcDbLine
 10
368.4018051478727
 20
417.1811742517087
 30
0.0
 11
367.0582991478726
 21
418.5246802517088
 31
0.0
  0
ARC
  5
1AC1
330
1A
100
AcDbEntity
  8
0
  6
CONTINUOUS
 62
     2
100
AcDbCircle
 10
326.1088971478727
 20
455.0598672517089
 30
0.0
 40
1.0
100
AcDbArc
 50
0.0
 51
90.00000300000001
  0
LINE
  5
1AC2
330
1A
100
AcDbEntity
  8
0
  6
CONTINUOUS
 62
     2
100
AcDbLine
 10
327.1088971478727
 20
455.0598672517089
 30
0.0
 11
327.1088971478727
 21
435.0598672517088
 31
0.0
  0
LINE
  5
1AC3
330
1A
100
AcDbEntity
  8
150
  6
CONTINUOUS
 62
     7
100
AcDbLine
 10
319.8089091478727
 20
437.8098672517088
 30
0.0
 11
319.8089091478727
 21
452.3098672517088
 31
0.0
  0
ARC
  5
1AC4
330
1A
100
AcDbEntity
  8
0
  6
CONTINUOUS
 62
     2
100
AcDbCircle
 10
326.1088971478727
 20
435.0598672517088
 30
0.0
 40
1.0
100
AcDbArc
 50
270.0
 51
0.0000090000000252
  0
ARC
  5
1AC5
330
1A
100
AcDbEntity
  8
150
  6
CONTINUOUS
 62
     7
100
AcDbCircle
 10
363.9088851478727
 20
420.8098672517088
 30
0.0
 40
3.0
100
AcDbArc
 50
90.0
 51
180.0000029999999
  0
LINE
  5
1AC6
330
1A
100
AcDbEntity
  8
150
  6
CONTINUOUS
 62
     7
100
AcDbLine
 10
365.6440841478727
 20
413.0092692517087
 30
0.0
 11
367.0582991478726
 21
411.5950542517087
 31
0.0
  0
LINE
  5
1AC7
330
1A
100
AcDbEntity
  8
150
  6
CONTINUOUS
 62
     7
100
AcDbLine
 10
366.9875901478726
 20
414.3527752517087
 30
0.0
 11
365.6440841478727
 21
413.0092692517087
 31
0.0
  0
LINE
  5
1AC8
330
1A
100
AcDbEntity
  8
150
  6
CONTINUOUS
 62
     7
100
AcDbLine
 10
365.6440841478727
 20
417.1104652517088
 30
0.0
 11
366.9875901478726
 21
415.7669592517088
 31
0.0
  0
LINE
  5
1AC9
330
1A
100
AcDbEntity
  8
150
  6
CONTINUOUS
 62
     7
100
AcDbLine
 10
367.0582991478726
 20
418.5246802517088
 30
0.0
 11
365.6440841478727
 21
417.1104652517088
 31
0.0
  0
ARC
  5
1ACA
330
1A
100
AcDbEntity
  8
150
  6
CONTINUOUS
 62
     7
100
AcDbCircle
 10
366.2804901478726
 20
415.0598702517087
 30
0.0
 40
1.0
100
AcDbArc
 50
314.9999839999999
 51
44.99999300000006
  0
LINE
  5
1ACB
330
1A
100
AcDbEntity
  8
150
  6
PHANTOM2
 62
     7
100
AcDbLine
 10
363.9088851478727
 20
423.8098672517088
 30
0.0
 11
356.0089211478727
 21
423.8098672517088
 31
0.0
  0
ARC
  5
1ACC
330
1A
100
AcDbEntity
  8
150
  6
CONTINUOUS
 62
     7
100
AcDbCircle
 10
356.0089211478727
 20
421.8098672517088
 30
0.0
 40
2.0
100
AcDbArc
 50
90.0
 51
180.0000029999999
  0
LINE
  5
1ACD
330
1A
100
AcDbEntity
  8
150
  6
CONTINUOUS
 62
     7
100
AcDbLine
 10
354.0089211478727
 20
438.3098672517088
 30
0.0
 11
354.0089211478727
 21
451.8098672517088
 31
0.0
  0
LINE
  5
1ACE
330
1A
100
AcDbEntity
  8
150
  6
CONTINUOUS
 62
     7
100
AcDbLine
 10
360.9088851478726
 20
439.3098672517088
 30
0.0
 11
360.9088851478726
 21
450.8098672517088
 31
0.0
  0
ARC
  5
1ACF
330
1A
100
AcDbEntity
  8
150
  6
CONTINUOUS
 62
     7
100
AcDbCircle
 10
366.2804871478726
 20
445.0598722517088
 30
0.0
 40
1.0
100
AcDbArc
 50
314.9999839999999
 51
44.99999300000006
  0
LINE
  5
1AD0
330
1A
100
AcDbEntity
  8
150
  6
CONTINUOUS
 62
     7
100
AcDbLine
 10
363.9088851478727
 20
436.3098672517089
 30
0.0
 11
356.0089211478727
 21
436.3098672517089
 31
0.0
  0
ARC
  5
1AD1
330
1A
100
AcDbEntity
  8
150
  6
CONTINUOUS
 62
     7
100
AcDbCircle
 10
356.0089211478727
 20
438.3098672517088
 30
0.0
 40
2.0
100
AcDbArc
 50
180.000005
 51
270.000001
  0
ARC
  5
1AD2
330
1A
100
AcDbEntity
  8
150
  6
CONTINUOUS
 62
     7
100
AcDbCircle
 10
363.9088851478727
 20
439.3098672517088
 30
0.0
 40
3.0
100
AcDbArc
 50
180.000005
 51
270.000001
  0
LINE
  5
1AD3
330
1A
100
AcDbEntity
  8
150
  6
CONTINUOUS
 62
     7
100
AcDbLine
 10
365.6440841478727
 20
443.0092692517087
 30
0.0
 11
367.0582991478726
 21
441.5950542517087
 31
0.0
  0
LINE
  5
1AD4
330
1A
100
AcDbEntity
  8
150
  6
CONTINUOUS
 62
     7
100
AcDbLine
 10
366.9875901478726
 20
444.3527752517087
 30
0.0
 11
365.6440841478727
 21
443.0092692517087
 31
0.0
  0
LINE
  5
1AD5
330
1A
100
AcDbEntity
  8
150
  6
CONTINUOUS
 62
     7
100
AcDbLine
 10
363.9088851478727
 20
453.8098672517087
 30
0.0
 11
356.0089211478727
 21
453.8098672517088
 31
0.0
  0
ARC
  5
1AD6
330
1A
100
AcDbEntity
  8
150
  6
CONTINUOUS
 62
     7
100
AcDbCircle
 10
356.0089211478727
 20
451.8098672517088
 30
0.0
 40
2.0
100
AcDbArc
 50
90.0
 51
179.999996
  0
ARC
  5
1AD7
330
1A
100
AcDbEntity
  8
150
  6
CONTINUOUS
 62
     7
100
AcDbCircle
 10
363.9088851478727
 20
450.8098672517088
 30
0.0
 40
3.0
100
AcDbArc
 50
90.0
 51
180.0000029999999
  0
LINE
  5
1AD8
330
1A
100
AcDbEntity
  8
150
  6
CONTINUOUS
 62
     7
100
AcDbLine
 10
365.6440841478727
 20
447.1104652517087
 30
0.0
 11
366.9875901478726
 21
445.7669592517088
 31
0.0
  0
LINE
  5
1AD9
330
1A
100
AcDbEntity
  8
150
  6
CONTINUOUS
 62
     7
100
AcDbLine
 10
367.0582991478726
 20
448.5246802517088
 30
0.0
 11
365.6440841478727
 21
447.1104652517087
 31
0.0
  0
LINE
  5
1ADA
330
1A
100
AcDbEntity
  8
150
  6
PHANTOM2
 62
     7
100
AcDbLine
 10
354.0089211478727
 20
468.3098672517088
 30
0.0
 11
354.0089211478727
 21
488.0598982517088
 31
0.0
  0
LINE
  5
1ADB
330
1A
100
AcDbEntity
  8
150
  6
CONTINUOUS
 62
     7
100
AcDbLine
 10
360.9088851478726
 20
469.3098672517088
 30
0.0
 11
360.9088851478726
 21
480.8098982517087
 31
0.0
  0
ARC
  5
1ADC
330
1A
100
AcDbEntity
  8
150
  6
PHANTOM2
 62
     7
100
AcDbCircle
 10
356.0089211478727
 20
468.3098672517088
 30
0.0
 40
2.0
100
AcDbArc
 50
179.9999949999999
 51
269.9999969999999
  0
ARC
  5
1ADD
330
1A
100
AcDbEntity
  8
150
  6
CONTINUOUS
 62
     7
100
AcDbCircle
 10
363.9088851478727
 20
469.3098672517088
 30
0.0
 40
3.0
100
AcDbArc
 50
180.000005
 51
270.000001
  0
LINE
  5
1ADE
330
1A
100
AcDbEntity
  8
150
  6
PHANTOM2
 62
     7
100
AcDbLine
 10
363.9088851478727
 20
466.3098672517088
 30
0.0
 11
356.0089211478727
 21
466.3098672517088
 31
0.0
  0
ARC
  5
1ADF
330
1A
100
AcDbEntity
  8
150
  6
CONTINUOUS
 62
     7
100
AcDbCircle
 10
366.2804861478726
 20
475.0598722517088
 30
0.0
 40
1.0
100
AcDbArc
 50
314.9999839999999
 51
44.99999300000006
  0
LINE
  5
1AE0
330
1A
100
AcDbEntity
  8
150
  6
CONTINUOUS
 62
     7
100
AcDbLine
 10
367.0582991478726
 20
478.5246802517088
 30
0.0
 11
365.6440841478727
 21
477.1104962517087
 31
0.0
  0
LINE
  5
1AE1
330
1A
100
AcDbEntity
  8
150
  6
CONTINUOUS
 62
     7
100
AcDbLine
 10
365.6440841478727
 20
477.1104962517087
 30
0.0
 11
366.9875901478726
 21
475.7669902517087
 31
0.0
  0
LINE
  5
1AE2
330
1A
100
AcDbEntity
  8
150
  6
CONTINUOUS
 62
     7
100
AcDbLine
 10
366.9875901478726
 20
474.3527752517088
 30
0.0
 11
365.6440841478727
 21
473.0092692517088
 31
0.0
  0
LINE
  5
1AE3
330
1A
100
AcDbEntity
  8
150
  6
CONTINUOUS
 62
     7
100
AcDbLine
 10
365.6440841478727
 20
473.0092692517088
 30
0.0
 11
367.0582991478726
 21
471.5950542517087
 31
0.0
  0
ARC
  5
1AE4
330
1A
100
AcDbEntity
  8
150
  6
CONTINUOUS
 62
     7
100
AcDbCircle
 10
356.0089211478727
 20
488.0598982517088
 30
0.0
 40
2.0
100
AcDbArc
 50
90.0
 51
180.0000029999999
  0
ARC
  5
1AE5
330
1A
100
AcDbEntity
  8
150
  6
CONTINUOUS
 62
     7
100
AcDbCircle
 10
363.9088851478727
 20
480.8098982517087
 30
0.0
 40
3.0
100
AcDbArc
 50
90.0
 51
180.0000029999999
  0
LINE
  5
1AE6
330
1A
100
AcDbEntity
  8
150
  6
CONTINUOUS
 62
     7
100
AcDbLine
 10
374.6088971478727
 20
464.3098672517088
 30
0.0
 11
374.6088971478727
 21
455.8098672517088
 31
0.0
  0
LINE
  5
1AE7
330
1A
100
AcDbEntity
  8
225
  6
CENTER
 62
     3
100
AcDbLine
 10
368.1088971478727
 20
466.5598672517088
 30
0.0
 11
368.1088971478727
 21
453.5598672517088
 31
0.0
  0
LINE
  5
1AE8
330
1A
100
AcDbEntity
  8
225
  6
CENTER
 62
     3
100
AcDbLine
 10
418.1088971478727
 20
422.5598672517088
 30
0.0
 11
400.1088971478726
 21
422.5598672517088
 31
0.0
  0
LINE
  5
1AE9
330
1A
100
AcDbEntity
  8
150
  6
CONTINUOUS
 62
     7
100
AcDbLine
 10
374.6088971478727
 20
425.8098672517088
 30
0.0
 11
374.6088971478727
 21
434.3098672517088
 31
0.0
  0
ARC
  5
1AEA
330
1A
100
AcDbEntity
  8
150
  6
CONTINUOUS
 62
     7
100
AcDbCircle
 10
369.1089181478726
 20
417.8882972517087
 30
0.0
 40
1.0
100
AcDbArc
 50
224.999988
 51
314.9999839999999
  0
LINE
  5
1AEB
330
1A
100
AcDbEntity
  8
150
  6
CONTINUOUS
 62
     7
100
AcDbLine
 10
371.2302041478727
 20
415.7669592517088
 30
0.0
 11
372.5737101478727
 21
417.1104652517088
 31
0.0
  0
LINE
  5
1AEC
330
1A
100
AcDbEntity
  8
150
  6
CONTINUOUS
 62
     7
100
AcDbLine
 10
372.5737101478727
 20
413.0092692517087
 30
0.0
 11
371.2302041478727
 21
414.3527752517087
 31
0.0
  0
LINE
  5
1AED
330
1A
100
AcDbEntity
  8
150
  6
CONTINUOUS
 62
     7
100
AcDbLine
 10
371.1594951478726
 20
411.5950542517087
 30
0.0
 11
372.5737101478727
 21
413.0092692517087
 31
0.0
  0
LINE
  5
1AEE
330
1A
100
AcDbEntity
  8
150
  6
CONTINUOUS
 62
     7
100
AcDbLine
 10
369.8159891478727
 20
412.9385602517087
 30
0.0
 11
371.1594951478726
 21
411.5950542517087
 31
0.0
  0
LINE
  5
1AEF
330
1A
100
AcDbEntity
  8
150
  6
CONTINUOUS
 62
     7
100
AcDbLine
 10
371.1594951478726
 20
418.5246802517088
 30
0.0
 11
369.8159891478727
 21
417.1811742517087
 31
0.0
  0
LINE
  5
1AF0
330
1A
100
AcDbEntity
  8
150
  6
CONTINUOUS
 62
     7
100
AcDbLine
 10
372.5737101478727
 20
417.1104652517088
 30
0.0
 11
371.1594951478726
 21
418.5246802517088
 31
0.0
  0
ARC
  5
1AF1
330
1A
100
AcDbEntity
  8
150
  6
CONTINUOUS
 62
     7
100
AcDbCircle
 10
371.9373441478726
 20
415.0598682517087
 30
0.0
 40
1.0
100
AcDbArc
 50
134.999986
 51
224.999988
  0
ARC
  5
1AF2
330
1A
100
AcDbEntity
  8
150
  6
CONTINUOUS
 62
     7
100
AcDbCircle
 10
369.1089161478726
 20
412.2314422517088
 30
0.0
 40
1.0
100
AcDbArc
 50
44.999983
 51
134.999986
  0
ARC
  5
1AF3
330
1A
100
AcDbEntity
  8
150
  6
CONTINUOUS
 62
     7
100
AcDbCircle
 10
372.6088971478727
 20
425.8098672517088
 30
0.0
 40
2.0
100
AcDbArc
 50
270.0
 51
0.000010000000028
  0
LINE
  5
1AF4
330
1A
100
AcDbEntity
  8
225
  6
CENTER
 62
     3
100
AcDbLine
 10
369.1088971478727
 20
435.5598672517088
 30
0.0
 11
369.1088971478727
 21
454.5598672517088
 31
0.0
  0
ARC
  5
1AF5
330
1A
100
AcDbEntity
  8
150
  6
CONTINUOUS
 62
     7
100
AcDbCircle
 10
371.9373411478726
 20
445.0598702517088
 30
0.0
 40
1.0
100
AcDbArc
 50
134.999986
 51
224.999988
  0
ARC
  5
1AF6
330
1A
100
AcDbEntity
  8
150
  6
CONTINUOUS
 62
     7
100
AcDbCircle
 10
372.6088971478727
 20
434.3098672517088
 30
0.0
 40
2.0
100
AcDbArc
 50
0.0
 51
90.0
  0
LINE
  5
1AF7
330
1A
100
AcDbEntity
  8
150
  6
CONTINUOUS
 62
     7
100
AcDbLine
 10
372.5737101478727
 20
443.0092692517087
 30
0.0
 11
371.2302041478727
 21
444.3527752517087
 31
0.0
  0
LINE
  5
1AF8
330
1A
100
AcDbEntity
  8
150
  6
CONTINUOUS
 62
     7
100
AcDbLine
 10
371.1594951478726
 20
441.5950542517087
 30
0.0
 11
372.5737101478727
 21
443.0092692517087
 31
0.0
  0
LINE
  5
1AF9
330
1A
100
AcDbEntity
  8
150
  6
CONTINUOUS
 62
     7
100
AcDbLine
 10
369.8159891478727
 20
442.9385602517087
 30
0.0
 11
371.1594951478726
 21
441.5950542517087
 31
0.0
  0
ARC
  5
1AFA
330
1A
100
AcDbEntity
  8
150
  6
CONTINUOUS
 62
     7
100
AcDbCircle
 10
369.1089131478727
 20
442.2314442517087
 30
0.0
 40
1.0
100
AcDbArc
 50
44.999983
 51
134.999986
  0
ARC
  5
1AFB
330
1A
100
AcDbEntity
  8
150
  6
CONTINUOUS
 62
     7
100
AcDbCircle
 10
372.6088971478727
 20
455.8098672517088
 30
0.0
 40
2.0
100
AcDbArc
 50
270.0
 51
0.0
  0
ARC
  5
1AFC
330
1A
100
AcDbEntity
  8
150
  6
CONTINUOUS
 62
     7
100
AcDbCircle
 10
369.1089151478727
 20
447.8882982517087
 30
0.0
 40
1.0
100
AcDbArc
 50
224.999988
 51
314.9999839999999
  0
LINE
  5
1AFD
330
1A
100
AcDbEntity
  8
150
  6
CONTINUOUS
 62
     7
100
AcDbLine
 10
371.2302041478727
 20
445.7669592517088
 30
0.0
 11
372.5737101478727
 21
447.1104652517087
 31
0.0
  0
LINE
  5
1AFE
330
1A
100
AcDbEntity
  8
150
  6
CONTINUOUS
 62
     7
100
AcDbLine
 10
371.1594951478726
 20
448.5246802517088
 30
0.0
 11
369.8159891478727
 21
447.1811742517087
 31
0.0
  0
LINE
  5
1AFF
330
1A
100
AcDbEntity
  8
150
  6
CONTINUOUS
 62
     7
100
AcDbLine
 10
372.5737101478727
 20
447.1104652517087
 30
0.0
 11
371.1594951478726
 21
448.5246802517088
 31
0.0
  0
ARC
  5
1B00
330
1A
100
AcDbEntity
  8
0
  6
CONTINUOUS
 62
     2
100
AcDbCircle
 10
416.1088971478727
 20
430.5598672517088
 30
0.0
 40
1.0
100
AcDbArc
 50
270.0
 51
0.0000030000000084
  0
ARC
  5
1B01
330
1A
100
AcDbEntity
  8
0
  6
CONTINUOUS
 62
     2
100
AcDbCircle
 10
416.1088971478727
 20
414.5598672517088
 30
0.0
 40
1.0
100
AcDbArc
 50
0.000005
 51
90.00000099999999
  0
LINE
  5
1B02
330
1A
100
AcDbEntity
  8
150
  6
CENTER
100
AcDbLine
 10
411.8666181478727
 20
420.8628152517087
 30
0.0
 11
410.6999001478727
 21
422.0295332517087
 31
0.0
  0
LINE
  5
1B03
330
1A
100
AcDbEntity
  8
150
  6
CENTER
100
AcDbLine
 10
407.5178941478727
 20
422.0295332517087
 30
0.0
 11
406.3511761478727
 21
420.8628152517087
 31
0.0
  0
CIRCLE
  5
1B04
330
1A
100
AcDbEntity
  8
150
  6
CENTER
100
AcDbCircle
 10
409.1089201478726
 20
422.5598772517087
 30
0.0
 40
6.5
  0
CIRCLE
  5
1B05
330
1A
100
AcDbEntity
  8
150
  6
CENTER
100
AcDbCircle
 10
409.1089201478726
 20
422.5598772517087
 30
0.0
 40
5.25
  0
ARC
  5
1B06
330
1A
100
AcDbEntity
  8
0
  6
CONTINUOUS
 62
     2
100
AcDbCircle
 10
409.1088971478726
 20
422.5598672517088
 30
0.0
 40
7.0
100
AcDbArc
 50
90.0
 51
269.999991
  0
LINE
  5
1B07
330
1A
100
AcDbEntity
  8
225
  6
CENTER
 62
     3
100
AcDbLine
 10
409.1088971478726
 20
431.5598372517087
 30
0.0
 11
409.1088971478726
 21
413.5598372517087
 31
0.0
  0
LINE
  5
1B08
330
1A
100
AcDbEntity
  8
150
  6
CENTER
100
AcDbLine
 10
407.4118451478726
 20
419.8021462517087
 30
0.0
 11
408.5785621478726
 21
420.9688642517088
 31
0.0
  0
LINE
  5
1B09
330
1A
100
AcDbEntity
  8
150
  6
CENTER
100
AcDbLine
 10
406.3511761478727
 20
420.8628152517087
 30
0.0
 11
407.4118451478726
 21
419.8021462517087
 31
0.0
  0
LINE
  5
1B0A
330
1A
100
AcDbEntity
  8
150
  6
CENTER
100
AcDbLine
 10
409.6392311478727
 20
420.9688642517088
 30
0.0
 11
410.8059491478726
 21
419.8021462517087
 31
0.0
  0
LINE
  5
1B0B
330
1A
100
AcDbEntity
  8
150
  6
CENTER
100
AcDbLine
 10
410.8059491478726
 20
419.8021462517087
 30
0.0
 11
411.8666181478727
 21
420.8628152517087
 31
0.0
  0
ARC
  5
1B0C
330
1A
100
AcDbEntity
  8
150
  6
CENTER
100
AcDbCircle
 10
409.1089201478726
 20
420.4385562517088
 30
0.0
 40
0.75
100
AcDbArc
 50
44.999983
 51
134.999986
  0
LINE
  5
1B0D
330
1A
100
AcDbEntity
  8
0
  6
CONTINUOUS
 62
     2
100
AcDbLine
 10
409.1088971478726
 20
415.5598672517088
 30
0.0
 11
416.1088971478727
 21
415.5598672517088
 31
0.0
  0
LINE
  5
1B0E
330
1A
100
AcDbEntity
  8
150
  6
CENTER
100
AcDbLine
 10
408.5785621478726
 20
424.1508712517087
 30
0.0
 11
407.4118451478726
 21
425.3175882517088
 31
0.0
  0
ARC
  5
1B0F
330
1A
100
AcDbEntity
  8
150
  6
CENTER
100
AcDbCircle
 10
406.9876001478727
 20
422.5598772517087
 30
0.0
 40
0.75
100
AcDbArc
 50
314.9999839999999
 51
44.99999300000006
  0
LINE
  5
1B10
330
1A
100
AcDbEntity
  8
150
  6
CENTER
100
AcDbLine
 10
406.3511761478727
 20
424.2569192517088
 30
0.0
 11
407.5178941478727
 21
423.0902022517088
 31
0.0
  0
LINE
  5
1B11
330
1A
100
AcDbEntity
  8
150
  6
CENTER
100
AcDbLine
 10
407.4118451478726
 20
425.3175882517088
 30
0.0
 11
406.3511761478727
 21
424.2569192517088
 31
0.0
  0
ARC
  5
1B12
330
1A
100
AcDbEntity
  8
150
  6
CENTER
100
AcDbCircle
 10
411.2302411478727
 20
422.5598762517088
 30
0.0
 40
0.75
100
AcDbArc
 50
134.999986
 51
224.999988
  0
ARC
  5
1B13
330
1A
100
AcDbEntity
  8
150
  6
CENTER
100
AcDbCircle
 10
409.1089211478728
 20
424.6811972517088
 30
0.0
 40
0.75
100
AcDbArc
 50
224.999988
 51
314.9999839999999
  0
LINE
  5
1B14
330
1A
100
AcDbEntity
  8
150
  6
CENTER
100
AcDbLine
 10
410.6999001478727
 20
423.0902022517088
 30
0.0
 11
411.8666181478727
 21
424.2569192517088
 31
0.0
  0
LINE
  5
1B15
330
1A
100
AcDbEntity
  8
150
  6
CENTER
100
AcDbLine
 10
411.8666181478727
 20
424.2569192517088
 30
0.0
 11
410.8059491478726
 21
425.3175882517088
 31
0.0
  0
LINE
  5
1B16
330
1A
100
AcDbEntity
  8
150
  6
CENTER
100
AcDbLine
 10
410.8059491478726
 20
425.3175882517088
 30
0.0
 11
409.6392311478727
 21
424.1508712517087
 31
0.0
  0
LINE
  5
1B17
330
1A
100
AcDbEntity
  8
0
  6
CONTINUOUS
 62
     2
100
AcDbLine
 10
409.1088971478726
 20
429.5598672517088
 30
0.0
 11
416.1088971478727
 21
429.5598672517088
 31
0.0
  0
LINE
  5
1B18
330
1A
100
AcDbEntity
  8
225
  6
CENTER
 62
     3
100
AcDbLine
 10
369.1088971478727
 20
465.5598672517088
 30
0.0
 11
369.1088971478727
 21
484.5598982517087
 31
0.0
  0
ARC
  5
1B19
330
1A
100
AcDbEntity
  8
150
  6
CONTINUOUS
 62
     7
100
AcDbCircle
 10
372.6088971478727
 20
464.3098672517088
 30
0.0
 40
2.0
100
AcDbArc
 50
359.99999
 51
90.0
  0
ARC
  5
1B1A
330
1A
100
AcDbEntity
  8
150
  6
CONTINUOUS
 62
     7
100
AcDbCircle
 10
369.1089111478726
 20
472.2314452517087
 30
0.0
 40
1.0
100
AcDbArc
 50
44.999983
 51
134.999986
  0
ARC
  5
1B1B
330
1A
100
AcDbEntity
  8
150
  6
CONTINUOUS
 62
     7
100
AcDbCircle
 10
371.9373391478727
 20
475.0598712517087
 30
0.0
 40
1.0
100
AcDbArc
 50
134.999986
 51
224.999988
  0
LINE
  5
1B1C
330
1A
100
AcDbEntity
  8
150
  6
CONTINUOUS
 62
     7
100
AcDbLine
 10
372.5737101478727
 20
477.1104962517087
 30
0.0
 11
371.1594951478726
 21
478.5246802517088
 31
0.0
  0
LINE
  5
1B1D
330
1A
100
AcDbEntity
  8
150
  6
CONTINUOUS
 62
     7
100
AcDbLine
 10
371.1594951478726
 20
478.5246802517088
 30
0.0
 11
369.8159891478727
 21
477.1811742517087
 31
0.0
  0
LINE
  5
1B1E
330
1A
100
AcDbEntity
  8
150
  6
CONTINUOUS
 62
     7
100
AcDbLine
 10
369.8159891478727
 20
472.9385602517088
 30
0.0
 11
371.1594951478726
 21
471.5950542517087
 31
0.0
  0
LINE
  5
1B1F
330
1A
100
AcDbEntity
  8
150
  6
CONTINUOUS
 62
     7
100
AcDbLine
 10
371.1594951478726
 20
471.5950542517087
 30
0.0
 11
372.5737101478727
 21
473.0092692517088
 31
0.0
  0
LINE
  5
1B20
330
1A
100
AcDbEntity
  8
150
  6
CONTINUOUS
 62
     7
100
AcDbLine
 10
372.5737101478727
 20
473.0092692517088
 30
0.0
 11
371.2302041478727
 21
474.3527752517088
 31
0.0
  0
LINE
  5
1B21
330
1A
100
AcDbEntity
  8
150
  6
CONTINUOUS
 62
     7
100
AcDbLine
 10
371.2302041478727
 20
475.7669902517087
 30
0.0
 11
372.5737101478727
 21
477.1104962517087
 31
0.0
  0
ARC
  5
1B22
330
1A
100
AcDbEntity
  8
150
  6
CONTINUOUS
 62
     7
100
AcDbCircle
 10
369.1089141478727
 20
477.8882982517087
 30
0.0
 40
1.0
100
AcDbArc
 50
224.999988
 51
314.9999839999999
  0
LINE
  5
1B23
330
1A
100
AcDbEntity
  8
150
  6
CONTINUOUS
 62
     7
100
AcDbLine
 10
378.6088971478727
 20
489.0598982517087
 30
0.0
 11
374.6088971478727
 21
489.0598982517087
 31
0.0
  0
LINE
  5
1B24
330
1A
100
AcDbEntity
  8
150
  6
CONTINUOUS
 62
     7
100
AcDbLine
 10
374.6088971478727
 20
490.0598982517087
 30
0.0
 11
374.6088971478727
 21
489.0598982517087
 31
0.0
  0
ARC
  5
1B25
330
1A
100
AcDbEntity
  8
150
  6
CONTINUOUS
 62
     7
100
AcDbCircle
 10
378.6088971478727
 20
488.0598982517088
 30
0.0
 40
1.0
100
AcDbArc
 50
0.0
 51
90.00000300000001
  0
ARC
  5
1B26
330
1A
100
AcDbEntity
  8
0
  6
CONTINUOUS
 62
     2
100
AcDbCircle
 10
413.1089271478726
 20
486.0598982517087
 30
0.0
 40
4.0
100
AcDbArc
 50
0.0
 51
90.00000300000001
  0
LINE
  5
1B27
330
1A
100
AcDbEntity
  8
150
  6
CONTINUOUS
 62
     7
100
AcDbLine
 10
412.9818831478727
 20
490.0598982517087
 30
0.0
 11
417.6088971478726
 21
490.0598982517087
 31
0.0
  0
ARC
  5
1B28
330
1A
100
AcDbEntity
  8
150
  6
CONTINUOUS
 62
     7
100
AcDbCircle
 10
417.6088971478726
 20
488.0598982517088
 30
0.0
 40
2.0
100
AcDbArc
 50
0.0
 51
90.00000300000001
  0
LINE
  5
1B29
330
1A
100
AcDbEntity
  8
210
  6
CONTINUOUS
 62
     4
100
AcDbLine
 10
195.1089051478727
 20
510.0599092517088
 30
0.0
 11
409.1088891478727
 21
510.0599092517088
 31
0.0
  0
TEXT
  5
1B2A
330
1A
100
AcDbEntity
  8
210
  6
CONTINUOUS
 62
     4
100
AcDbText
 10
296.4838891478727
 20
513.1849092517088
 30
0.0
 40
5.0
  1
214
100
AcDbText
  0
LINE
  5
1B2B
330
1A
100
AcDbEntity
  8
210
  6
CONTINUOUS
 62
     4
100
AcDbLine
 10
187.1089051478727
 20
530.0598482517087
 30
0.0
 11
417.1089201478726
 21
530.0598482517087
 31
0.0
  0
TEXT
  5
1B2C
330
1A
100
AcDbEntity
  8
210
  6
CONTINUOUS
 62
     4
100
AcDbText
 10
294.8589201478727
 20
533.1848482517087
 30
0.0
 40
5.0
  1
230
100
AcDbText
  0
LINE
  5
1B2D
330
1A
100
AcDbEntity
  8
210
  6
CONTINUOUS
 62
     4
100
AcDbLine
 10
195.1089051478727
 20
510.0599092517088
 30
0.0
 11
197.0809311478727
 21
509.7265762517088
 31
0.0
  0
LINE
  5
1B2E
330
1A
100
AcDbEntity
  8
210
  6
CONTINUOUS
 62
     4
100
AcDbLine
 10
195.1089051478727
 20
510.0599092517088
 30
0.0
 11
197.0809311478727
 21
510.3932422517088
 31
0.0
  0
LINE
  5
1B2F
330
1A
100
AcDbEntity
  8
210
  6
CONTINUOUS
 62
     4
100
AcDbLine
 10
187.1089051478727
 20
530.0598482517087
 30
0.0
 11
189.0809311478727
 21
529.7265152517087
 31
0.0
  0
LINE
  5
1B30
330
1A
100
AcDbEntity
  8
210
  6
CONTINUOUS
 62
     4
100
AcDbLine
 10
187.1089051478727
 20
530.0598482517087
 30
0.0
 11
189.0809311478727
 21
530.3931812517088
 31
0.0
  0
LINE
  5
1B31
330
1A
100
AcDbEntity
  8
210
  6
CONTINUOUS
 62
     4
100
AcDbLine
 10
409.1088891478727
 20
510.0599092517088
 30
0.0
 11
407.1368631478727
 21
509.7265762517088
 31
0.0
  0
LINE
  5
1B32
330
1A
100
AcDbEntity
  8
210
  6
CONTINUOUS
 62
     4
100
AcDbLine
 10
409.1088891478727
 20
510.0599092517088
 30
0.0
 11
407.1368631478727
 21
510.3932422517088
 31
0.0
  0
LINE
  5
1B33
330
1A
100
AcDbEntity
  8
210
  6
CONTINUOUS
 62
     4
100
AcDbLine
 10
417.1089201478726
 20
530.0598482517087
 30
0.0
 11
415.1368931478727
 21
529.7265152517087
 31
0.0
  0
LINE
  5
1B34
330
1A
100
AcDbEntity
  8
210
  6
CONTINUOUS
 62
     4
100
AcDbLine
 10
417.1089201478726
 20
530.0598482517087
 30
0.0
 11
415.1368931478727
 21
530.3931812517088
 31
0.0
  0
LINE
  5
1B37
330
1A
100
AcDbEntity
  8
210
  6
CONTINUOUS
 62
     4
100
AcDbLine
 10
474.1089201478726
 20
175.2868532517088
 30
0.0
 11
474.1089201478726
 21
125.2868612517088
 31
0.0
  0
LINE
  5
1B38
330
1A
100
AcDbEntity
  8
210
  6
CONTINUOUS
 62
     4
100
AcDbLine
 10
474.1089201478726
 20
125.2868612517088
 30
0.0
 11
473.7755871478726
 21
127.2588872517087
 31
0.0
  0
LINE
  5
1B39
330
1A
100
AcDbEntity
  8
210
  6
CONTINUOUS
 62
     4
100
AcDbLine
 10
474.1089201478726
 20
125.2868612517088
 30
0.0
 11
474.4422531478726
 21
127.2588872517087
 31
0.0
  0
LINE
  5
1B3B
330
1A
100
AcDbEntity
  8
210
  6
CONTINUOUS
 62
     4
100
AcDbLine
 10
454.1089201478727
 20
257.7868532517087
 30
0.0
 11
454.1089201478727
 21
175.2868532517088
 31
0.0
  0
LINE
  5
1B3D
330
1A
100
AcDbEntity
  8
210
  6
CONTINUOUS
 62
     4
100
AcDbLine
 10
435.1089201478727
 20
175.2868532517088
 30
0.0
 11
478.1714201478727
 21
175.2868532517088
 31
0.0
  0
LINE
  5
1B41
330
1A
100
AcDbEntity
  8
170
  6
PHANTOM2
100
AcDbLine
 10
434.1089271478726
 20
175.2868572517087
 30
0.0
 11
434.1089271478726
 21
135.2868722517088
 31
0.0
  0
LINE
  5
1B43
330
1A
100
AcDbEntity
  8
210
  6
CONTINUOUS
 62
     4
100
AcDbLine
 10
454.1089201478727
 20
175.2868532517088
 30
0.0
 11
453.7755871478727
 21
177.2588802517087
 31
0.0
  0
LINE
  5
1B44
330
1A
100
AcDbEntity
  8
210
  6
CONTINUOUS
 62
     4
100
AcDbLine
 10
454.1089201478727
 20
175.2868532517088
 30
0.0
 11
454.4422531478726
 21
177.2588802517087
 31
0.0
  0
LINE
  5
1B45
330
1A
100
AcDbEntity
  8
210
  6
CONTINUOUS
 62
     4
100
AcDbLine
 10
454.1089201478726
 20
175.2868532517088
 30
0.0
 11
454.1089201478726
 21
147.7868612517088
 31
0.0
  0
TEXT
  5
1B46
330
1A
100
AcDbEntity
  8
210
  6
CONTINUOUS
 62
     4
100
AcDbText
 10
450.9839201478726
 20
153.4118532517088
 30
0.0
 40
5.0
  1
27.5
 50
90.00000300000001
100
AcDbText
  0
LINE
  5
1B47
330
1A
100
AcDbEntity
  8
210
  6
CONTINUOUS
 62
     4
100
AcDbLine
 10
454.1089201478726
 20
147.7868612517088
 30
0.0
 11
453.7755871478726
 21
149.7588872517087
 31
0.0
  0
LINE
  5
1B48
330
1A
100
AcDbEntity
  8
210
  6
CONTINUOUS
 62
     4
100
AcDbLine
 10
454.1089201478726
 20
147.7868612517088
 30
0.0
 11
454.4422531478725
 21
149.7588872517087
 31
0.0
  0
LINE
  5
1B4C
330
1A
100
AcDbEntity
  8
210
  6
CONTINUOUS
 62
     4
100
AcDbLine
 10
454.1089201478726
 20
175.2868532517088
 30
0.0
 11
453.7755871478726
 21
173.3148262517087
 31
0.0
  0
LINE
  5
1B4D
330
1A
100
AcDbEntity
  8
210
  6
CONTINUOUS
 62
     4
100
AcDbLine
 10
454.1089201478726
 20
175.2868532517088
 30
0.0
 11
454.4422531478725
 21
173.3148262517087
 31
0.0
  0
TEXT
  5
1B50
330
1A
100
AcDbEntity
  8
210
  6
CONTINUOUS
 62
     4
100
AcDbText
 10
450.9839201478727
 20
208.1618532517087
 30
0.0
 40
5.0
  1
82.5
 50
90.00000300000001
100
AcDbText
  0
TEXT
  5
1B51
330
1A
100
AcDbEntity
  8
210
  6
CONTINUOUS
 62
     4
100
AcDbText
 10
470.9839201478726
 20
145.7035192517088
 30
0.0
 40
5.0
  1
50
 50
90.00000300000001
100
AcDbText
  0
LINE
  5
1B52
330
1A
100
AcDbEntity
  8
210
  6
CONTINUOUS
 62
     4
100
AcDbLine
 10
474.1089201478726
 20
175.2868532517088
 30
0.0
 11
473.7755871478726
 21
173.3148262517087
 31
0.0
  0
LINE
  5
1B53
330
1A
100
AcDbEntity
  8
210
  6
CONTINUOUS
 62
     4
100
AcDbLine
 10
474.1089201478726
 20
175.2868532517088
 30
0.0
 11
474.4422531478726
 21
173.3148262517087
 31
0.0
  0
LINE
  5
1B54
330
1A
100
AcDbEntity
  8
210
  6
CONTINUOUS
 62
     4
100
AcDbLine
 10
454.1089201478727
 20
257.7868532517087
 30
0.0
 11
453.7755871478727
 21
255.8148262517087
 31
0.0
  0
LINE
  5
1B55
330
1A
100
AcDbEntity
  8
210
  6
CONTINUOUS
 62
     4
100
AcDbLine
 10
454.1089201478727
 20
257.7868532517087
 30
0.0
 11
454.4422531478726
 21
255.8148262517087
 31
0.0
  0
LINE
  5
1B60
330
1A
100
AcDbEntity
  8
210
  6
CONTINUOUS
 62
     4
100
AcDbLine
 10
474.1089201478727
 20
400.0598792517087
 30
0.0
 11
474.1089201478727
 21
490.0599092517087
 31
0.0
  0
TEXT
  5
1B61
330
1A
100
AcDbEntity
  8
230
  6
CONTINUOUS
 62
     6
100
AcDbText
 10
435.8026940974594
 20
314.9893636915708
 30
0.0
 40
5.0
  1
端子カバー
100
AcDbText
  0
TEXT
  5
1B62
330
1A
100
AcDbEntity
  8
230
  6
CONTINUOUS
 62
     6
100
AcDbText
 10
425.4608686177838
 20
343.6066822160421
 30
0.0
 40
5.0
  1
ナベM8
100
AcDbText
  0
LINE
  5
1B63
330
1A
100
AcDbEntity
  8
210
  6
CONTINUOUS
 62
     4
100
AcDbLine
 10
474.1089201478727
 20
400.0598792517087
 30
0.0
 11
473.7755871478726
 21
402.0319052517088
 31
0.0
  0
LINE
  5
1B64
330
1A
100
AcDbEntity
  8
210
  6
CONTINUOUS
 62
     4
100
AcDbLine
 10
474.1089201478727
 20
400.0598792517087
 30
0.0
 11
474.4422531478726
 21
402.0319052517088
 31
0.0
  0
LINE
  5
1B65
330
1A
100
AcDbEntity
  8
210
  6
CONTINUOUS
 62
     4
100
AcDbLine
 10
454.1089201478727
 20
475.0599092517088
 30
0.0
 11
454.1089201478727
 21
445.0598792517087
 31
0.0
  0
TEXT
  5
1B66
330
1A
100
AcDbEntity
  8
210
  6
CONTINUOUS
 62
     4
100
AcDbText
 10
450.9839201478727
 20
455.3098782517087
 30
0.0
 40
5.0
  1
30
 50
90.00000300000001
100
AcDbText
  0
LINE
  5
1B67
330
1A
100
AcDbEntity
  8
210
  6
CONTINUOUS
 62
     4
100
AcDbLine
 10
454.1089201478727
 20
445.0598792517087
 30
0.0
 11
454.1089201478727
 21
415.0598792517087
 31
0.0
  0
TEXT
  5
1B68
330
1A
100
AcDbEntity
  8
210
  6
CONTINUOUS
 62
     4
100
AcDbText
 10
450.9839201478727
 20
425.3098782517088
 30
0.0
 40
5.0
  1
30
 50
90.00000300000001
100
AcDbText
  0
LINE
  5
1B69
330
1A
100
AcDbEntity
  8
210
  6
CONTINUOUS
 62
     4
100
AcDbLine
 10
454.1089201478727
 20
415.0598792517087
 30
0.0
 11
453.7755871478727
 21
417.0319052517087
 31
0.0
  0
LINE
  5
1B6A
330
1A
100
AcDbEntity
  8
210
  6
CONTINUOUS
 62
     4
100
AcDbLine
 10
454.1089201478727
 20
415.0598792517087
 30
0.0
 11
454.4422531478726
 21
417.0319052517087
 31
0.0
  0
LINE
  5
1B6B
330
1A
100
AcDbEntity
  8
210
  6
CONTINUOUS
 62
     4
100
AcDbLine
 10
440.2961151478726
 20
445.0598792517087
 30
0.0
 11
458.1714201478726
 21
445.0598792517087
 31
0.0
  0
LINE
  5
1B6C
330
1A
100
AcDbEntity
  8
210
  6
CONTINUOUS
 62
     4
100
AcDbLine
 10
454.1089201478727
 20
445.0598792517087
 30
0.0
 11
453.7755871478727
 21
443.0878522517088
 31
0.0
  0
LINE
  5
1B6D
330
1A
100
AcDbEntity
  8
210
  6
CONTINUOUS
 62
     4
100
AcDbLine
 10
454.1089201478727
 20
445.0598792517087
 30
0.0
 11
454.4422531478726
 21
443.0878522517088
 31
0.0
  0
LINE
  5
1B6E
330
1A
100
AcDbEntity
  8
210
  6
CONTINUOUS
 62
     4
100
AcDbLine
 10
454.1089201478727
 20
445.0598792517087
 30
0.0
 11
453.7755871478727
 21
447.0319052517088
 31
0.0
  0
LINE
  5
1B6F
330
1A
100
AcDbEntity
  8
210
  6
CONTINUOUS
 62
     4
100
AcDbLine
 10
454.1089201478727
 20
445.0598792517087
 30
0.0
 11
454.4422531478726
 21
447.0319052517088
 31
0.0
  0
TEXT
  5
1B70
330
1A
100
AcDbEntity
  8
210
  6
CONTINUOUS
 62
     4
100
AcDbText
 10
470.9839201478727
 20
440.3098782517087
 30
0.0
 40
5.0
  1
90
 50
90.00000300000001
100
AcDbText
  0
LINE
  5
1B71
330
1A
100
AcDbEntity
  8
210
  6
CONTINUOUS
 62
     4
100
AcDbLine
 10
454.1089201478727
 20
475.0599092517088
 30
0.0
 11
453.7755871478727
 21
473.0878822517087
 31
0.0
  0
LINE
  5
1B72
330
1A
100
AcDbEntity
  8
210
  6
CONTINUOUS
 62
     4
100
AcDbLine
 10
454.1089201478727
 20
475.0599092517088
 30
0.0
 11
454.4422531478726
 21
473.0878822517087
 31
0.0
  0
LINE
  5
1B73
330
1A
100
AcDbEntity
  8
210
  6
CONTINUOUS
 62
     4
100
AcDbLine
 10
474.1089201478727
 20
490.0599092517087
 30
0.0
 11
473.7755871478726
 21
488.0878822517088
 31
0.0
  0
LINE
  5
1B74
330
1A
100
AcDbEntity
  8
210
  6
CONTINUOUS
 62
     4
100
AcDbLine
 10
474.1089201478727
 20
490.0599092517087
 30
0.0
 11
474.4422531478726
 21
488.0878822517088
 31
0.0
  0
TEXT
  5
1B76
330
1A
100
AcDbEntity
  8
230
  6
CONTINUOUS
 62
     6
100
AcDbText
 10
313.1800096978301
 20
70.56526525170875
 30
0.0
 40
5.0
  1
ブスバーピッチ
100
AcDbText
  0
LINE
  5
1BB1
330
1A
100
AcDbEntity
  8
0
  6
CONTINUOUS
 62
     2
100
AcDbLine
 10
327.1088971478727
 20
301.7868572517087
 30
0.0
 11
343.1088971478727
 21
301.7868572517087
 31
0.0
  0
LINE
  5
1BB2
330
1A
100
AcDbEntity
  8
150
 62
     7
100
AcDbLine
 10
277.1088971478727
 20
301.7868572517087
 30
0.0
 11
327.1088971478727
 21
301.7868572517087
 31
0.0
  0
LINE
  5
1BB3
330
1A
100
AcDbEntity
  8
0
 62
     2
100
AcDbLine
 10
250.2088731478727
 20
294.7868572517088
 30
0.0
 11
260.1088971478727
 21
294.7868572517088
 31
0.0
  0
LINE
  5
1BB4
330
1A
100
AcDbEntity
  8
0
 62
     2
100
AcDbLine
 10
381.1088971478726
 20
233.7868572517087
 30
0.0
 11
379.6088971478727
 21
233.7868572517087
 31
0.0
  0
TEXT
  5
3CE0
330
1A
100
AcDbEntity
  8
230
 62
     6
100
AcDbText
 10
686.4420267414823
 20
113.7706993306878
 30
0.0
 40
10.0
  1
パネルカット寸法図
100
AcDbText
  0
LINE
  5
3CE1
330
1A
100
AcDbEntity
  8
230
  6
CONTINUOUS
 62
     6
100
AcDbLine
 10
682.0742061627513
 20
109.921579330688
 30
0.0
 11
793.1688158201189
 21
109.921579330688
 31
0.0
  0
MTEXT
  5
3CEE
330
1A
100
AcDbEntity
  8
210
 62
     4
100
AcDbMText
 10
737.6215109914351
 20
325.4975675739259
 30
0.0
 40
5.0
 41
0.0
 71
     5
 72
     1
  1
\A1;92
1001
ACAD
1000
MTEXTBEGIN
1070
    73
1070
     1
1070
    44
1040
1.0
1070
    74
1070
     0
1000
MTEXTEND
1000
MTEXTBEGIN
1070
    73
1070
     1
1070
    44
1040
1.0
1070
    74
1070
     0
1000
MTEXTEND
1000
MTEXTBEGIN
1070
    73
1070
     1
1070
    44
1040
1.0
1070
    74
1070
     0
1000
MTEXTEND
  0
LINE
  5
3CEF
330
1A
100
AcDbEntity
  8
210
 62
     4
100
AcDbLine
 10
693.8215109914351
 20
320.9975675739258
 30
0.0
 11
781.4215109914351
 21
320.9975675739258
 31
0.0
  0
TEXT
  5
3CF0
330
1A
100
AcDbEntity
  8
230
 62
     6
100
AcDbText
 10
716.1445651261463
 20
312.7306767532355
 30
0.0
 40
5.0
  1
パネルカット幅
100
AcDbText
  0
LINE
  5
3CF1
330
1A
100
AcDbEntity
  8
210
 62
     4
100
AcDbLine
 10
691.6215109914351
 20
282.8744676004697
 30
0.0
 11
691.6215109914351
 21
323.4975675739259
 31
0.0
  0
INSERT
  5
3CF2
330
1A
100
AcDbEntity
  8
210
 62
     4
100
AcDbBlockReference
  2
_OPEN30
 10
691.6215109914351
 20
320.9975675739258
 30
0.0
 41
2.200000000000045
 42
2.199999999999988
 43
2.2
 50
180.0
  0
LINE
  5
3CF3
330
1A
100
AcDbEntity
  8
210
 62
     4
100
AcDbLine
 10
783.6215109914351
 20
282.8744676004697
 30
0.0
 11
783.6215109914351
 21
323.4975675739259
 31
0.0
  0
TEXT
  5
3CF4
330
1A
100
AcDbEntity
  8
230
 62
     6
100
AcDbText
 10
731.1570413170054
 20
285.1325144468603
 30
0.0
 40
5.0
  1
ASL
100
AcDbText
  0
INSERT
  5
3CF5
330
1A
100
AcDbEntity
  8
210
 62
     4
100
AcDbBlockReference
  2
_OPEN30
 10
783.6215109914351
 20
320.9975675739258
 30
0.0
 41
2.200000000000045
 42
2.199999999999988
 43
2.2
  0
TEXT
  5
3D0C
330
1A
100
AcDbEntity
  8
230
 62
     6
100
AcDbText
 10
709.7421860289235
 20
360.2087122517086
 30
0.0
 40
10.0
  1
取付寸法図
100
AcDbText
  0
LINE
  5
3D0D
330
1A
100
AcDbEntity
  8
230
  6
CONTINUOUS
 62
     6
100
AcDbLine
 10
697.281150940815
 20
356.3595922517088
 30
0.0
 11
777.9618710420552
 21
356.3595922517088
 31
0.0
  0
MTEXT
  5
3D70
330
1A
100
AcDbEntity
  8
210
 62
     4
100
AcDbMText
 10
837.121510991435
 20
531.7800172517088
 30
0.0
 40
5.0
 41
0.0
 71
     5
 72
     1
  1
\A1;15
1001
ACAD
1000
MTEXTBEGIN
1070
    73
1070
     1
1070
    44
1040
1.0
1070
    74
1070
     0
1000
MTEXTEND
1000
MTEXTBEGIN
1070
    73
1070
     1
1070
    44
1040
1.0
1070
    74
1070
     0
1000
MTEXTEND
1000
MTEXTBEGIN
1070
    73
1070
     1
1070
    44
1040
1.0
1070
    74
1070
     0
1000
MTEXTEND
  0
MTEXT
  5
3D72
330
1A
100
AcDbEntity
  8
210
 62
     4
100
AcDbMText
 10
737.6215109914349
 20
531.7800172517088
 30
0.0
 40
5.0
 41
0.0
 71
     5
 72
     1
  1
\A1;184
1001
ACAD
1000
MTEXTBEGIN
1070
    73
1070
     1
1070
    44
1040
1.0
1070
    74
1070
     0
1000
MTEXTEND
1000
MTEXTBEGIN
1070
    73
1070
     1
1070
    44
1040
1.0
1070
    74
1070
     0
1000
MTEXTEND
1000
MTEXTBEGIN
1070
    73
1070
     1
1070
    44
1040
1.0
1070
    74
1070
     0
1000
MTEXTEND
  0
MTEXT
  5
3D73
330
1A
100
AcDbEntity
  8
210
 62
     4
100
AcDbMText
 10
638.121541491435
 20
531.7800172517088
 30
0.0
 40
5.0
 41
0.0
 71
     5
 72
     1
  1
\A1;15
1001
ACAD
1000
MTEXTBEGIN
1070
    73
1070
     1
1070
    44
1040
1.0
1070
    74
1070
     0
1000
MTEXTEND
1000
MTEXTBEGIN
1070
    73
1070
     1
1070
    44
1040
1.0
1070
    74
1070
     0
1000
MTEXTEND
1000
MTEXTBEGIN
1070
    73
1070
     1
1070
    44
1040
1.0
1070
    74
1070
     0
1000
MTEXTEND
  0
MTEXT
  5
3D74
330
1A
100
AcDbEntity
  8
210
 62
     4
100
AcDbMText
 10
735.9549154914348
 20
550.5925172517088
 30
0.0
 40
5.0
 41
0.0
 71
     5
 72
     1
  1
\A1;214
1001
ACAD
1000
MTEXTBEGIN
1070
    73
1070
     1
1070
    44
1040
1.0
1070
    74
1070
     0
1000
MTEXTEND
1000
MTEXTBEGIN
1070
    73
1070
     1
1070
    44
1040
1.0
1070
    74
1070
     0
1000
MTEXTEND
1000
MTEXTBEGIN
1070
    73
1070
     1
1070
    44
1040
1.0
1070
    74
1070
     0
1000
MTEXTEND
  0
LINE
  5
3D75
330
1A
100
AcDbEntity
  8
210
 62
     4
100
AcDbLine
 10
632.8215719914351
 20
547.2800172517088
 30
0.0
 11
842.4215109914351
 21
547.2800172517088
 31
0.0
  0
LINE
  5
3D7C
330
1A
100
AcDbEntity
  8
210
 62
     4
100
AcDbLine
 10
647.8215109914351
 20
527.2800172517088
 30
0.0
 11
827.4215109914349
 21
527.2800172517088
 31
0.0
  0
LINE
  5
3D7E
330
1A
100
AcDbEntity
  8
210
 62
     4
100
AcDbLine
 10
630.6215719914351
 20
465.5599092517087
 30
0.0
 11
630.6215719914351
 21
529.7800172517088
 31
0.0
  0
LINE
  5
3D7F
330
1A
100
AcDbEntity
  8
230
 62
     6
100
AcDbLine
 10
629.6419579914349
 20
470.3954802517086
 30
0.0
 11
608.7965027072441
 21
530.7373325393814
 31
0.0
  0
LINE
  5
3D92
330
1A
100
AcDbEntity
  8
230
100
AcDbLine
 10
629.6419579914349
 20
470.3954802517086
 30
0.0
 11
629.3131119914351
 21
472.3682602517087
 31
0.0
  0
LINE
  5
3D96
330
1A
100
AcDbEntity
  8
230
100
AcDbLine
 10
629.6419579914349
 20
470.3954802517086
 30
0.0
 11
628.6829849914349
 21
472.1505792517088
 31
0.0
  0
INSERT
  5
3D97
330
1A
100
AcDbEntity
  8
210
 62
     4
100
AcDbBlockReference
  2
_OPEN30
 10
645.6215109914349
 20
527.2800172517088
 30
0.0
 41
2.200000000000045
 42
2.199999999999988
 43
2.2
 50
180.0
  0
LINE
  5
3D98
330
1A
100
AcDbEntity
  8
210
 62
     4
100
AcDbLine
 10
645.6215109914349
 20
523.7257277210844
 30
0.0
 11
645.6215109914349
 21
529.7800172517088
 31
0.0
  0
LINE
  5
3D9A
330
1A
100
AcDbEntity
  8
230
  6
CONTINUOUS
 62
     6
100
AcDbLine
 10
608.7965027072441
 20
530.7373325393814
 30
0.0
 11
582.0015837241378
 21
530.7373325393814
 31
0.0
  0
TEXT
  5
3D9C
330
1A
100
AcDbEntity
  8
230
 62
     6
100
AcDbText
 10
582.8945922706359
 20
533.8434902058459
 30
0.0
 40
5.0
  1
2-M6
100
AcDbText
  0
LINE
  5
3D9D
330
1A
100
AcDbEntity
  8
210
 62
     4
100
AcDbLine
 10
645.6215109914351
 20
505.0599092517088
 30
0.0
 11
645.6215109914351
 21
529.7800172517088
 31
0.0
  0
LINE
  5
3D9E
330
1A
100
AcDbEntity
  8
210
 62
     4
100
AcDbLine
 10
630.6215719914351
 20
514.5536564732117
 30
0.0
 11
630.6215719914351
 21
549.7800172517088
 31
0.0
  0
LINE
  5
3DA3
330
1A
100
AcDbEntity
  8
210
 62
     4
100
AcDbLine
 10
632.8215719914351
 20
527.2800172517088
 30
0.0
 11
643.421510991435
 21
527.2800172517088
 31
0.0
  0
INSERT
  5
3DA4
330
1A
100
AcDbEntity
  8
210
 62
     4
100
AcDbBlockReference
  2
_OPEN30
 10
630.6215719914351
 20
547.2800172517088
 30
0.0
 41
2.200000000000045
 42
2.199999999999988
 43
2.2
 50
180.0
  0
INSERT
  5
3DA5
330
1A
100
AcDbEntity
  8
210
 62
     4
100
AcDbBlockReference
  2
_OPEN30
 10
630.6215719914351
 20
527.2800172517088
 30
0.0
 41
2.200000000000045
 42
2.199999999999988
 43
2.2
 50
180.0
  0
INSERT
  5
3DA6
330
1A
100
AcDbEntity
  8
210
 62
     4
100
AcDbBlockReference
  2
_OPEN30
 10
645.6215109914351
 20
527.2800172517088
 30
0.0
 41
2.200000000000045
 42
2.199999999999988
 43
2.2
  0
LINE
  5
3DA7
330
1A
100
AcDbEntity
  8
230
  6
CONTINUOUS
 62
     6
100
AcDbLine
 10
864.6215109914351
 20
481.0841782034454
 30
0.0
 11
890.2428264519761
 21
525.4615983378521
 31
0.0
  0
LINE
  5
3DA9
330
1A
100
AcDbEntity
  8
210
 62
     4
100
AcDbLine
 10
844.6215109914351
 20
420.5599092517088
 30
0.0
 11
844.6215109914351
 21
529.7800172517088
 31
0.0
  0
INSERT
  5
3DB5
330
1A
100
AcDbEntity
  8
210
 62
     4
100
AcDbBlockReference
  2
_OPEN30
 10
829.6215109914349
 20
527.2800172517088
 30
0.0
 41
2.200000000000045
 42
2.199999999999988
 43
2.2
  0
LINE
  5
3DB6
330
1A
100
AcDbEntity
  8
210
 62
     4
100
AcDbLine
 10
829.6215109914349
 20
523.7257277210844
 30
0.0
 11
829.6215109914349
 21
529.7800172517088
 31
0.0
  0
LINE
  5
3DBD
330
1A
100
AcDbEntity
  8
230
  6
CONTINUOUS
 62
     6
100
AcDbLine
 10
864.6215109914351
 20
481.0841782034454
 30
0.0
 11
865.8961986120894
 21
482.6253368016024
 31
0.0
  0
LINE
  5
3DBE
330
1A
100
AcDbEntity
  8
230
  6
CONTINUOUS
 62
     6
100
AcDbLine
 10
864.6215109914351
 20
481.0841782034454
 30
0.0
 11
865.3188487844014
 21
482.9586701032581
 31
0.0
  0
INSERT
  5
3DBF
330
1A
100
AcDbEntity
  8
210
 62
     4
100
AcDbBlockReference
  2
_OPEN30
 10
844.6215109914351
 20
547.2800172517088
 30
0.0
 41
2.200000000000045
 42
2.199999999999988
 43
2.2
  0
INSERT
  5
3DC0
330
1A
100
AcDbEntity
  8
210
 62
     4
100
AcDbBlockReference
  2
_OPEN30
 10
844.6215109914351
 20
527.2800172517088
 30
0.0
 41
2.200000000000045
 42
2.199999999999988
 43
2.2
  0
LINE
  5
3DC3
330
1A
100
AcDbEntity
  8
210
 62
     4
100
AcDbLine
 10
829.6215109914351
 20
505.0599092517088
 30
0.0
 11
829.6215109914351
 21
529.7800172517088
 31
0.0
  0
LINE
  5
3DC6
330
1A
100
AcDbEntity
  8
210
 62
     4
100
AcDbLine
 10
831.8215109914351
 20
527.2800172517088
 30
0.0
 11
842.4215109914351
 21
527.2800172517088
 31
0.0
  0
INSERT
  5
3DC7
330
1A
100
AcDbEntity
  8
210
 62
     4
100
AcDbBlockReference
  2
_OPEN30
 10
829.6215109914351
 20
527.2800172517088
 30
0.0
 41
2.200000000000045
 42
2.199999999999988
 43
2.2
 50
180.0
  0
LINE
  5
3DC8
330
1A
100
AcDbEntity
  8
230
  6
CONTINUOUS
 62
     6
100
AcDbLine
 10
890.2428264519761
 20
525.4615983378521
 30
0.0
 11
932.4734994082394
 21
525.4615983378521
 31
0.0
  0
TEXT
  5
3DC9
330
1A
100
AcDbEntity
  8
230
  6
CONTINUOUS
 62
     6
100
AcDbText
 10
894.969968451976
 20
527.2031763378522
 30
0.0
 40
5.0
  1
取付アングル
100
AcDbText
  0
LINE
  5
3DCA
330
1A
100
AcDbEntity
  8
210
 62
     4
100
AcDbLine
 10
844.6215109914351
 20
514.5536564732117
 30
0.0
 11
844.6215109914351
 21
549.7800172517088
 31
0.0
  0
TEXT
  5
3DCF
330
1A
100
AcDbEntity
  8
230
 62
     6
100
AcDbText
 10
555.1747688075129
 20
444.3137307606325
 30
0.0
 40
5.0
  1
H
100
AcDbText
  0
TEXT
  5
3DD0
330
1A
100
AcDbEntity
  8
230
 62
     6
100
AcDbText
 10
556.7716881274516
 20
442.3348975473916
 30
0.0
 40
5.0
  1
L
100
AcDbText
  0
LINE
  5
3DD1
330
1A
100
AcDbEntity
  8
210
 62
     4
100
AcDbLine
 10
546.1233742885276
 20
465.3599242517087
 30
0.0
 11
546.1233742885276
 21
424.7599092517091
 31
0.0
  0
MTEXT
  5
3DD2
330
1A
100
AcDbEntity
  8
210
 62
     4
100
AcDbMText
 10
541.6233742885274
 20
445.0599167517089
 30
0.0
 40
5.0
 41
0.0
 71
     5
 72
     1
  1
\A1;45
 11
0.0000000000000001
 21
1.0
 31
0.0
1001
ACAD
1000
MTEXTBEGIN
1070
    73
1070
     1
1070
    44
1040
1.0
1070
    74
1070
     0
1000
MTEXTEND
1000
MTEXTBEGIN
1070
    73
1070
     1
1070
    44
1040
1.0
1070
    74
1070
     0
1000
MTEXTEND
1000
MTEXTBEGIN
1070
    73
1070
     1
1070
    44
1040
1.0
1070
    74
1070
     0
1000
MTEXTEND
  0
INSERT
  5
3DD3
330
1A
100
AcDbEntity
  8
210
 62
     4
100
AcDbBlockReference
  2
_OPEN30
 10
546.1233742885276
 20
422.559909251709
 30
0.0
 41
2.199999999999988
 42
2.199999999999988
 43
2.2
 50
270.0
  0
INSERT
  5
3DD4
330
1A
100
AcDbEntity
  8
210
 62
     4
100
AcDbBlockReference
  2
_OPEN30
 10
546.1233742885276
 20
467.5599242517087
 30
0.0
 41
2.199999999999988
 42
2.199999999999988
 43
2.2
 50
90.0
  0
LINE
  5
3DD5
330
1A
100
AcDbEntity
  8
210
 62
     4
100
AcDbLine
 10
834.1215109914351
 20
422.5599092517088
 30
0.0
 11
543.6233742885276
 21
422.559909251709
 31
0.0
  0
LINE
  5
3DD6
330
1A
100
AcDbEntity
  8
210
 62
     4
100
AcDbLine
 10
619.7471519914349
 20
467.5599242517087
 30
0.0
 11
543.6233742885276
 21
467.5599242517087
 31
0.0
  0
TEXT
  5
3DD7
330
1A
100
AcDbEntity
  8
230
 62
     6
100
AcDbText
 10
731.2564422627579
 20
517.1983072076796
 30
0.0
 40
5.0
  1
ASL
100
AcDbText
  0
LINE
  5
3DD8
330
1A
100
AcDbEntity
  8
210
  6
CONTINUOUS
 62
     4
100
AcDbLine
 10
474.1089201478726
 20
300.2868682517088
 30
0.0
 11
474.1089201478726
 21
175.2868532517088
 31
0.0
  0
LINE
  5
3DD9
330
1A
100
AcDbEntity
  8
210
  6
CONTINUOUS
 62
     4
100
AcDbLine
 10
474.1089201478726
 20
175.2868532517088
 30
0.0
 11
473.7755871478726
 21
177.2588802517087
 31
0.0
  0
LINE
  5
3DDA
330
1A
100
AcDbEntity
  8
210
  6
CONTINUOUS
 62
     4
100
AcDbLine
 10
474.1089201478726
 20
175.2868532517088
 30
0.0
 11
474.4422531478726
 21
177.2588802517087
 31
0.0
  0
TEXT
  5
3DDB
330
1A
100
AcDbEntity
  8
210
  6
CONTINUOUS
 62
     4
100
AcDbText
 10
470.9839201478726
 20
231.6618532517087
 30
0.0
 40
5.0
  1
125
 50
90.00000300000001
100
AcDbText
  0
LINE
  5
3DDC
330
1A
100
AcDbEntity
  8
210
  6
CONTINUOUS
 62
     4
100
AcDbLine
 10
434.1089271478726
 20
300.2868572517087
 30
0.0
 11
478.1714201478727
 21
300.2868682517088
 31
0.0
  0
LINE
  5
3DDD
330
1A
100
AcDbEntity
  8
210
  6
CONTINUOUS
 62
     4
100
AcDbLine
 10
474.1089201478726
 20
300.2868682517088
 30
0.0
 11
473.7755871478726
 21
298.3148422517087
 31
0.0
  0
LINE
  5
3DDE
330
1A
100
AcDbEntity
  8
210
  6
CONTINUOUS
 62
     4
100
AcDbLine
 10
474.1089201478726
 20
300.2868682517088
 30
0.0
 11
474.4422531478726
 21
298.3148422517087
 31
0.0
  0
TEXT
  5
3DE1
330
1A
100
AcDbEntity
  8
230
 62
     6
100
AcDbText
 10
556.7716881274516
 20
204.1211576263707
 30
0.0
 40
5.0
  1
L
100
AcDbText
  0
TEXT
  5
3DE2
330
1A
100
AcDbEntity
  8
230
 62
     6
100
AcDbText
 10
555.1747688075129
 20
206.0999908396116
 30
0.0
 40
5.0
  1
H
100
AcDbText
  0
LINE
  5
4438
330
1A
100
AcDbEntity
  8
210
  6
CONTINUOUS
 62
     4
100
AcDbLine
 10
170.0463971478727
 20
175.2868572517087
 30
0.0
 11
147.6089051478726
 21
175.2868572517087
 31
0.0
  0
LINE
  5
4439
330
1A
100
AcDbEntity
  8
210
  6
CONTINUOUS
 62
     4
100
AcDbLine
 10
189.0463971478727
 20
196.2868572517087
 30
0.0
 11
147.6089051478727
 21
196.2868572517087
 31
0.0
  0
LINE
  5
443A
330
1A
100
AcDbEntity
  8
210
  6
CONTINUOUS
 62
     4
100
AcDbLine
 10
150.1089051478726
 20
177.4868572517087
 30
0.0
 11
150.1089051478727
 21
194.0868572517087
 31
0.0
  0
INSERT
  5
443B
330
1A
100
AcDbEntity
  8
210
  6
CONTINUOUS
 62
     4
100
AcDbBlockReference
  2
_OPEN30
 10
150.1089051478726
 20
175.2868572517087
 30
0.0
 41
2.2
 42
2.2
 43
2.2
 50
270.0
  0
INSERT
  5
443C
330
1A
100
AcDbEntity
  8
210
  6
CONTINUOUS
 62
     4
100
AcDbBlockReference
  2
_OPEN30
 10
150.1089051478727
 20
196.2868572517087
 30
0.0
 41
2.2
 42
2.2
 43
2.2
 50
90.0
  0
MTEXT
  5
443D
330
1A
100
AcDbEntity
  8
210
  6
CONTINUOUS
 62
     4
100
AcDbMText
 10
145.6089051478726
 20
185.7868572517087
 30
0.0
 40
5.0
 41
0.0
 71
     5
 72
     1
  1
\A1;21
 11
0.0000000000000001
 21
1.0
 31
0.0
1001
ACAD
1000
MTEXTBEGIN
1070
    73
1070
     1
1070
    44
1040
1.0
1070
    74
1070
     0
1000
MTEXTEND
1000
MTEXTBEGIN
1070
    73
1070
     1
1070
    44
1040
1.0
1070
    74
1070
     0
1000
MTEXTEND
1000
MTEXTBEGIN
1070
    73
1070
     1
1070
    44
1040
1.0
1070
    74
1070
     0
1000
MTEXTEND
  0
LINE
  5
443E
330
1A
100
AcDbEntity
  8
150
  6
HIDDEN2
 62
     7
100
AcDbLine
 10
290.7089031478727
 20
451.8098672517088
 30
0.0
 11
290.7089031478727
 21
438.3098672517088
 31
0.0
  0
CIRCLE
  5
4442
330
1A
100
AcDbEntity
  8
10
100
AcDbCircle
 10
409.1089201478726
 20
422.5598772517087
 30
0.0
 40
2.999977000016725
  0
CIRCLE
  5
4443
330
1A
100
AcDbEntity
  8
10
100
AcDbCircle
 10
195.1089201478726
 20
467.5598472517086
 30
0.0
 40
2.999977000016725
  0
LWPOLYLINE
  5
444B
330
1A
100
AcDbEntity
  8
10
  6
HIDDEN2
100
AcDbPolyline
 90
        4
 70
     1
 43
0.0
 10
406.1088971478727
 20
170.2868572517087
 10
412.1088971478727
 20
170.2868572517087
 10
412.1088971478727
 20
189.2868572517087
 10
406.1088971478727
 20
189.2868572517087
  0
LWPOLYLINE
  5
444D
330
1A
100
AcDbEntity
  8
10
  6
HIDDEN2
100
AcDbPolyline
 90
        4
 70
     1
 43
0.0
 10
192.1088971478727
 20
170.2868572517087
 10
198.1088971478727
 20
170.2868572517087
 10
198.1088971478727
 20
189.2868572517087
 10
192.1088971478727
 20
189.2868572517087
  0
LWPOLYLINE
  5
445A
330
1A
100
AcDbEntity
  8
230
 62
     6
100
AcDbPolyline
 90
        4
 70
     1
 43
0.0
 10
696.3764714165515
 20
70.49854385441688
 10
785.8594760697676
 20
70.49854385441688
 10
785.8594760697676
 20
87.77986208524726
 10
696.3764714165515
 20
87.77986208524726
  0
TEXT
  5
445B
330
1A
100
AcDbEntity
  8
230
 62
     6
100
AcDbText
 10
709.6141352498159
 20
74.34766385441673
 30
0.0
 40
10.0
  1
XDI2S
100
AcDbText
  0
HATCH
  5
44B2
330
1A
100
AcDbEntity
  8
170
100
AcDbHatch
 10
0.0
 20
0.0
 30
0.0
210
0.0
220
0.0
230
1.0
  2
ANSI31
 70
     0
 71
     0
 91
        4
 92
        7
 72
     1
 73
     1
 93
        7
 10
845.6215109914351
 20
251.8461693306879
 42
-0.4142135623730958
 10
852.6215109914351
 20
244.8461693306879
 42
0.0
 10
852.621510991435
 20
206.8461693306878
 42
0.0
 10
871.6215109914349
 20
206.8461693306878
 42
0.0
 10
871.6215109914351
 20
271.8461693306878
 42
0.0
 10
783.6215109914351
 20
271.8461693306878
 42
0.0
 10
783.6215109914352
 20
251.8461693306879
 42
0.0
 97
        0
 92
       22
 72
     1
 73
     1
 93
        5
 10
783.6215109914351
 20
251.8461693306879
 42
0.0
 10
783.6215109914352
 20
206.8461693306878
 42
0.0
 10
852.6215109914351
 20
206.8461693306879
 42
0.0
 10
852.6215109914351
 20
244.8461693306879
 42
0.4142135623730958
 10
845.6215109914351
 20
251.8461693306879
 42
0.0
 97
        0
 92
        7
 72
     1
 73
     1
 93
        5
 10
852.621510991435
 20
206.8461693306878
 42
0.0
 10
783.6215109914349
 20
206.8461693306878
 42
0.0
 10
783.6215109914351
 20
161.8461393306879
 42
0.0
 10
845.6215109914351
 20
161.8461393306879
 42
0.4142135623730959
 10
852.6215109914351
 20
168.8461393306879
 42
0.0
 97
        0
 92
        7
 72
     1
 73
     1
 93
        7
 10
871.6215109914351
 20
206.8461693306878
 42
0.0
 10
852.6215109914351
 20
206.8461693306878
 42
0.0
 10
852.6215109914351
 20
168.8461393306879
 42
-0.4142135623730959
 10
845.6215109914351
 20
161.8461393306879
 42
0.0
 10
783.6215109914351
 20
161.8461393306879
 42
0.0
 10
783.6215109914351
 20
141.846139330688
 42
0.0
 10
871.6215109914349
 20
141.846139330688
 42
0.0
 97
        0
 75
     0
 76
     1
 52
0.0
 41
50.0
 77
     0
 78
     1
 53
45.0
 43
0.0
 44
0.0
 45
-4.419417382415921
 46
4.419417382415922
 79
     0
 47
0.39320327281905
 98
        4
 10
796.5574271697919
 20
257.7811349092014
 10
810.72428981058
 20
237.3345653929516
 10
834.3357303158263
 20
180.7132930452608
 10
864.2435526007952
 20
174.4220416159334
  0
ENDSEC
  0
SECTION
  2
OBJECTS
  0
DICTIONARY
  5
C
330
0
100
AcDbDictionary
  3
ACAD_GROUP
350
D
  3
ACAD_LAYOUT
350
1B83
  3
ACAD_MLINESTYLE
350
E
  3
ACAD_PLOTSETTINGS
350
1B84
  3
ACAD_PLOTSTYLENAME
350
1B81
  3
ACDBHEADERROUNDTRIPXREC
350
44F7
  3
ACDBVARIABLEDICTIONARY
350
E7A
  0
DICTIONARY
  5
1BF7
330
1A
100
AcDbDictionary
280
     1
  3
ACAD_LAYOUTSELFREF
360
4519
  0
DICTIONARY
  5
1BF5
330
17
100
AcDbDictionary
280
     1
  3
ACAD_LAYOUTSELFREF
360
4518
  0
DICTIONARY
  5
D
102
{ACAD_REACTORS
330
C
102
}
330
C
100
AcDbDictionary
  0
DICTIONARY
  5
1B83
102
{ACAD_REACTORS
330
C
102
}
330
C
100
AcDbDictionary
  0
DICTIONARY
  5
E
102
{ACAD_REACTORS
330
C
102
}
330
C
100
AcDbDictionary
  3
STANDARD
350
13
  0
DICTIONARY
  5
1B84
102
{ACAD_REACTORS
330
C
102
}
330
C
100
AcDbDictionary
  0
ACDBDICTIONARYWDFLT
  5
1B81
102
{ACAD_REACTORS
330
C
102
}
330
C
100
AcDbDictionary
281
     1
  3
Normal
350
1B82
100
AcDbDictionaryWithDefault
340
1B82
  0
DICTIONARY
  5
44F7
102
{ACAD_REACTORS
330
C
102
}
330
C
100
AcDbDictionary
  3
CEPSNTYPE
350
4501
  3
DIMSTYLEDATA
350
4505
  3
FINGERPRINTGUID
350
4502
  3
HYPERLINKBASE
350
44FA
  3
INSUNITS
350
4500
  3
LAYOUTDICT
350
44FC
  3
LWETCUNION
350
44FF
  3
PLOTSETDICT
350
44FD
  3
PLOTSTYLNAMDICT
350
44FE
  3
PSVPSCALE
350
4504
  3
PUCSBASE
350
4508
  3
PUCSORGBACK
350
450E
  3
PUCSORGBOTTOM
350
450A
  3
PUCSORGFRONT
350
450D
  3
PUCSORGLEFT
350
450B
  3
PUCSORGRIGHT
350
450C
  3
PUCSORGTOP
350
4509
  3
PUCSORTHOREF
350
4506
  3
PUCSORTHOVIEW
350
4507
  3
STYLESHEET
350
44FB
  3
TSTACKALIGN
350
44F8
  3
TSTACKSIZE
350
44F9
  3
UCSBASE
350
4511
  3
UCSORGBACK
350
4517
  3
UCSORGBOTTOM
350
4513
  3
UCSORGFRONT
350
4516
  3
UCSORGLEFT
350
4514
  3
UCSORGRIGHT
350
4515
  3
UCSORGTOP
350
4512
  3
UCSORTHOREF
350
450F
  3
UCSORTHOVIEW
350
4510
  3
VERSIONGUID
350
4503
  0
DICTIONARY
  5
E7A
102
{ACAD_REACTORS
330
C
102
}
330
C
100
AcDbDictionary
  3
SORTENTS
350
E7B
  0
XRECORD
  5
4519
102
{ACAD_REACTORS
330
1BF7
102
}
330
1BF7
100
AcDbXrecord
340
1A
  0
XRECORD
  5
4518
102
{ACAD_REACTORS
330
1BF5
102
}
330
1BF5
100
AcDbXrecord
340
17
  0
MLINESTYLE
  5
13
102
{ACAD_REACTORS
330
E
102
}
330
E
100
AcDbMlineStyle
  2
STANDARD
 70
     0
  3

 62
     0
 51
90.0
 52
90.0
 71
     2
 49
0.5
 62
   256
  6
BYLAYER
 49
-0.5
 62
   256
  6
BYLAYER
  0
ACDBPLACEHOLDER
  5
1B82
102
{ACAD_REACTORS
330
1B81
102
}
330
1B81
100
AcDbPlaceHolder
280
     0
  0
XRECORD
  5
4501
102
{ACAD_REACTORS
330
44F7
102
}
330
44F7
100
AcDbXrecord
 90
        0
  0
XRECORD
  5
4505
102
{ACAD_REACTORS
330
44F7
102
}
330
44F7
100
AcDbXrecord
1000
DSTYLE
1002
{
1070
   341
340
3A8D
1070
   342
340
3A8D
1002
}
  0
XRECORD
  5
4502
102
{ACAD_REACTORS
330
44F7
102
}
330
44F7
100
AcDbXrecord
  1
{D592FCE0-8350-11D5-ACAE-009099148E29}
  0
XRECORD
  5
44FA
102
{ACAD_REACTORS
330
44F7
102
}
330
44F7
100
AcDbXrecord
  1

  0
XRECORD
  5
4500
102
{ACAD_REACTORS
330
44F7
102
}
330
44F7
100
AcDbXrecord
 90
        0
  0
XRECORD
  5
44FC
102
{ACAD_REACTORS
330
44F7
102
}
330
44F7
100
AcDbXrecord
340
1B83
  0
XRECORD
  5
44FF
102
{ACAD_REACTORS
330
44F7
102
}
330
44F7
100
AcDbXrecord
 90
    10781
  0
XRECORD
  5
44FD
102
{ACAD_REACTORS
330
44F7
102
}
330
44F7
100
AcDbXrecord
340
1B84
  0
XRECORD
  5
44FE
102
{ACAD_REACTORS
330
44F7
102
}
330
44F7
100
AcDbXrecord
340
1B81
  0
XRECORD
  5
4504
102
{ACAD_REACTORS
330
44F7
102
}
330
44F7
100
AcDbXrecord
 40
0.0
  0
XRECORD
  5
4508
102
{ACAD_REACTORS
330
44F7
102
}
330
44F7
100
AcDbXrecord
340
0
  0
XRECORD
  5
450E
102
{ACAD_REACTORS
330
44F7
102
}
330
44F7
100
AcDbXrecord
 10
0.0
 20
0.0
 30
0.0
  0
XRECORD
  5
450A
102
{ACAD_REACTORS
330
44F7
102
}
330
44F7
100
AcDbXrecord
 10
0.0
 20
0.0
 30
0.0
  0
XRECORD
  5
450D
102
{ACAD_REACTORS
330
44F7
102
}
330
44F7
100
AcDbXrecord
 10
0.0
 20
0.0
 30
0.0
  0
XRECORD
  5
450B
102
{ACAD_REACTORS
330
44F7
102
}
330
44F7
100
AcDbXrecord
 10
0.0
 20
0.0
 30
0.0
  0
XRECORD
  5
450C
102
{ACAD_REACTORS
330
44F7
102
}
330
44F7
100
AcDbXrecord
 10
0.0
 20
0.0
 30
0.0
  0
XRECORD
  5
4509
102
{ACAD_REACTORS
330
44F7
102
}
330
44F7
100
AcDbXrecord
 10
0.0
 20
0.0
 30
0.0
  0
XRECORD
  5
4506
102
{ACAD_REACTORS
330
44F7
102
}
330
44F7
100
AcDbXrecord
340
0
  0
XRECORD
  5
4507
102
{ACAD_REACTORS
330
44F7
102
}
330
44F7
100
AcDbXrecord
 70
     0
  0
XRECORD
  5
44FB
102
{ACAD_REACTORS
330
44F7
102
}
330
44F7
100
AcDbXrecord
  1
機械図面設定（みずいろ細線）.ctb
  0
XRECORD
  5
44F8
102
{ACAD_REACTORS
330
44F7
102
}
330
44F7
100
AcDbXrecord
 90
        1
  0
XRECORD
  5
44F9
102
{ACAD_REACTORS
330
44F7
102
}
330
44F7
100
AcDbXrecord
 90
       70
  0
XRECORD
  5
4511
102
{ACAD_REACTORS
330
44F7
102
}
330
44F7
100
AcDbXrecord
340
0
  0
XRECORD
  5
4517
102
{ACAD_REACTORS
330
44F7
102
}
330
44F7
100
AcDbXrecord
 10
0.0
 20
0.0
 30
0.0
  0
XRECORD
  5
4513
102
{ACAD_REACTORS
330
44F7
102
}
330
44F7
100
AcDbXrecord
 10
0.0
 20
0.0
 30
0.0
  0
XRECORD
  5
4516
102
{ACAD_REACTORS
330
44F7
102
}
330
44F7
100
AcDbXrecord
 10
0.0
 20
0.0
 30
0.0
  0
XRECORD
  5
4514
102
{ACAD_REACTORS
330
44F7
102
}
330
44F7
100
AcDbXrecord
 10
0.0
 20
0.0
 30
0.0
  0
XRECORD
  5
4515
102
{ACAD_REACTORS
330
44F7
102
}
330
44F7
100
AcDbXrecord
 10
0.0
 20
0.0
 30
0.0
  0
XRECORD
  5
4512
102
{ACAD_REACTORS
330
44F7
102
}
330
44F7
100
AcDbXrecord
 10
0.0
 20
0.0
 30
0.0
  0
XRECORD
  5
450F
102
{ACAD_REACTORS
330
44F7
102
}
330
44F7
100
AcDbXrecord
340
0
  0
XRECORD
  5
4510
102
{ACAD_REACTORS
330
44F7
102
}
330
44F7
100
AcDbXrecord
 70
     0
  0
XRECORD
  5
4503
102
{ACAD_REACTORS
330
44F7
102
}
330
44F7
100
AcDbXrecord
  1
{97157F48-97DE-11D5-A38A-00B0D0356B67}
  0
DICTIONARYVAR
  5
E7B
102
{ACAD_REACTORS
330
E7A
102
}
330
E7A
100
DictionaryVariables
280
     0
  1
96
  0
ENDSEC
  0
EOF
