  0
SECTION
  2
HEADER
  9
$ACADVER
  1
AC1014
  9
$ACADMAINTVER
 70
     9
  9
$DWGCODEPAGE
  3
ANSI_932
  9
$INSBASE
 10
0.0
 20
0.0
 30
0.0
  9
$EXTMIN
 10
5.44517599999997
 20
102.815175
 30
0.0
  9
$EXTMAX
 10
221.2425119999999
 20
380.400299
 30
0.0
  9
$LIMMIN
 10
-3.5
 20
57.5
  9
$LIMMAX
 10
254.0
 20
421.4999999999998
  9
$ORTHOMODE
 70
     0
  9
$REGENMODE
 70
     1
  9
$FILLMODE
 70
     1
  9
$QTEXTMODE
 70
     0
  9
$MIRRTEXT
 70
     1
  9
$DRAGMODE
 70
     2
  9
$LTSCALE
 40
1.0
  9
$OSMODE
 70
    37
  9
$ATTMODE
 70
     1
  9
$TEXTSIZE
 40
20.0
  9
$TRACEWID
 40
0.05
  9
$TEXTSTYLE
  7
STANDARD
  9
$CLAYER
  8
7
  9
$CELTYPE
  6
CONTINUOUS
  9
$CECOLOR
 62
   256
  9
$CELTSCALE
 40
1.0
  9
$DELOBJ
 70
     1
  9
$DISPSILH
 70
     0
  9
$DIMSCALE
 40
1.0
  9
$DIMASZ
 40
0.18
  9
$DIMEXO
 40
0.0625
  9
$DIMDLI
 40
0.38
  9
$DIMRND
 40
0.0
  9
$DIMDLE
 40
0.0
  9
$DIMEXE
 40
0.18
  9
$DIMTP
 40
0.0
  9
$DIMTM
 40
0.0
  9
$DIMTXT
 40
0.18
  9
$DIMCEN
 40
0.09
  9
$DIMTSZ
 40
0.0
  9
$DIMTOL
 70
     0
  9
$DIMLIM
 70
     0
  9
$DIMTIH
 70
     1
  9
$DIMTOH
 70
     1
  9
$DIMSE1
 70
     0
  9
$DIMSE2
 70
     0
  9
$DIMTAD
 70
     0
  9
$DIMZIN
 70
     0
  9
$DIMBLK
  1

  9
$DIMASO
 70
     1
  9
$DIMSHO
 70
     1
  9
$DIMPOST
  1

  9
$DIMAPOST
  1

  9
$DIMALT
 70
     0
  9
$DIMALTD
 70
     2
  9
$DIMALTF
 40
25.4
  9
$DIMLFAC
 40
1.0
  9
$DIMTOFL
 70
     0
  9
$DIMTVP
 40
0.0
  9
$DIMTIX
 70
     0
  9
$DIMSOXD
 70
     0
  9
$DIMSAH
 70
     0
  9
$DIMBLK1
  1

  9
$DIMBLK2
  1

  9
$DIMSTYLE
  2
STANDARD
  9
$DIMCLRD
 70
     0
  9
$DIMCLRE
 70
     0
  9
$DIMCLRT
 70
     0
  9
$DIMTFAC
 40
1.0
  9
$DIMGAP
 40
0.09
  9
$DIMJUST
 70
     0
  9
$DIMSD1
 70
     0
  9
$DIMSD2
 70
     0
  9
$DIMTOLJ
 70
     1
  9
$DIMTZIN
 70
     0
  9
$DIMALTZ
 70
     0
  9
$DIMALTTZ
 70
     0
  9
$DIMFIT
 70
     3
  9
$DIMUPT
 70
     0
  9
$DIMUNIT
 70
     2
  9
$DIMDEC
 70
     4
  9
$DIMTDEC
 70
     4
  9
$DIMALTU
 70
     2
  9
$DIMALTTD
 70
     2
  9
$DIMTXSTY
  7
STANDARD
  9
$DIMAUNIT
 70
     0
  9
$LUNITS
 70
     2
  9
$LUPREC
 70
     4
  9
$SKETCHINC
 40
0.1
  9
$FILLETRAD
 40
0.0
  9
$AUNITS
 70
     0
  9
$AUPREC
 70
     0
  9
$MENU
  1
.
  9
$ELEVATION
 40
0.0
  9
$PELEVATION
 40
0.0
  9
$THICKNESS
 40
0.0
  9
$LIMCHECK
 70
     0
  9
$BLIPMODE
 70
     0
  9
$CHAMFERA
 40
0.0
  9
$CHAMFERB
 40
0.0
  9
$CHAMFERC
 40
0.0
  9
$CHAMFERD
 40
0.0
  9
$SKPOLY
 70
     0
  9
$TDCREATE
 40
2452523.402957292
  9
$TDUPDATE
 40
2453319.588027280
  9
$TDINDWG
 40
0.1877227546
  9
$TDUSRTIMER
 40
0.1877166667
  9
$USRTIMER
 70
     1
  9
$ANGBASE
 50
0.0
  9
$ANGDIR
 70
     0
  9
$PDMODE
 70
     3
  9
$PDSIZE
 40
-1.0
  9
$PLINEWID
 40
0.0
  9
$COORDS
 70
     1
  9
$SPLFRAME
 70
     0
  9
$SPLINETYPE
 70
     6
  9
$SPLINESEGS
 70
     8
  9
$ATTDIA
 70
     0
  9
$ATTREQ
 70
     1
  9
$HANDLING
 70
-16383
  9
$HANDSEED
  5
7081
  9
$SURFTAB1
 70
     6
  9
$SURFTAB2
 70
     6
  9
$SURFTYPE
 70
     6
  9
$SURFU
 70
     6
  9
$SURFV
 70
     6
  9
$UCSNAME
  2

  9
$UCSORG
 10
0.0
 20
0.0
 30
0.0
  9
$UCSXDIR
 10
1.0
 20
0.0
 30
0.0
  9
$UCSYDIR
 10
0.0
 20
1.0
 30
0.0
  9
$PUCSNAME
  2

  9
$PUCSORG
 10
0.0
 20
0.0
 30
0.0
  9
$PUCSXDIR
 10
1.0
 20
0.0
 30
0.0
  9
$PUCSYDIR
 10
0.0
 20
1.0
 30
0.0
  9
$USERI1
 70
     0
  9
$USERI2
 70
     0
  9
$USERI3
 70
     0
  9
$USERI4
 70
     0
  9
$USERI5
 70
     0
  9
$USERR1
 40
0.0
  9
$USERR2
 40
0.0
  9
$USERR3
 40
0.0
  9
$USERR4
 40
0.0
  9
$USERR5
 40
0.0
  9
$WORLDVIEW
 70
     1
  9
$SHADEDGE
 70
     3
  9
$SHADEDIF
 70
    70
  9
$TILEMODE
 70
     1
  9
$MAXACTVP
 70
    64
  9
$PINSBASE
 10
0.0
 20
0.0
 30
0.0
  9
$PLIMCHECK
 70
     0
  9
$PEXTMIN
 10
1.000000000000000E+20
 20
1.000000000000000E+20
 30
1.000000000000000E+20
  9
$PEXTMAX
 10
-1.000000000000000E+20
 20
-1.000000000000000E+20
 30
-1.000000000000000E+20
  9
$PLIMMIN
 10
0.0
 20
0.0
  9
$PLIMMAX
 10
12.0
 20
9.0
  9
$UNITMODE
 70
     0
  9
$VISRETAIN
 70
     1
  9
$PLINEGEN
 70
     0
  9
$PSLTSCALE
 70
     1
  9
$TREEDEPTH
 70
  3020
  9
$PICKSTYLE
 70
     1
  9
$CMLSTYLE
  2
STANDARD
  9
$CMLJUST
 70
     0
  9
$CMLSCALE
 40
1.0
  9
$PROXYGRAPHICS
 70
     1
  9
$MEASUREMENT
 70
     0
  0
ENDSEC
  0
SECTION
  2
CLASSES
  0
CLASS
  1
ACDBDICTIONARYWDFLT
  2
AcDbDictionaryWithDefault
  3
AutoCAD 2000
 90
        0
280
     0
281
     0
  0
CLASS
  1
ACDBPLACEHOLDER
  2
AcDbPlaceHolder
  3
AutoCAD 2000
 90
        0
280
     0
281
     0
  0
CLASS
  1
LAYOUT
  2
AcDbLayout
  3
AutoCAD 2000
 90
        0
280
     0
281
     0
  0
CLASS
  1
DICTIONARYVAR
  2
AcDbDictionaryVar
  3
AutoCAD 2000
 90
        0
280
     0
281
     0
  0
CLASS
  1
LONG_TRANSACTION
  2
AcDbLongTransaction
  3
AutoCAD 2000
 90
        0
280
     0
281
     0
  0
CLASS
  1
LWPOLYLINE
  2
AcDbPolyline
  3
AutoCAD 2000
 90
        0
280
     0
281
     1
  0
CLASS
  1
HATCH
  2
AcDbHatch
  3
AutoCAD 2000
 90
        0
280
     0
281
     1
  0
CLASS
  1
XRECORD
  2
AcDbXrecord
  3
AutoCAD 2000
 90
        0
280
     0
281
     0
  0
CLASS
  1
LONG_TRANSACTION
  2
AcDbLongTransaction
  3
AutoCAD 2000
 90
        0
280
     0
281
     0
  0
CLASS
  1
LWPOLYLINE
  2
AcDbPolyline
  3
AutoCAD 2000
 90
        0
280
     0
281
     1
  0
CLASS
  1
HATCH
  2
AcDbHatch
  3
AutoCAD 2000
 90
        0
280
     0
281
     1
  0
CLASS
  1
XRECORD
  2
AcDbXrecord
  3
AutoCAD 2000
 90
        0
280
     0
281
     0
  0
CLASS
  1
LONG_TRANSACTION
  2
AcDbLongTransaction
  3
AutoCAD 2000
 90
        0
280
     0
281
     0
  0
CLASS
  1
LWPOLYLINE
  2
AcDbPolyline
  3
AutoCAD 2000
 90
        0
280
     0
281
     1
  0
CLASS
  1
HATCH
  2
AcDbHatch
  3
AutoCAD 2000
 90
        0
280
     0
281
     1
  0
CLASS
  1
XRECORD
  2
AcDbXrecord
  3
AutoCAD 2000
 90
        0
280
     0
281
     0
  0
CLASS
  1
LONG_TRANSACTION
  2
AcDbLongTransaction
  3
AutoCAD 2000
 90
        0
280
     0
281
     0
  0
CLASS
  1
LWPOLYLINE
  2
AcDbPolyline
  3
AutoCAD 2000
 90
        0
280
     0
281
     1
  0
CLASS
  1
HATCH
  2
AcDbHatch
  3
AutoCAD 2000
 90
        0
280
     0
281
     1
  0
CLASS
  1
XRECORD
  2
AcDbXrecord
  3
AutoCAD 2000
 90
        0
280
     0
281
     0
  0
CLASS
  1
LONG_TRANSACTION
  2
AcDbLongTransaction
  3
AutoCAD 2000
 90
        0
280
     0
281
     0
  0
CLASS
  1
LWPOLYLINE
  2
AcDbPolyline
  3
AutoCAD 2000
 90
        0
280
     0
281
     1
  0
CLASS
  1
HATCH
  2
AcDbHatch
  3
AutoCAD 2000
 90
        0
280
     0
281
     1
  0
CLASS
  1
XRECORD
  2
AcDbXrecord
  3
AutoCAD 2000
 90
        0
280
     0
281
     0
  0
CLASS
  1
LONG_TRANSACTION
  2
AcDbLongTransaction
  3
AutoCAD 2000
 90
        0
280
     0
281
     0
  0
CLASS
  1
LWPOLYLINE
  2
AcDbPolyline
  3
AutoCAD 2000
 90
        0
280
     0
281
     1
  0
CLASS
  1
HATCH
  2
AcDbHatch
  3
AutoCAD 2000
 90
        0
280
     0
281
     1
  0
CLASS
  1
XRECORD
  2
AcDbXrecord
  3
AutoCAD 2000
 90
        0
280
     0
281
     0
  0
CLASS
  1
LONG_TRANSACTION
  2
AcDbLongTransaction
  3
AutoCAD 2000
 90
        0
280
     0
281
     0
  0
CLASS
  1
LWPOLYLINE
  2
AcDbPolyline
  3
AutoCAD 2000
 90
        0
280
     0
281
     1
  0
CLASS
  1
HATCH
  2
AcDbHatch
  3
AutoCAD 2000
 90
        0
280
     0
281
     1
  0
CLASS
  1
XRECORD
  2
AcDbXrecord
  3
AutoCAD 2000
 90
        0
280
     0
281
     0
  0
CLASS
  1
LONG_TRANSACTION
  2
AcDbLongTransaction
  3
AutoCAD 2000
 90
        0
280
     0
281
     0
  0
CLASS
  1
LWPOLYLINE
  2
AcDbPolyline
  3
AutoCAD 2000
 90
        0
280
     0
281
     1
  0
CLASS
  1
HATCH
  2
AcDbHatch
  3
AutoCAD 2000
 90
        0
280
     0
281
     1
  0
CLASS
  1
XRECORD
  2
AcDbXrecord
  3
AutoCAD 2000
 90
        0
280
     0
281
     0
  0
ENDSEC
  0
SECTION
  2
TABLES
  0
TABLE
  2
VPORT
  5
6AB3
330
0
100
AcDbSymbolTable
 70
     2
  0
VPORT
  5
705D
330
6AB3
100
AcDbSymbolTableRecord
100
AcDbViewportTableRecord
  2
*ACTIVE
 70
     0
 10
0.0
 20
0.0
 11
1.0
 21
1.0
 12
129.4878265983654
 22
248.5441568974851
 13
0.0
 23
0.0
 14
0.2
 24
0.2
 15
0.0
 25
0.0
 16
0.0
 26
0.0
 36
1.0
 17
0.0
 27
0.0
 37
0.0
 40
381.4285132789159
 41
1.863905325443786
 42
50.0
 43
0.0
 44
0.0
 50
0.0
 51
0.0
 71
     0
 72
   100
 73
     1
 74
     1
 75
     0
 76
     0
 77
     0
 78
     0
  0
ENDTAB
  0
TABLE
  2
LTYPE
  5
6AB0
330
0
100
AcDbSymbolTable
 70
     2
  0
LTYPE
  5
6ABE
330
6AB0
100
AcDbSymbolTableRecord
100
AcDbLinetypeTableRecord
  2
BYBLOCK
 70
     0
  3

 72
    65
 73
     0
 40
0.0
  0
LTYPE
  5
6ABF
330
6AB0
100
AcDbSymbolTableRecord
100
AcDbLinetypeTableRecord
  2
BYLAYER
 70
     0
  3

 72
    65
 73
     0
 40
0.0
  0
LTYPE
  5
6AC0
330
6AB0
100
AcDbSymbolTableRecord
100
AcDbLinetypeTableRecord
  2
CONTINUOUS
 70
     0
  3
Solid line
 72
    65
 73
     0
 40
0.0
  0
LTYPE
  5
6B58
330
6AB0
100
AcDbSymbolTableRecord
100
AcDbLinetypeTableRecord
  2
DOT2
 70
     0
  3
Dot (.5x) .....................................
 72
    65
 73
     2
 40
3.174999999999998
 49
0.0
 74
     0
 49
-3.174999999999998
 74
     0
  0
ENDTAB
  0
TABLE
  2
LAYER
  5
6AAD
330
0
100
AcDbSymbolTable
 70
     7
  0
LAYER
  5
6ABB
330
6AAD
100
AcDbSymbolTableRecord
100
AcDbLayerTableRecord
  2
0
 70
     0
 62
     7
  6
CONTINUOUS
  0
LAYER
  5
6ACD
330
6AAD
100
AcDbSymbolTableRecord
100
AcDbLayerTableRecord
  2
7
 70
     0
 62
     7
  6
CONTINUOUS
  0
LAYER
  5
6B4A
330
6AAD
100
AcDbSymbolTableRecord
100
AcDbLayerTableRecord
  2
基準
 70
     0
 62
     7
  6
CONTINUOUS
  0
LAYER
  5
6B59
330
6AAD
100
AcDbSymbolTableRecord
100
AcDbLayerTableRecord
  2
L0_
 70
     0
 62
     3
  6
CONTINUOUS
  0
LAYER
  5
6B5A
330
6AAD
100
AcDbSymbolTableRecord
100
AcDbLayerTableRecord
  2
L200_
 70
     0
 62
     4
  6
DOT2
  0
LAYER
  5
6C0B
330
6AAD
100
AcDbSymbolTableRecord
100
AcDbLayerTableRecord
  2
HOJYO
 70
     0
 62
     2
  6
CONTINUOUS
  0
LAYER
  5
6C3B
330
6AAD
100
AcDbSymbolTableRecord
100
AcDbLayerTableRecord
  2
M
 70
     0
 62
     1
  6
CONTINUOUS
  0
ENDTAB
  0
TABLE
  2
STYLE
  5
6AAE
330
0
100
AcDbSymbolTable
 70
     3
  0
STYLE
  5
6ABC
330
6AAE
100
AcDbSymbolTableRecord
100
AcDbTextStyleTableRecord
  2
STANDARD
 70
     0
 40
0.0
 41
0.8
 50
0.0
 71
     0
 42
20.0
  3
MONOTXT
  4
BIGFONT
  0
STYLE
  5
6B4B
330
6AAE
100
AcDbSymbolTableRecord
100
AcDbTextStyleTableRecord
  2
STD
 70
     0
 40
0.0
 41
1.0
 50
0.0
 71
     0
 42
0.0
  3
txt
  4

  0
STYLE
  5
6B5B
330
6AAE
100
AcDbSymbolTableRecord
100
AcDbTextStyleTableRecord
  2

 70
     1
 40
0.0
 41
1.0
 50
0.0
 71
     0
 42
2.5
  3
ltypeshp.shx
  4

  0
ENDTAB
  0
TABLE
  2
VIEW
  5
6AB1
330
0
100
AcDbSymbolTable
 70
     0
  0
ENDTAB
  0
TABLE
  2
UCS
  5
6AB2
330
0
100
AcDbSymbolTable
 70
     0
  0
ENDTAB
  0
TABLE
  2
APPID
  5
6AB4
330
0
100
AcDbSymbolTable
 70
     2
  0
APPID
  5
6ABD
330
6AB4
100
AcDbSymbolTableRecord
100
AcDbRegAppTableRecord
  2
ACAD
 70
     0
  0
APPID
  5
6CE6
330
6AB4
100
AcDbSymbolTableRecord
100
AcDbRegAppTableRecord
  2
CONTENTBLOCKICON
 70
     0
  0
ENDTAB
  0
TABLE
  2
DIMSTYLE
  5
6AB5
330
0
100
AcDbSymbolTable
 70
     2
  0
DIMSTYLE
105
6ACF
330
6AB5
100
AcDbSymbolTableRecord
100
AcDbDimStyleTableRecord
  2
STANDARD
 70
     0
  3

  4

  5

  6

  7

 40
1.0
 41
0.18
 42
0.0625
 43
0.38
 44
0.18
 45
0.0
 46
0.0
 47
0.0
 48
0.0
140
0.18
141
0.09
142
0.0
143
25.4
144
1.0
145
0.0
146
1.0
147
0.09
 71
     0
 72
     0
 73
     1
 74
     1
 75
     0
 76
     0
 77
     0
 78
     0
170
     0
171
     2
172
     0
173
     0
174
     0
175
     0
176
     0
177
     0
178
     0
270
     2
271
     4
272
     4
273
     2
274
     2
340
6ABC
275
     0
280
     0
281
     0
282
     0
283
     1
284
     0
285
     0
286
     0
287
     3
288
     0
  0
DIMSTYLE
105
6B5C
330
6AB5
100
AcDbSymbolTableRecord
100
AcDbDimStyleTableRecord
  2
ISO-25
 70
     0
  3

  4

  5

  6

  7

 40
1.0
 41
2.5
 42
0.625
 43
3.75
 44
1.25
 45
0.0
 46
0.0
 47
0.0
 48
0.0
140
2.5
141
2.5
142
0.0
143
0.03937007874016
144
1.0
145
0.0
146
1.0
147
0.625
 71
     0
 72
     0
 73
     0
 74
     0
 75
     0
 76
     0
 77
     1
 78
     8
170
     0
171
     3
172
     1
173
     0
174
     0
175
     0
176
     0
177
     0
178
     0
270
     2
271
     2
272
     2
273
     2
274
     3
340
6ABC
275
     0
280
     0
281
     0
282
     0
283
     0
284
     8
285
     0
286
     0
287
     3
288
     0
  0
ENDTAB
  0
TABLE
  2
BLOCK_RECORD
  5
6AAC
330
0
100
AcDbSymbolTable
 70
     4
  0
BLOCK_RECORD
  5
6AC9
102
{ACAD_XDICTIONARY
360
6CE4
102
}
330
6AAC
100
AcDbSymbolTableRecord
100
AcDbBlockTableRecord
  2
*MODEL_SPACE
  0
BLOCK_RECORD
  5
6AC5
102
{ACAD_XDICTIONARY
360
6CE2
102
}
330
6AAC
100
AcDbSymbolTableRecord
100
AcDbBlockTableRecord
  2
*PAPER_SPACE
  0
BLOCK_RECORD
  5
6AD2
330
6AAC
100
AcDbSymbolTableRecord
100
AcDbBlockTableRecord
  2
$MODEL_SPACE
  0
BLOCK_RECORD
  5
6AD5
330
6AAC
100
AcDbSymbolTableRecord
100
AcDbBlockTableRecord
  2
$PAPER_SPACE
  0
BLOCK_RECORD
  5
6B3E
330
6AAC
100
AcDbSymbolTableRecord
100
AcDbBlockTableRecord
  2
BASELINE
1001
CONTENTBLOCKICON
1071
        0
1004
2800000020000000200000000100080000000000000400000000000000000000000000000000000000000000000080000080000000808000800000008000800080800000C0C0C000C0DCC000F0CAA6000020400000206000002080000020A0000020C0000020E00000400000004020000040400000406000004080000040A0
1004
000040C0000040E00000600000006020000060400000606000006080000060A0000060C0000060E00000800000008020000080400000806000008080000080A0000080C0000080E00000A0000000A0200000A0400000A0600000A0800000A0A00000A0C00000A0E00000C0000000C0200000C0400000C0600000C0800000C0
1004
A00000C0C00000C0E00000E0000000E0200000E0400000E0600000E0800000E0A00000E0C00000E0E00040000000400020004000400040006000400080004000A0004000C0004000E00040200000402020004020400040206000402080004020A0004020C0004020E000404000004040200040404000404060004040800040
1004
40A0004040C0004040E00040600000406020004060400040606000406080004060A0004060C0004060E00040800000408020004080400040806000408080004080A0004080C0004080E00040A0000040A0200040A0400040A0600040A0800040A0A00040A0C00040A0E00040C0000040C0200040C0400040C0600040C08000
1004
40C0A00040C0C00040C0E00040E0000040E0200040E0400040E0600040E0800040E0A00040E0C00040E0E00080000000800020008000400080006000800080008000A0008000C0008000E00080200000802020008020400080206000802080008020A0008020C0008020E00080400000804020008040400080406000804080
1004
008040A0008040C0008040E00080600000806020008060400080606000806080008060A0008060C0008060E00080800000808020008080400080806000808080008080A0008080C0008080E00080A0000080A0200080A0400080A0600080A0800080A0A00080A0C00080A0E00080C0000080C0200080C0400080C0600080C0
1004
800080C0A00080C0C00080C0E00080E0000080E0200080E0400080E0600080E0800080E0A00080E0C00080E0E000C0000000C0002000C0004000C0006000C0008000C000A000C000C000C000E000C0200000C0202000C0204000C0206000C0208000C020A000C020C000C020E000C0400000C0402000C0404000C0406000C0
1004
408000C040A000C040C000C040E000C0600000C0602000C0604000C0606000C0608000C060A000C060C000C060E000C0800000C0802000C0804000C0806000C0808000C080A000C080C000C080E000C0A00000C0A02000C0A04000C0A06000C0A08000C0A0A000C0A0C000C0A0E000C0C00000C0C02000C0C04000C0C06000
1004
C0C08000C0C0A000F0FBFF00A4A0A000808080000000FF0000FF000000FFFF00FF000000FF00FF00FFFF0000FFFFFF00000000000000000000000000000000000000000000000000000000000000000000000000000000FFFFFFFF00000000000000000000000000000000000000000000000000000000FFFFFFFF00000000
1004
00000000000000000000000000000000000000000000FFFFFFFCFCFCFCFCFCFCFCFCFCFCFCFCFCFCFCFCFCFC000000000000000000000000FCFCFC0000000000000000000000000000000000000000000000000000000000FCFCFC0000000000000000000000000000000000000000000000000000000000FCFCFC00000000
1004
00000000000000000000000000000000000000000000000000FCFCFC0000000000000000000000000000000000000000000000000000000000FCFCFC0000000000000000000000000000000000000000000000000000000000FCFCFC0000000000000000000000000000000000000000000000000000000000FCFCFC000000
1004
0000000000000000000000000000000000000000000000000000FCFCFC0000000000000000000000000000000000000000000000000000000000FCFCFC0000000000000000000000000000000000000000000000000000000000FCFCFC0000000000000000000000000000000000000000000000000000000000FCFCFC0000
1004
000000000000000000000000000000000000000000000000000000FCFCFC0000000000000000000000000000000000000000000000000000000000FCFCFC0000000000000000000000000000000000000000000000000000000000FCFCFC0000000000000000000000000000000000000000000000000000000000FCFCFC00
1004
00000000000000000000000000000000000000000000000000000000FCFCFC0000000000000000000000000000000000000000000000000000000000FCFCFC0000000000000000000000000000000000000000000000000000000000FCFCFC0000000000000000000000000000000000000000000000000000000000FCFCFC
1004
0000000000000000000000000000000000000000000000000000000000FCFCFC0000000000000000000000000000000000000000000000000000000000FCFCFC0000000000000000000000000000000000000000000000000000000000FCFCFC0000000000000000000000000000000000000000000000000000000000FCFC
1004
FC0000000000000000000000000000000000000000000000000000000000FCFCFC0000000000000000000000000000000000000000000000000000000000FCFCFC0000000000000000000000000000000000000000000000000000000000FCFCFC0000000000000000000000000000000000000000000000000000000000FC
1004
FCFC000000000000000000000000000000000000000000000000000000000000000000000000000000000000000000000000000000000000
  0
BLOCK_RECORD
  5
6B5D
330
6AAC
100
AcDbSymbolTableRecord
100
AcDbBlockTableRecord
  2
GRAPHBASE
1001
ACAD
1000
DesignCenter Data
1002
{
1070
     1
1070
     4
1002
}
  0
ENDTAB
  0
ENDSEC
  0
SECTION
  2
BLOCKS
  0
BLOCK
  5
6ACA
330
6AC9
100
AcDbEntity
  8
0
100
AcDbBlockBegin
  2
*MODEL_SPACE
 70
     0
 10
0.0
 20
0.0
 30
0.0
  3
*MODEL_SPACE
  1

  0
ENDBLK
  5
6ACB
330
6AC9
100
AcDbEntity
  8
0
100
AcDbBlockEnd
  0
BLOCK
  5
6AC6
330
6AC5
100
AcDbEntity
 67
     1
  8
0
100
AcDbBlockBegin
  2
*PAPER_SPACE
 70
     0
 10
0.0
 20
0.0
 30
0.0
  3
*PAPER_SPACE
  1

  0
ENDBLK
  5
6AC7
330
6AC5
100
AcDbEntity
 67
     1
  8
0
100
AcDbBlockEnd
  0
BLOCK
  5
6AD3
330
6AD2
100
AcDbEntity
  8
0
100
AcDbBlockBegin
  2
$MODEL_SPACE
 70
     0
 10
0.0
 20
0.0
 30
0.0
  3
$MODEL_SPACE
  1

  0
ENDBLK
  5
6AD4
330
6AD2
100
AcDbEntity
  8
0
100
AcDbBlockEnd
  0
BLOCK
  5
6AD6
330
6AD5
100
AcDbEntity
  8
0
100
AcDbBlockBegin
  2
$PAPER_SPACE
 70
     0
 10
0.0
 20
0.0
 30
0.0
  3
$PAPER_SPACE
  1

  0
ENDBLK
  5
6AD7
330
6AD5
100
AcDbEntity
  8
0
100
AcDbBlockEnd
  0
BLOCK
  5
6B48
330
6B3E
100
AcDbEntity
  8
0
100
AcDbBlockBegin
  2
BASELINE
 70
     0
 10
0.0
 20
0.0
 30
0.0
  3
BASELINE
  1

  0
MTEXT
  5
6B3F
330
6B3E
100
AcDbEntity
  8
基準
 62
     7
100
AcDbMText
 10
-1.444082999999974
 20
-17.18482499999999
 30
0.0
 40
2.444193999999999
 41
0.0
 71
     1
 72
     2
  1
\fOsaka|b0|i0|c128;440V
  7
STD
 11
0.0
 21
1.0
 31
0.0
1001
ACAD
1000
MTEXTBEGIN
1070
    73
1070
     1
1070
    44
1040
1.0
1070
    74
1070
     0
1000
MTEXTEND
1000
MTEXTBEGIN
1070
    73
1070
     1
1070
    44
1040
1.0
1070
    74
1070
     0
1000
MTEXTEND
1000
MTEXTBEGIN
1070
    73
1070
     1
1070
    44
1040
1.0
1070
    74
1070
     0
1000
MTEXTEND
1000
MTEXTBEGIN
1070
    73
1070
     1
1070
    44
1040
1.0
1070
    74
1070
     0
1000
MTEXTEND
1000
MTEXTBEGIN
1070
    73
1070
     1
1070
    44
1040
1.0
1070
    74
1070
     0
1000
MTEXTEND
1000
MTEXTBEGIN
1070
    73
1070
     1
1070
    44
1040
1.0
1070
    74
1070
     0
1000
MTEXTEND
1000
MTEXTBEGIN
1070
    73
1070
     1
1070
    44
1040
1.0
1070
    74
1070
     0
1000
MTEXTEND
1000
MTEXTBEGIN
1070
    73
1070
     1
1070
    44
1040
1.0
1070
    74
1070
     0
1000
MTEXTEND
  0
MTEXT
  5
6B40
330
6B3E
100
AcDbEntity
  8
基準
 62
     7
100
AcDbMText
 10
11.65589299999999
 20
-17.18482499999999
 30
0.0
 40
2.444193999999999
 41
0.0
 71
     1
 72
     2
  1
\fOsaka|b0|i0|c128;220V
  7
STD
 11
0.0
 21
1.0
 31
0.0
1001
ACAD
1000
MTEXTBEGIN
1070
    73
1070
     1
1070
    44
1040
1.0
1070
    74
1070
     0
1000
MTEXTEND
1000
MTEXTBEGIN
1070
    73
1070
     1
1070
    44
1040
1.0
1070
    74
1070
     0
1000
MTEXTEND
1000
MTEXTBEGIN
1070
    73
1070
     1
1070
    44
1040
1.0
1070
    74
1070
     0
1000
MTEXTEND
1000
MTEXTBEGIN
1070
    73
1070
     1
1070
    44
1040
1.0
1070
    74
1070
     0
1000
MTEXTEND
1000
MTEXTBEGIN
1070
    73
1070
     1
1070
    44
1040
1.0
1070
    74
1070
     0
1000
MTEXTEND
1000
MTEXTBEGIN
1070
    73
1070
     1
1070
    44
1040
1.0
1070
    74
1070
     0
1000
MTEXTEND
1000
MTEXTBEGIN
1070
    73
1070
     1
1070
    44
1040
1.0
1070
    74
1070
     0
1000
MTEXTEND
1000
MTEXTBEGIN
1070
    73
1070
     1
1070
    44
1040
1.0
1070
    74
1070
     0
1000
MTEXTEND
  0
MTEXT
  5
6B41
330
6B3E
100
AcDbEntity
  8
基準
 62
     7
100
AcDbMText
 10
25.237837
 20
-17.18482499999999
 30
0.0
 40
2.444193999999999
 41
0.0
 71
     1
 72
     2
  1
\fOsaka|b0|i0|c128;110V
  7
STD
 11
0.0
 21
1.0
 31
0.0
1001
ACAD
1000
MTEXTBEGIN
1070
    73
1070
     1
1070
    44
1040
1.0
1070
    74
1070
     0
1000
MTEXTEND
1000
MTEXTBEGIN
1070
    73
1070
     1
1070
    44
1040
1.0
1070
    74
1070
     0
1000
MTEXTEND
1000
MTEXTBEGIN
1070
    73
1070
     1
1070
    44
1040
1.0
1070
    74
1070
     0
1000
MTEXTEND
1000
MTEXTBEGIN
1070
    73
1070
     1
1070
    44
1040
1.0
1070
    74
1070
     0
1000
MTEXTEND
1000
MTEXTBEGIN
1070
    73
1070
     1
1070
    44
1040
1.0
1070
    74
1070
     0
1000
MTEXTEND
1000
MTEXTBEGIN
1070
    73
1070
     1
1070
    44
1040
1.0
1070
    74
1070
     0
1000
MTEXTEND
1000
MTEXTBEGIN
1070
    73
1070
     1
1070
    44
1040
1.0
1070
    74
1070
     0
1000
MTEXTEND
1000
MTEXTBEGIN
1070
    73
1070
     1
1070
    44
1040
1.0
1070
    74
1070
     0
1000
MTEXTEND
  0
LINE
  5
6B42
330
6B3E
100
AcDbEntity
  8
基準
100
AcDbLine
 10
194.342487
 20
0.0
 30
0.0
 11
0.0
 21
0.0
 31
0.0
  0
LINE
  5
6B43
330
6B3E
100
AcDbEntity
  8
基準
100
AcDbLine
 10
0.0
 20
260.400299
 30
0.0
 11
0.0
 21
0.0
 31
0.0
  0
LINE
  5
6B44
330
6B3E
100
AcDbEntity
  8
基準
100
AcDbLine
 10
13.09997500000003
 20
260.400299
 30
0.0
 11
13.09997500000003
 21
0.0
 31
0.0
  0
MTEXT
  5
6B45
330
6B3E
100
AcDbEntity
  8
基準
 62
     7
100
AcDbMText
 10
-21.45484899999999
 20
1.440292999999995
 30
0.0
 40
2.444193999999999
 41
0.0
 71
     1
 72
     2
  1
\W1.02;\fOsaka|b0|i0|c128;0.01S
  7
STD
1001
ACAD
1000
MTEXTBEGIN
1070
    73
1070
     1
1070
    44
1040
1.0
1070
    74
1070
     0
1000
MTEXTEND
1000
MTEXTBEGIN
1070
    73
1070
     1
1070
    44
1040
1.0
1070
    74
1070
     0
1000
MTEXTEND
1000
MTEXTBEGIN
1070
    73
1070
     1
1070
    44
1040
1.0
1070
    74
1070
     0
1000
MTEXTEND
1000
MTEXTBEGIN
1070
    73
1070
     1
1070
    44
1040
1.0
1070
    74
1070
     0
1000
MTEXTEND
1000
MTEXTBEGIN
1070
    73
1070
     1
1070
    44
1040
1.0
1070
    74
1070
     0
1000
MTEXTEND
1000
MTEXTBEGIN
1070
    73
1070
     1
1070
    44
1040
1.0
1070
    74
1070
     0
1000
MTEXTEND
1000
MTEXTBEGIN
1070
    73
1070
     1
1070
    44
1040
1.0
1070
    74
1070
     0
1000
MTEXTEND
1000
MTEXTBEGIN
1070
    73
1070
     1
1070
    44
1040
1.0
1070
    74
1070
     0
1000
MTEXTEND
  0
LINE
  5
6B46
330
6B3E
100
AcDbEntity
  8
7
  6
CONTINUOUS
100
AcDbLine
 10
0.0
 20
0.0
 30
0.0
 11
0.0
 21
0.0
 31
0.0
  0
LINE
  5
6B47
330
6B3E
100
AcDbEntity
  8
基準
100
AcDbLine
 10
26.199951
 20
260.400299
 30
0.0
 11
26.199951
 21
0.0
 31
0.0
  0
ENDBLK
  5
6B49
330
6B3E
100
AcDbEntity
  8
0
100
AcDbBlockEnd
  0
BLOCK
  5
6BE2
330
6B5D
100
AcDbEntity
  8
0
100
AcDbBlockBegin
  2
GRAPHBASE
 70
     0
 10
0.0
 20
0.0
 30
0.0
  3
GRAPHBASE
  1

  0
MTEXT
  5
6D4A
330
6B5D
100
AcDbEntity
  8
L0_
 62
     7
100
AcDbMText
 10
78.42846001519101
 20
-35.53907349729348
 30
0.0
 40
3.910714914164845
 41
0.0
 71
     1
 72
     2
  1
\W1.14;\fOsaka|b0|i0|c128;TERASAKI ELECTRIC CO.,LTD.
  7
STD
1001
ACAD
1000
MTEXTBEGIN
1070
    73
1070
     1
1070
    44
1040
1.0
1070
    74
1070
     0
1000
MTEXTEND
1000
MTEXTBEGIN
1070
    73
1070
     1
1070
    44
1040
1.0
1070
    74
1070
     0
1000
MTEXTEND
1000
MTEXTBEGIN
1070
    73
1070
     1
1070
    44
1040
1.0
1070
    74
1070
     0
1000
MTEXTEND
1000
MTEXTBEGIN
1070
    73
1070
     1
1070
    44
1040
1.0
1070
    74
1070
     0
1000
MTEXTEND
1000
MTEXTBEGIN
1070
    73
1070
     1
1070
    44
1040
1.0
1070
    74
1070
     0
1000
MTEXTEND
  0
MTEXT
  5
6D4B
330
6B5D
100
AcDbEntity
  8
L0_
 62
     7
100
AcDbMText
 10
43.39993489583347
 20
279.3113035643385
 30
0.0
 40
3.910714914164845
 41
0.0
 71
     1
 72
     2
  1
\W0.97;\fOsaka|b0|i0|c128;Time/Current characteristic curves
  7
STD
1001
ACAD
1000
MTEXTBEGIN
1070
    73
1070
     1
1070
    44
1040
1.0
1070
    74
1070
     0
1000
MTEXTEND
1000
MTEXTBEGIN
1070
    73
1070
     1
1070
    44
1040
1.0
1070
    74
1070
     0
1000
MTEXTEND
1000
MTEXTBEGIN
1070
    73
1070
     1
1070
    44
1040
1.0
1070
    74
1070
     0
1000
MTEXTEND
1000
MTEXTBEGIN
1070
    73
1070
     1
1070
    44
1040
1.0
1070
    74
1070
     0
1000
MTEXTEND
1000
MTEXTBEGIN
1070
    73
1070
     1
1070
    44
1040
1.0
1070
    74
1070
     0
1000
MTEXTEND
  0
MTEXT
  5
6D4C
330
6B5D
100
AcDbEntity
  8
L0_
 62
     7
100
AcDbMText
 10
0.0
 20
279.3113035643385
 30
0.0
 40
3.910714914164845
 41
0.0
 71
     1
 72
     2
  1
\W1.12;\fOsaka|b0|i0|c128;TemBreak2
  7
STD
1001
ACAD
1000
MTEXTBEGIN
1070
    73
1070
     1
1070
    44
1040
1.0
1070
    74
1070
     0
1000
MTEXTEND
1000
MTEXTBEGIN
1070
    73
1070
     1
1070
    44
1040
1.0
1070
    74
1070
     0
1000
MTEXTEND
1000
MTEXTBEGIN
1070
    73
1070
     1
1070
    44
1040
1.0
1070
    74
1070
     0
1000
MTEXTEND
1000
MTEXTBEGIN
1070
    73
1070
     1
1070
    44
1040
1.0
1070
    74
1070
     0
1000
MTEXTEND
1000
MTEXTBEGIN
1070
    73
1070
     1
1070
    44
1040
1.0
1070
    74
1070
     0
1000
MTEXTEND
  0
MTEXT
  5
6D4D
330
6B5D
100
AcDbEntity
  8
L200_
 62
     7
100
AcDbMText
 10
91.78991834852439
 20
-22.24611679400732
 30
0.0
 40
2.444193535853943
 41
0.0
 71
     1
 72
     2
  1
\W1.09;\fOsaka|b0|i0|c128;secondary == 110,220,440V
  7
STD
1001
ACAD
1000
MTEXTBEGIN
1070
    73
1070
     1
1070
    44
1040
1.0
1070
    74
1070
     0
1000
MTEXTEND
1000
MTEXTBEGIN
1070
    73
1070
     1
1070
    44
1040
1.0
1070
    74
1070
     0
1000
MTEXTEND
1000
MTEXTBEGIN
1070
    73
1070
     1
1070
    44
1040
1.0
1070
    74
1070
     0
1000
MTEXTEND
1000
MTEXTBEGIN
1070
    73
1070
     1
1070
    44
1040
1.0
1070
    74
1070
     0
1000
MTEXTEND
1000
MTEXTBEGIN
1070
    73
1070
     1
1070
    44
1040
1.0
1070
    74
1070
     0
1000
MTEXTEND
  0
MTEXT
  5
6D4E
330
6B5D
100
AcDbEntity
  8
L200_
 62
     7
100
AcDbMText
 10
91.78991834852439
 20
-18.38898788775708
 30
0.0
 40
2.444193535853943
 41
0.0
 71
     1
 72
     2
  1
\W1.08;\fOsaka|b0|i0|c128;primary ==== 6.6kV
  7
STD
1001
ACAD
1000
MTEXTBEGIN
1070
    73
1070
     1
1070
    44
1040
1.0
1070
    74
1070
     0
1000
MTEXTEND
1000
MTEXTBEGIN
1070
    73
1070
     1
1070
    44
1040
1.0
1070
    74
1070
     0
1000
MTEXTEND
1000
MTEXTBEGIN
1070
    73
1070
     1
1070
    44
1040
1.0
1070
    74
1070
     0
1000
MTEXTEND
1000
MTEXTBEGIN
1070
    73
1070
     1
1070
    44
1040
1.0
1070
    74
1070
     0
1000
MTEXTEND
1000
MTEXTBEGIN
1070
    73
1070
     1
1070
    44
1040
1.0
1070
    74
1070
     0
1000
MTEXTEND
  0
MTEXT
  5
6D4F
330
6B5D
100
AcDbEntity
  8
L200_
 62
     7
100
AcDbMText
 10
179.7980848387119
 20
-10.78314887152791
 30
0.0
 40
2.444193535853943
 41
0.0
 71
     1
 72
     2
  1
\fOsaka|b0|i0|c128;30000
  7
STD
 11
0.0
 21
1.0
 31
0.0
1001
ACAD
1000
MTEXTBEGIN
1070
    73
1070
     1
1070
    44
1040
1.0
1070
    74
1070
     0
1000
MTEXTEND
1000
MTEXTBEGIN
1070
    73
1070
     1
1070
    44
1040
1.0
1070
    74
1070
     0
1000
MTEXTEND
1000
MTEXTBEGIN
1070
    73
1070
     1
1070
    44
1040
1.0
1070
    74
1070
     0
1000
MTEXTEND
1000
MTEXTBEGIN
1070
    73
1070
     1
1070
    44
1040
1.0
1070
    74
1070
     0
1000
MTEXTEND
1000
MTEXTBEGIN
1070
    73
1070
     1
1070
    44
1040
1.0
1070
    74
1070
     0
1000
MTEXTEND
  0
MTEXT
  5
6D50
330
6B5D
100
AcDbEntity
  8
L200_
 62
     7
100
AcDbMText
 10
172.1554850123232
 20
-10.78314887152791
 30
0.0
 40
2.444193535853943
 41
0.0
 71
     1
 72
     2
  1
\fOsaka|b0|i0|c128;20000
  7
STD
 11
0.0
 21
1.0
 31
0.0
1001
ACAD
1000
MTEXTBEGIN
1070
    73
1070
     1
1070
    44
1040
1.0
1070
    74
1070
     0
1000
MTEXTEND
1000
MTEXTBEGIN
1070
    73
1070
     1
1070
    44
1040
1.0
1070
    74
1070
     0
1000
MTEXTEND
1000
MTEXTBEGIN
1070
    73
1070
     1
1070
    44
1040
1.0
1070
    74
1070
     0
1000
MTEXTEND
1000
MTEXTBEGIN
1070
    73
1070
     1
1070
    44
1040
1.0
1070
    74
1070
     0
1000
MTEXTEND
1000
MTEXTBEGIN
1070
    73
1070
     1
1070
    44
1040
1.0
1070
    74
1070
     0
1000
MTEXTEND
  0
MTEXT
  5
6D51
330
6B5D
100
AcDbEntity
  8
L200_
 62
     7
100
AcDbMText
 10
159.0909939098924
 20
-10.78314887152791
 30
0.0
 40
2.444193535853943
 41
0.0
 71
     1
 72
     2
  1
\fOsaka|b0|i0|c128;10000
  7
STD
 11
0.0
 21
1.0
 31
0.0
1001
ACAD
1000
MTEXTBEGIN
1070
    73
1070
     1
1070
    44
1040
1.0
1070
    74
1070
     0
1000
MTEXTEND
1000
MTEXTBEGIN
1070
    73
1070
     1
1070
    44
1040
1.0
1070
    74
1070
     0
1000
MTEXTEND
1000
MTEXTBEGIN
1070
    73
1070
     1
1070
    44
1040
1.0
1070
    74
1070
     0
1000
MTEXTEND
1000
MTEXTBEGIN
1070
    73
1070
     1
1070
    44
1040
1.0
1070
    74
1070
     0
1000
MTEXTEND
1000
MTEXTBEGIN
1070
    73
1070
     1
1070
    44
1040
1.0
1070
    74
1070
     0
1000
MTEXTEND
  0
MTEXT
  5
6D52
330
6B5D
100
AcDbEntity
  8
L200_
 62
     7
100
AcDbMText
 10
154.8852213404479
 20
-9.140871853298591
 30
0.0
 40
2.444193535853943
 41
0.0
 71
     1
 72
     2
  1
\fOsaka|b0|i0|c128;8000
  7
STD
 11
0.0
 21
1.0
 31
0.0
1001
ACAD
1000
MTEXTBEGIN
1070
    73
1070
     1
1070
    44
1040
1.0
1070
    74
1070
     0
1000
MTEXTEND
1000
MTEXTBEGIN
1070
    73
1070
     1
1070
    44
1040
1.0
1070
    74
1070
     0
1000
MTEXTEND
1000
MTEXTBEGIN
1070
    73
1070
     1
1070
    44
1040
1.0
1070
    74
1070
     0
1000
MTEXTEND
1000
MTEXTBEGIN
1070
    73
1070
     1
1070
    44
1040
1.0
1070
    74
1070
     0
1000
MTEXTEND
1000
MTEXTBEGIN
1070
    73
1070
     1
1070
    44
1040
1.0
1070
    74
1070
     0
1000
MTEXTEND
  0
MTEXT
  5
6D53
330
6B5D
100
AcDbEntity
  8
L200_
 62
     7
100
AcDbMText
 10
146.026502807462
 20
-9.140871853298591
 30
0.0
 40
2.444193535853943
 41
0.0
 71
     1
 72
     2
  1
\fOsaka|b0|i0|c128;5000
  7
STD
 11
0.0
 21
1.0
 31
0.0
1001
ACAD
1000
MTEXTBEGIN
1070
    73
1070
     1
1070
    44
1040
1.0
1070
    74
1070
     0
1000
MTEXTEND
1000
MTEXTBEGIN
1070
    73
1070
     1
1070
    44
1040
1.0
1070
    74
1070
     0
1000
MTEXTEND
1000
MTEXTBEGIN
1070
    73
1070
     1
1070
    44
1040
1.0
1070
    74
1070
     0
1000
MTEXTEND
1000
MTEXTBEGIN
1070
    73
1070
     1
1070
    44
1040
1.0
1070
    74
1070
     0
1000
MTEXTEND
1000
MTEXTBEGIN
1070
    73
1070
     1
1070
    44
1040
1.0
1070
    74
1070
     0
1000
MTEXTEND
  0
MTEXT
  5
6D54
330
6B5D
100
AcDbEntity
  8
L200_
 62
     7
100
AcDbMText
 10
136.3981499428787
 20
-9.140871853298591
 30
0.0
 40
2.444193535853943
 41
0.0
 71
     1
 72
     2
  1
\fOsaka|b0|i0|c128;3000
  7
STD
 11
0.0
 21
1.0
 31
0.0
1001
ACAD
1000
MTEXTBEGIN
1070
    73
1070
     1
1070
    44
1040
1.0
1070
    74
1070
     0
1000
MTEXTEND
1000
MTEXTBEGIN
1070
    73
1070
     1
1070
    44
1040
1.0
1070
    74
1070
     0
1000
MTEXTEND
1000
MTEXTBEGIN
1070
    73
1070
     1
1070
    44
1040
1.0
1070
    74
1070
     0
1000
MTEXTEND
1000
MTEXTBEGIN
1070
    73
1070
     1
1070
    44
1040
1.0
1070
    74
1070
     0
1000
MTEXTEND
1000
MTEXTBEGIN
1070
    73
1070
     1
1070
    44
1040
1.0
1070
    74
1070
     0
1000
MTEXTEND
  0
MTEXT
  5
6D55
330
6B5D
100
AcDbEntity
  8
L200_
 62
     7
100
AcDbMText
 10
128.7555501164897
 20
-9.140871853298591
 30
0.0
 40
2.444193535853943
 41
0.0
 71
     1
 72
     2
  1
\fOsaka|b0|i0|c128;2000
  7
STD
 11
0.0
 21
1.0
 31
0.0
1001
ACAD
1000
MTEXTBEGIN
1070
    73
1070
     1
1070
    44
1040
1.0
1070
    74
1070
     0
1000
MTEXTEND
1000
MTEXTBEGIN
1070
    73
1070
     1
1070
    44
1040
1.0
1070
    74
1070
     0
1000
MTEXTEND
1000
MTEXTBEGIN
1070
    73
1070
     1
1070
    44
1040
1.0
1070
    74
1070
     0
1000
MTEXTEND
1000
MTEXTBEGIN
1070
    73
1070
     1
1070
    44
1040
1.0
1070
    74
1070
     0
1000
MTEXTEND
1000
MTEXTBEGIN
1070
    73
1070
     1
1070
    44
1040
1.0
1070
    74
1070
     0
1000
MTEXTEND
  0
MTEXT
  5
6D56
330
6B5D
100
AcDbEntity
  8
L200_
 62
     7
100
AcDbMText
 10
115.6910590140592
 20
-9.140871853298591
 30
0.0
 40
2.444193535853943
 41
0.0
 71
     1
 72
     2
  1
\fOsaka|b0|i0|c128;1000
  7
STD
 11
0.0
 21
1.0
 31
0.0
1001
ACAD
1000
MTEXTBEGIN
1070
    73
1070
     1
1070
    44
1040
1.0
1070
    74
1070
     0
1000
MTEXTEND
1000
MTEXTBEGIN
1070
    73
1070
     1
1070
    44
1040
1.0
1070
    74
1070
     0
1000
MTEXTEND
1000
MTEXTBEGIN
1070
    73
1070
     1
1070
    44
1040
1.0
1070
    74
1070
     0
1000
MTEXTEND
1000
MTEXTBEGIN
1070
    73
1070
     1
1070
    44
1040
1.0
1070
    74
1070
     0
1000
MTEXTEND
1000
MTEXTBEGIN
1070
    73
1070
     1
1070
    44
1040
1.0
1070
    74
1070
     0
1000
MTEXTEND
  0
MTEXT
  5
6D57
330
6B5D
100
AcDbEntity
  8
L200_
 62
     7
100
AcDbMText
 10
111.4852864446149
 20
-7.498250325520896
 30
0.0
 40
2.444193535853943
 41
0.0
 71
     1
 72
     2
  1
\fOsaka|b0|i0|c128;800
  7
STD
 11
0.0
 21
1.0
 31
0.0
1001
ACAD
1000
MTEXTBEGIN
1070
    73
1070
     1
1070
    44
1040
1.0
1070
    74
1070
     0
1000
MTEXTEND
1000
MTEXTBEGIN
1070
    73
1070
     1
1070
    44
1040
1.0
1070
    74
1070
     0
1000
MTEXTEND
1000
MTEXTBEGIN
1070
    73
1070
     1
1070
    44
1040
1.0
1070
    74
1070
     0
1000
MTEXTEND
1000
MTEXTBEGIN
1070
    73
1070
     1
1070
    44
1040
1.0
1070
    74
1070
     0
1000
MTEXTEND
1000
MTEXTBEGIN
1070
    73
1070
     1
1070
    44
1040
1.0
1070
    74
1070
     0
1000
MTEXTEND
  0
MTEXT
  5
6D58
330
6B5D
100
AcDbEntity
  8
L200_
 62
     7
100
AcDbMText
 10
102.6265679116288
 20
-7.498250325520896
 30
0.0
 40
2.444193535853943
 41
0.0
 71
     1
 72
     2
  1
\fOsaka|b0|i0|c128;500
  7
STD
 11
0.0
 21
1.0
 31
0.0
1001
ACAD
1000
MTEXTBEGIN
1070
    73
1070
     1
1070
    44
1040
1.0
1070
    74
1070
     0
1000
MTEXTEND
1000
MTEXTBEGIN
1070
    73
1070
     1
1070
    44
1040
1.0
1070
    74
1070
     0
1000
MTEXTEND
1000
MTEXTBEGIN
1070
    73
1070
     1
1070
    44
1040
1.0
1070
    74
1070
     0
1000
MTEXTEND
1000
MTEXTBEGIN
1070
    73
1070
     1
1070
    44
1040
1.0
1070
    74
1070
     0
1000
MTEXTEND
1000
MTEXTBEGIN
1070
    73
1070
     1
1070
    44
1040
1.0
1070
    74
1070
     0
1000
MTEXTEND
  0
MTEXT
  5
6D59
330
6B5D
100
AcDbEntity
  8
L200_
 62
     7
100
AcDbMText
 10
92.9982150470454
 20
-7.498250325520896
 30
0.0
 40
2.444193535853943
 41
0.0
 71
     1
 72
     2
  1
\fOsaka|b0|i0|c128;300
  7
STD
 11
0.0
 21
1.0
 31
0.0
1001
ACAD
1000
MTEXTBEGIN
1070
    73
1070
     1
1070
    44
1040
1.0
1070
    74
1070
     0
1000
MTEXTEND
1000
MTEXTBEGIN
1070
    73
1070
     1
1070
    44
1040
1.0
1070
    74
1070
     0
1000
MTEXTEND
1000
MTEXTBEGIN
1070
    73
1070
     1
1070
    44
1040
1.0
1070
    74
1070
     0
1000
MTEXTEND
1000
MTEXTBEGIN
1070
    73
1070
     1
1070
    44
1040
1.0
1070
    74
1070
     0
1000
MTEXTEND
1000
MTEXTBEGIN
1070
    73
1070
     1
1070
    44
1040
1.0
1070
    74
1070
     0
1000
MTEXTEND
  0
MTEXT
  5
6D5A
330
6B5D
100
AcDbEntity
  8
L200_
 62
     7
100
AcDbMText
 10
85.35561522065652
 20
-7.498250325520896
 30
0.0
 40
2.444193535853943
 41
0.0
 71
     1
 72
     2
  1
\fOsaka|b0|i0|c128;200
  7
STD
 11
0.0
 21
1.0
 31
0.0
1001
ACAD
1000
MTEXTBEGIN
1070
    73
1070
     1
1070
    44
1040
1.0
1070
    74
1070
     0
1000
MTEXTEND
1000
MTEXTBEGIN
1070
    73
1070
     1
1070
    44
1040
1.0
1070
    74
1070
     0
1000
MTEXTEND
1000
MTEXTBEGIN
1070
    73
1070
     1
1070
    44
1040
1.0
1070
    74
1070
     0
1000
MTEXTEND
1000
MTEXTBEGIN
1070
    73
1070
     1
1070
    44
1040
1.0
1070
    74
1070
     0
1000
MTEXTEND
1000
MTEXTBEGIN
1070
    73
1070
     1
1070
    44
1040
1.0
1070
    74
1070
     0
1000
MTEXTEND
  0
MTEXT
  5
6D5B
330
6B5D
100
AcDbEntity
  8
L200_
 62
     7
100
AcDbMText
 10
72.2911241182259
 20
-7.498250325520896
 30
0.0
 40
2.444193535853943
 41
0.0
 71
     1
 72
     2
  1
\fOsaka|b0|i0|c128;100
  7
STD
 11
0.0
 21
1.0
 31
0.0
1001
ACAD
1000
MTEXTBEGIN
1070
    73
1070
     1
1070
    44
1040
1.0
1070
    74
1070
     0
1000
MTEXTEND
1000
MTEXTBEGIN
1070
    73
1070
     1
1070
    44
1040
1.0
1070
    74
1070
     0
1000
MTEXTEND
1000
MTEXTBEGIN
1070
    73
1070
     1
1070
    44
1040
1.0
1070
    74
1070
     0
1000
MTEXTEND
1000
MTEXTBEGIN
1070
    73
1070
     1
1070
    44
1040
1.0
1070
    74
1070
     0
1000
MTEXTEND
1000
MTEXTBEGIN
1070
    73
1070
     1
1070
    44
1040
1.0
1070
    74
1070
     0
1000
MTEXTEND
  0
MTEXT
  5
6D5C
330
6B5D
100
AcDbEntity
  8
L200_
 62
     7
100
AcDbMText
 10
68.0851792940073
 20
-5.855628797743205
 30
0.0
 40
2.444193535853943
 41
0.0
 71
     1
 72
     2
  1
\fOsaka|b0|i0|c128;80
  7
STD
 11
0.0
 21
1.0
 31
0.0
1001
ACAD
1000
MTEXTBEGIN
1070
    73
1070
     1
1070
    44
1040
1.0
1070
    74
1070
     0
1000
MTEXTEND
1000
MTEXTBEGIN
1070
    73
1070
     1
1070
    44
1040
1.0
1070
    74
1070
     0
1000
MTEXTEND
1000
MTEXTBEGIN
1070
    73
1070
     1
1070
    44
1040
1.0
1070
    74
1070
     0
1000
MTEXTEND
1000
MTEXTBEGIN
1070
    73
1070
     1
1070
    44
1040
1.0
1070
    74
1070
     0
1000
MTEXTEND
1000
MTEXTBEGIN
1070
    73
1070
     1
1070
    44
1040
1.0
1070
    74
1070
     0
1000
MTEXTEND
  0
MTEXT
  5
6D5D
330
6B5D
100
AcDbEntity
  8
L200_
 62
     7
100
AcDbMText
 10
59.2264607610212
 20
-5.855628797743205
 30
0.0
 40
2.444193535853943
 41
0.0
 71
     1
 72
     2
  1
\fOsaka|b0|i0|c128;50
  7
STD
 11
0.0
 21
1.0
 31
0.0
1001
ACAD
1000
MTEXTBEGIN
1070
    73
1070
     1
1070
    44
1040
1.0
1070
    74
1070
     0
1000
MTEXTEND
1000
MTEXTBEGIN
1070
    73
1070
     1
1070
    44
1040
1.0
1070
    74
1070
     0
1000
MTEXTEND
1000
MTEXTBEGIN
1070
    73
1070
     1
1070
    44
1040
1.0
1070
    74
1070
     0
1000
MTEXTEND
1000
MTEXTBEGIN
1070
    73
1070
     1
1070
    44
1040
1.0
1070
    74
1070
     0
1000
MTEXTEND
1000
MTEXTBEGIN
1070
    73
1070
     1
1070
    44
1040
1.0
1070
    74
1070
     0
1000
MTEXTEND
  0
MTEXT
  5
6D5E
330
6B5D
100
AcDbEntity
  8
L200_
 62
     7
100
AcDbMText
 10
49.59810789643778
 20
-5.855628797743205
 30
0.0
 40
2.444193535853943
 41
0.0
 71
     1
 72
     2
  1
\fOsaka|b0|i0|c128;30
  7
STD
 11
0.0
 21
1.0
 31
0.0
1001
ACAD
1000
MTEXTBEGIN
1070
    73
1070
     1
1070
    44
1040
1.0
1070
    74
1070
     0
1000
MTEXTEND
1000
MTEXTBEGIN
1070
    73
1070
     1
1070
    44
1040
1.0
1070
    74
1070
     0
1000
MTEXTEND
1000
MTEXTBEGIN
1070
    73
1070
     1
1070
    44
1040
1.0
1070
    74
1070
     0
1000
MTEXTEND
1000
MTEXTBEGIN
1070
    73
1070
     1
1070
    44
1040
1.0
1070
    74
1070
     0
1000
MTEXTEND
1000
MTEXTBEGIN
1070
    73
1070
     1
1070
    44
1040
1.0
1070
    74
1070
     0
1000
MTEXTEND
  0
MTEXT
  5
6D5F
330
6B5D
100
AcDbEntity
  8
L200_
 62
     7
100
AcDbMText
 10
41.9558525795975
 20
-5.855628797743205
 30
0.0
 40
2.444193535853943
 41
0.0
 71
     1
 72
     2
  1
\fOsaka|b0|i0|c128;20
  7
STD
 11
0.0
 21
1.0
 31
0.0
1001
ACAD
1000
MTEXTBEGIN
1070
    73
1070
     1
1070
    44
1040
1.0
1070
    74
1070
     0
1000
MTEXTEND
1000
MTEXTBEGIN
1070
    73
1070
     1
1070
    44
1040
1.0
1070
    74
1070
     0
1000
MTEXTEND
1000
MTEXTBEGIN
1070
    73
1070
     1
1070
    44
1040
1.0
1070
    74
1070
     0
1000
MTEXTEND
1000
MTEXTBEGIN
1070
    73
1070
     1
1070
    44
1040
1.0
1070
    74
1070
     0
1000
MTEXTEND
1000
MTEXTBEGIN
1070
    73
1070
     1
1070
    44
1040
1.0
1070
    74
1070
     0
1000
MTEXTEND
  0
MTEXT
  5
6D60
330
6B5D
100
AcDbEntity
  8
L200_
 62
     7
100
AcDbMText
 10
28.89101696761841
 20
-5.855628797743205
 30
0.0
 40
2.444193535853943
 41
0.0
 71
     1
 72
     2
  1
\fOsaka|b0|i0|c128;10
  7
STD
 11
0.0
 21
1.0
 31
0.0
1001
ACAD
1000
MTEXTBEGIN
1070
    73
1070
     1
1070
    44
1040
1.0
1070
    74
1070
     0
1000
MTEXTEND
1000
MTEXTBEGIN
1070
    73
1070
     1
1070
    44
1040
1.0
1070
    74
1070
     0
1000
MTEXTEND
1000
MTEXTBEGIN
1070
    73
1070
     1
1070
    44
1040
1.0
1070
    74
1070
     0
1000
MTEXTEND
1000
MTEXTBEGIN
1070
    73
1070
     1
1070
    44
1040
1.0
1070
    74
1070
     0
1000
MTEXTEND
1000
MTEXTBEGIN
1070
    73
1070
     1
1070
    44
1040
1.0
1070
    74
1070
     0
1000
MTEXTEND
  0
MTEXT
  5
6D61
330
6B5D
100
AcDbEntity
  8
L200_
 62
     7
100
AcDbMText
 10
24.68524439817389
 20
-4.213351779513912
 30
0.0
 40
2.444193535853943
 41
0.0
 71
     1
 72
     2
  1
\fOsaka|b0|i0|c128;8
  7
STD
 11
0.0
 21
1.0
 31
0.0
1001
ACAD
1000
MTEXTBEGIN
1070
    73
1070
     1
1070
    44
1040
1.0
1070
    74
1070
     0
1000
MTEXTEND
1000
MTEXTBEGIN
1070
    73
1070
     1
1070
    44
1040
1.0
1070
    74
1070
     0
1000
MTEXTEND
1000
MTEXTBEGIN
1070
    73
1070
     1
1070
    44
1040
1.0
1070
    74
1070
     0
1000
MTEXTEND
1000
MTEXTBEGIN
1070
    73
1070
     1
1070
    44
1040
1.0
1070
    74
1070
     0
1000
MTEXTEND
1000
MTEXTBEGIN
1070
    73
1070
     1
1070
    44
1040
1.0
1070
    74
1070
     0
1000
MTEXTEND
  0
MTEXT
  5
6D62
330
6B5D
100
AcDbEntity
  8
L200_
 62
     7
100
AcDbMText
 10
15.82652586518777
 20
-4.213351779513912
 30
0.0
 40
2.444193535853943
 41
0.0
 71
     1
 72
     2
  1
\fOsaka|b0|i0|c128;5
  7
STD
 11
0.0
 21
1.0
 31
0.0
1001
ACAD
1000
MTEXTBEGIN
1070
    73
1070
     1
1070
    44
1040
1.0
1070
    74
1070
     0
1000
MTEXTEND
1000
MTEXTBEGIN
1070
    73
1070
     1
1070
    44
1040
1.0
1070
    74
1070
     0
1000
MTEXTEND
1000
MTEXTBEGIN
1070
    73
1070
     1
1070
    44
1040
1.0
1070
    74
1070
     0
1000
MTEXTEND
1000
MTEXTBEGIN
1070
    73
1070
     1
1070
    44
1040
1.0
1070
    74
1070
     0
1000
MTEXTEND
1000
MTEXTBEGIN
1070
    73
1070
     1
1070
    44
1040
1.0
1070
    74
1070
     0
1000
MTEXTEND
  0
MTEXT
  5
6D63
330
6B5D
100
AcDbEntity
  8
L200_
 62
     7
100
AcDbMText
 10
6.198173000604382
 20
-4.213351779513912
 30
0.0
 40
2.444193535853943
 41
0.0
 71
     1
 72
     2
  1
\fOsaka|b0|i0|c128;3
  7
STD
 11
0.0
 21
1.0
 31
0.0
1001
ACAD
1000
MTEXTBEGIN
1070
    73
1070
     1
1070
    44
1040
1.0
1070
    74
1070
     0
1000
MTEXTEND
1000
MTEXTBEGIN
1070
    73
1070
     1
1070
    44
1040
1.0
1070
    74
1070
     0
1000
MTEXTEND
1000
MTEXTBEGIN
1070
    73
1070
     1
1070
    44
1040
1.0
1070
    74
1070
     0
1000
MTEXTEND
1000
MTEXTBEGIN
1070
    73
1070
     1
1070
    44
1040
1.0
1070
    74
1070
     0
1000
MTEXTEND
1000
MTEXTBEGIN
1070
    73
1070
     1
1070
    44
1040
1.0
1070
    74
1070
     0
1000
MTEXTEND
  0
MTEXT
  5
6D64
330
6B5D
100
AcDbEntity
  8
L200_
 62
     7
100
AcDbMText
 10
-1.332977986808797
 20
-4.213351779513912
 30
0.0
 40
2.444193535853943
 41
0.0
 71
     1
 72
     2
  1
\fOsaka|b0|i0|c128;2
  7
STD
 11
0.0
 21
1.0
 31
0.0
1001
ACAD
1000
MTEXTBEGIN
1070
    73
1070
     1
1070
    44
1040
1.0
1070
    74
1070
     0
1000
MTEXTEND
1000
MTEXTBEGIN
1070
    73
1070
     1
1070
    44
1040
1.0
1070
    74
1070
     0
1000
MTEXTEND
1000
MTEXTBEGIN
1070
    73
1070
     1
1070
    44
1040
1.0
1070
    74
1070
     0
1000
MTEXTEND
1000
MTEXTBEGIN
1070
    73
1070
     1
1070
    44
1040
1.0
1070
    74
1070
     0
1000
MTEXTEND
1000
MTEXTBEGIN
1070
    73
1070
     1
1070
    44
1040
1.0
1070
    74
1070
     0
1000
MTEXTEND
  0
MTEXT
  5
6D65
330
6B5D
100
AcDbEntity
  8
L200_
 62
     7
100
AcDbMText
 10
-8.931582302517282
 20
1.440292711201209
 30
0.0
 40
2.444193535853943
 41
0.0
 71
     1
 72
     2
  1
\W1.02;\fOsaka|b0|i0|c128;0.01
  7
STD
1001
ACAD
1000
MTEXTBEGIN
1070
    73
1070
     1
1070
    44
1040
1.0
1070
    74
1070
     0
1000
MTEXTEND
1000
MTEXTBEGIN
1070
    73
1070
     1
1070
    44
1040
1.0
1070
    74
1070
     0
1000
MTEXTEND
1000
MTEXTBEGIN
1070
    73
1070
     1
1070
    44
1040
1.0
1070
    74
1070
     0
1000
MTEXTEND
1000
MTEXTBEGIN
1070
    73
1070
     1
1070
    44
1040
1.0
1070
    74
1070
     0
1000
MTEXTEND
1000
MTEXTBEGIN
1070
    73
1070
     1
1070
    44
1040
1.0
1070
    74
1070
     0
1000
MTEXTEND
  0
MTEXT
  5
6D66
330
6B5D
100
AcDbEntity
  8
L200_
 62
     7
100
AcDbMText
 10
-9.508635796440898
 20
14.51167400460391
 30
0.0
 40
2.444193535853943
 41
0.0
 71
     1
 72
     2
  1
\W1.11;\fOsaka|b0|i0|c128;0.02
  7
STD
1001
ACAD
1000
MTEXTBEGIN
1070
    73
1070
     1
1070
    44
1040
1.0
1070
    74
1070
     0
1000
MTEXTEND
1000
MTEXTBEGIN
1070
    73
1070
     1
1070
    44
1040
1.0
1070
    74
1070
     0
1000
MTEXTEND
1000
MTEXTBEGIN
1070
    73
1070
     1
1070
    44
1040
1.0
1070
    74
1070
     0
1000
MTEXTEND
1000
MTEXTBEGIN
1070
    73
1070
     1
1070
    44
1040
1.0
1070
    74
1070
     0
1000
MTEXTEND
1000
MTEXTBEGIN
1070
    73
1070
     1
1070
    44
1040
1.0
1070
    74
1070
     0
1000
MTEXTEND
  0
MTEXT
  5
6D67
330
6B5D
100
AcDbEntity
  8
L200_
 62
     7
100
AcDbMText
 10
-9.700872124565904
 20
22.15151775460378
 30
0.0
 40
2.444193535853943
 41
0.0
 71
     1
 72
     2
  1
\W1.14;\fOsaka|b0|i0|c128;0.03
  7
STD
1001
ACAD
1000
MTEXTBEGIN
1070
    73
1070
     1
1070
    44
1040
1.0
1070
    74
1070
     0
1000
MTEXTEND
1000
MTEXTBEGIN
1070
    73
1070
     1
1070
    44
1040
1.0
1070
    74
1070
     0
1000
MTEXTEND
1000
MTEXTBEGIN
1070
    73
1070
     1
1070
    44
1040
1.0
1070
    74
1070
     0
1000
MTEXTEND
1000
MTEXTBEGIN
1070
    73
1070
     1
1070
    44
1040
1.0
1070
    74
1070
     0
1000
MTEXTEND
1000
MTEXTBEGIN
1070
    73
1070
     1
1070
    44
1040
1.0
1070
    74
1070
     0
1000
MTEXTEND
  0
MTEXT
  5
6D68
330
6B5D
100
AcDbEntity
  8
L200_
 62
     7
100
AcDbMText
 10
-9.700872124565904
 20
27.57409804974281
 30
0.0
 40
2.444193535853943
 41
0.0
 71
     1
 72
     2
  1
\W1.14;\fOsaka|b0|i0|c128;0.04
  7
STD
1001
ACAD
1000
MTEXTBEGIN
1070
    73
1070
     1
1070
    44
1040
1.0
1070
    74
1070
     0
1000
MTEXTEND
1000
MTEXTBEGIN
1070
    73
1070
     1
1070
    44
1040
1.0
1070
    74
1070
     0
1000
MTEXTEND
1000
MTEXTBEGIN
1070
    73
1070
     1
1070
    44
1040
1.0
1070
    74
1070
     0
1000
MTEXTEND
1000
MTEXTBEGIN
1070
    73
1070
     1
1070
    44
1040
1.0
1070
    74
1070
     0
1000
MTEXTEND
1000
MTEXTBEGIN
1070
    73
1070
     1
1070
    44
1040
1.0
1070
    74
1070
     0
1000
MTEXTEND
  0
MTEXT
  5
6D69
330
6B5D
100
AcDbEntity
  8
L200_
 62
     7
100
AcDbMText
 10
-9.700872124565904
 20
31.7826266955762
 30
0.0
 40
2.444193535853943
 41
0.0
 71
     1
 72
     2
  1
\W1.14;\fOsaka|b0|i0|c128;0.05
  7
STD
1001
ACAD
1000
MTEXTBEGIN
1070
    73
1070
     1
1070
    44
1040
1.0
1070
    74
1070
     0
1000
MTEXTEND
1000
MTEXTBEGIN
1070
    73
1070
     1
1070
    44
1040
1.0
1070
    74
1070
     0
1000
MTEXTEND
1000
MTEXTBEGIN
1070
    73
1070
     1
1070
    44
1040
1.0
1070
    74
1070
     0
1000
MTEXTEND
1000
MTEXTBEGIN
1070
    73
1070
     1
1070
    44
1040
1.0
1070
    74
1070
     0
1000
MTEXTEND
1000
MTEXTBEGIN
1070
    73
1070
     1
1070
    44
1040
1.0
1070
    74
1070
     0
1000
MTEXTEND
  0
MTEXT
  5
6D6A
330
6B5D
100
AcDbEntity
  8
L200_
 62
     7
100
AcDbMText
 10
-6.816293674044999
 20
44.84918485529839
 30
0.0
 40
2.444193535853943
 41
0.0
 71
     1
 72
     2
  1
\W0.94;\fOsaka|b0|i0|c128;0.1
  7
STD
1001
ACAD
1000
MTEXTBEGIN
1070
    73
1070
     1
1070
    44
1040
1.0
1070
    74
1070
     0
1000
MTEXTEND
1000
MTEXTBEGIN
1070
    73
1070
     1
1070
    44
1040
1.0
1070
    74
1070
     0
1000
MTEXTEND
1000
MTEXTBEGIN
1070
    73
1070
     1
1070
    44
1040
1.0
1070
    74
1070
     0
1000
MTEXTEND
1000
MTEXTBEGIN
1070
    73
1070
     1
1070
    44
1040
1.0
1070
    74
1070
     0
1000
MTEXTEND
1000
MTEXTBEGIN
1070
    73
1070
     1
1070
    44
1040
1.0
1070
    74
1070
     0
1000
MTEXTEND
  0
MTEXT
  5
6D6B
330
6B5D
100
AcDbEntity
  8
L200_
 62
     7
100
AcDbMText
 10
-7.393174913194285
 20
57.90885282404833
 30
0.0
 40
2.444193535853943
 41
0.0
 71
     1
 72
     2
  1
\W1.05;\fOsaka|b0|i0|c128;0.2
  7
STD
1001
ACAD
1000
MTEXTBEGIN
1070
    73
1070
     1
1070
    44
1040
1.0
1070
    74
1070
     0
1000
MTEXTEND
1000
MTEXTBEGIN
1070
    73
1070
     1
1070
    44
1040
1.0
1070
    74
1070
     0
1000
MTEXTEND
1000
MTEXTBEGIN
1070
    73
1070
     1
1070
    44
1040
1.0
1070
    74
1070
     0
1000
MTEXTEND
1000
MTEXTBEGIN
1070
    73
1070
     1
1070
    44
1040
1.0
1070
    74
1070
     0
1000
MTEXTEND
1000
MTEXTBEGIN
1070
    73
1070
     1
1070
    44
1040
1.0
1070
    74
1070
     0
1000
MTEXTEND
  0
MTEXT
  5
6D6C
330
6B5D
100
AcDbEntity
  8
L200_
 62
     7
100
AcDbMText
 10
-7.585583496093589
 20
65.55145265043711
 30
0.0
 40
2.444193535853943
 41
0.0
 71
     1
 72
     2
  1
\W1.09;\fOsaka|b0|i0|c128;0.3
  7
STD
1001
ACAD
1000
MTEXTBEGIN
1070
    73
1070
     1
1070
    44
1040
1.0
1070
    74
1070
     0
1000
MTEXTEND
1000
MTEXTBEGIN
1070
    73
1070
     1
1070
    44
1040
1.0
1070
    74
1070
     0
1000
MTEXTEND
1000
MTEXTBEGIN
1070
    73
1070
     1
1070
    44
1040
1.0
1070
    74
1070
     0
1000
MTEXTEND
1000
MTEXTBEGIN
1070
    73
1070
     1
1070
    44
1040
1.0
1070
    74
1070
     0
1000
MTEXTEND
1000
MTEXTBEGIN
1070
    73
1070
     1
1070
    44
1040
1.0
1070
    74
1070
     0
1000
MTEXTEND
  0
MTEXT
  5
6D6D
330
6B5D
100
AcDbEntity
  8
L200_
 62
     7
100
AcDbMText
 10
-7.585583496093589
 20
70.97403294557614
 30
0.0
 40
2.444193535853943
 41
0.0
 71
     1
 72
     2
  1
\W1.09;\fOsaka|b0|i0|c128;0.4
  7
STD
1001
ACAD
1000
MTEXTBEGIN
1070
    73
1070
     1
1070
    44
1040
1.0
1070
    74
1070
     0
1000
MTEXTEND
1000
MTEXTBEGIN
1070
    73
1070
     1
1070
    44
1040
1.0
1070
    74
1070
     0
1000
MTEXTEND
1000
MTEXTBEGIN
1070
    73
1070
     1
1070
    44
1040
1.0
1070
    74
1070
     0
1000
MTEXTEND
1000
MTEXTBEGIN
1070
    73
1070
     1
1070
    44
1040
1.0
1070
    74
1070
     0
1000
MTEXTEND
1000
MTEXTBEGIN
1070
    73
1070
     1
1070
    44
1040
1.0
1070
    74
1070
     0
1000
MTEXTEND
  0
MTEXT
  5
6D6E
330
6B5D
100
AcDbEntity
  8
L200_
 62
     7
100
AcDbMText
 10
-7.585583496093589
 20
75.16258003759003
 30
0.0
 40
2.444193535853943
 41
0.0
 71
     1
 72
     2
  1
\W1.09;\fOsaka|b0|i0|c128;0.5
  7
STD
1001
ACAD
1000
MTEXTBEGIN
1070
    73
1070
     1
1070
    44
1040
1.0
1070
    74
1070
     0
1000
MTEXTEND
1000
MTEXTBEGIN
1070
    73
1070
     1
1070
    44
1040
1.0
1070
    74
1070
     0
1000
MTEXTEND
1000
MTEXTBEGIN
1070
    73
1070
     1
1070
    44
1040
1.0
1070
    74
1070
     0
1000
MTEXTEND
1000
MTEXTBEGIN
1070
    73
1070
     1
1070
    44
1040
1.0
1070
    74
1070
     0
1000
MTEXTEND
1000
MTEXTBEGIN
1070
    73
1070
     1
1070
    44
1040
1.0
1070
    74
1070
     0
1000
MTEXTEND
  0
MTEXT
  5
6D6F
330
6B5D
100
AcDbEntity
  8
L200_
 62
     7
100
AcDbMText
 10
-3.547070312499896
 20
88.23671740738173
 30
0.0
 40
2.444193535853943
 41
0.0
 71
     1
 72
     2
  1
\W0.82;\fOsaka|b0|i0|c128;1
  7
STD
1001
ACAD
1000
MTEXTBEGIN
1070
    73
1070
     1
1070
    44
1040
1.0
1070
    74
1070
     0
1000
MTEXTEND
1000
MTEXTBEGIN
1070
    73
1070
     1
1070
    44
1040
1.0
1070
    74
1070
     0
1000
MTEXTEND
1000
MTEXTBEGIN
1070
    73
1070
     1
1070
    44
1040
1.0
1070
    74
1070
     0
1000
MTEXTEND
1000
MTEXTBEGIN
1070
    73
1070
     1
1070
    44
1040
1.0
1070
    74
1070
     0
1000
MTEXTEND
1000
MTEXTBEGIN
1070
    73
1070
     1
1070
    44
1040
1.0
1070
    74
1070
     0
1000
MTEXTEND
  0
MTEXT
  5
6D70
330
6B5D
100
AcDbEntity
  8
L200_
 62
     7
100
AcDbMText
 10
-4.123951551649184
 20
101.272958726826
 30
0.0
 40
2.444193535853943
 41
0.0
 71
     1
 72
     2
  1
\W1.17;\fOsaka|b0|i0|c128;2
  7
STD
1001
ACAD
1000
MTEXTBEGIN
1070
    73
1070
     1
1070
    44
1040
1.0
1070
    74
1070
     0
1000
MTEXTEND
1000
MTEXTBEGIN
1070
    73
1070
     1
1070
    44
1040
1.0
1070
    74
1070
     0
1000
MTEXTEND
1000
MTEXTBEGIN
1070
    73
1070
     1
1070
    44
1040
1.0
1070
    74
1070
     0
1000
MTEXTEND
1000
MTEXTBEGIN
1070
    73
1070
     1
1070
    44
1040
1.0
1070
    74
1070
     0
1000
MTEXTEND
1000
MTEXTBEGIN
1070
    73
1070
     1
1070
    44
1040
1.0
1070
    74
1070
     0
1000
MTEXTEND
  0
MTEXT
  5
6D71
330
6B5D
100
AcDbEntity
  8
L200_
 62
     7
100
AcDbMText
 10
-4.316360134548514
 20
108.9517320558192
 30
0.0
 40
2.444193535853943
 41
0.0
 71
     1
 72
     2
  1
\W1.29;\fOsaka|b0|i0|c128;3
  7
STD
1001
ACAD
1000
MTEXTBEGIN
1070
    73
1070
     1
1070
    44
1040
1.0
1070
    74
1070
     0
1000
MTEXTEND
1000
MTEXTBEGIN
1070
    73
1070
     1
1070
    44
1040
1.0
1070
    74
1070
     0
1000
MTEXTEND
1000
MTEXTBEGIN
1070
    73
1070
     1
1070
    44
1040
1.0
1070
    74
1070
     0
1000
MTEXTEND
1000
MTEXTBEGIN
1070
    73
1070
     1
1070
    44
1040
1.0
1070
    74
1070
     0
1000
MTEXTEND
1000
MTEXTBEGIN
1070
    73
1070
     1
1070
    44
1040
1.0
1070
    74
1070
     0
1000
MTEXTEND
  0
MTEXT
  5
6D72
330
6B5D
100
AcDbEntity
  8
L200_
 62
     7
100
AcDbMText
 10
-4.316360134548514
 20
114.374312350958
 30
0.0
 40
2.444193535853943
 41
0.0
 71
     1
 72
     2
  1
\W1.29;\fOsaka|b0|i0|c128;4
  7
STD
1001
ACAD
1000
MTEXTBEGIN
1070
    73
1070
     1
1070
    44
1040
1.0
1070
    74
1070
     0
1000
MTEXTEND
1000
MTEXTBEGIN
1070
    73
1070
     1
1070
    44
1040
1.0
1070
    74
1070
     0
1000
MTEXTEND
1000
MTEXTBEGIN
1070
    73
1070
     1
1070
    44
1040
1.0
1070
    74
1070
     0
1000
MTEXTEND
1000
MTEXTBEGIN
1070
    73
1070
     1
1070
    44
1040
1.0
1070
    74
1070
     0
1000
MTEXTEND
1000
MTEXTBEGIN
1070
    73
1070
     1
1070
    44
1040
1.0
1070
    74
1070
     0
1000
MTEXTEND
  0
MTEXT
  5
6D73
330
6B5D
100
AcDbEntity
  8
L200_
 62
     7
100
AcDbMText
 10
-4.316360134548514
 20
118.5787068822081
 30
0.0
 40
2.444193535853943
 41
0.0
 71
     1
 72
     2
  1
\W1.29;\fOsaka|b0|i0|c128;5
  7
STD
1001
ACAD
1000
MTEXTBEGIN
1070
    73
1070
     1
1070
    44
1040
1.0
1070
    74
1070
     0
1000
MTEXTEND
1000
MTEXTBEGIN
1070
    73
1070
     1
1070
    44
1040
1.0
1070
    74
1070
     0
1000
MTEXTEND
1000
MTEXTBEGIN
1070
    73
1070
     1
1070
    44
1040
1.0
1070
    74
1070
     0
1000
MTEXTEND
1000
MTEXTBEGIN
1070
    73
1070
     1
1070
    44
1040
1.0
1070
    74
1070
     0
1000
MTEXTEND
1000
MTEXTBEGIN
1070
    73
1070
     1
1070
    44
1040
1.0
1070
    74
1070
     0
1000
MTEXTEND
  0
MTEXT
  5
6D74
330
6B5D
100
AcDbEntity
  8
L200_
 62
     7
100
AcDbMText
 10
-5.662358940972097
 20
131.6445760228331
 30
0.0
 40
2.444193535853943
 41
0.0
 71
     1
 72
     2
  1
\W1.05;\fOsaka|b0|i0|c128;10
  7
STD
1001
ACAD
1000
MTEXTBEGIN
1070
    73
1070
     1
1070
    44
1040
1.0
1070
    74
1070
     0
1000
MTEXTEND
1000
MTEXTBEGIN
1070
    73
1070
     1
1070
    44
1040
1.0
1070
    74
1070
     0
1000
MTEXTEND
1000
MTEXTBEGIN
1070
    73
1070
     1
1070
    44
1040
1.0
1070
    74
1070
     0
1000
MTEXTEND
1000
MTEXTBEGIN
1070
    73
1070
     1
1070
    44
1040
1.0
1070
    74
1070
     0
1000
MTEXTEND
1000
MTEXTBEGIN
1070
    73
1070
     1
1070
    44
1040
1.0
1070
    74
1070
     0
1000
MTEXTEND
  0
MTEXT
  5
6D75
330
6B5D
100
AcDbEntity
  8
L200_
 62
     7
100
AcDbMText
 10
-6.239412434895682
 20
144.7011434056455
 30
0.0
 40
2.444193535853943
 41
0.0
 71
     1
 72
     2
  1
\W1.23;\fOsaka|b0|i0|c128;20
  7
STD
1001
ACAD
1000
MTEXTBEGIN
1070
    73
1070
     1
1070
    44
1040
1.0
1070
    74
1070
     0
1000
MTEXTEND
1000
MTEXTBEGIN
1070
    73
1070
     1
1070
    44
1040
1.0
1070
    74
1070
     0
1000
MTEXTEND
1000
MTEXTBEGIN
1070
    73
1070
     1
1070
    44
1040
1.0
1070
    74
1070
     0
1000
MTEXTEND
1000
MTEXTBEGIN
1070
    73
1070
     1
1070
    44
1040
1.0
1070
    74
1070
     0
1000
MTEXTEND
1000
MTEXTBEGIN
1070
    73
1070
     1
1070
    44
1040
1.0
1070
    74
1070
     0
1000
MTEXTEND
  0
MTEXT
  5
6D76
330
6B5D
100
AcDbEntity
  8
L200_
 62
     7
100
AcDbMText
 10
-6.431648763020686
 20
152.3516669516524
 30
0.0
 40
2.444193535853943
 41
0.0
 71
     1
 72
     2
  1
\W1.29;\fOsaka|b0|i0|c128;30
  7
STD
1001
ACAD
1000
MTEXTBEGIN
1070
    73
1070
     1
1070
    44
1040
1.0
1070
    74
1070
     0
1000
MTEXTEND
1000
MTEXTBEGIN
1070
    73
1070
     1
1070
    44
1040
1.0
1070
    74
1070
     0
1000
MTEXTEND
1000
MTEXTBEGIN
1070
    73
1070
     1
1070
    44
1040
1.0
1070
    74
1070
     0
1000
MTEXTEND
1000
MTEXTBEGIN
1070
    73
1070
     1
1070
    44
1040
1.0
1070
    74
1070
     0
1000
MTEXTEND
1000
MTEXTBEGIN
1070
    73
1070
     1
1070
    44
1040
1.0
1070
    74
1070
     0
1000
MTEXTEND
  0
MTEXT
  5
6D77
330
6B5D
100
AcDbEntity
  8
L200_
 62
     7
100
AcDbMText
 10
-6.431648763020686
 20
157.774074992017
 30
0.0
 40
2.444193535853943
 41
0.0
 71
     1
 72
     2
  1
\W1.29;\fOsaka|b0|i0|c128;40
  7
STD
1001
ACAD
1000
MTEXTBEGIN
1070
    73
1070
     1
1070
    44
1040
1.0
1070
    74
1070
     0
1000
MTEXTEND
1000
MTEXTBEGIN
1070
    73
1070
     1
1070
    44
1040
1.0
1070
    74
1070
     0
1000
MTEXTEND
1000
MTEXTBEGIN
1070
    73
1070
     1
1070
    44
1040
1.0
1070
    74
1070
     0
1000
MTEXTEND
1000
MTEXTBEGIN
1070
    73
1070
     1
1070
    44
1040
1.0
1070
    74
1070
     0
1000
MTEXTEND
1000
MTEXTBEGIN
1070
    73
1070
     1
1070
    44
1040
1.0
1070
    74
1070
     0
1000
MTEXTEND
  0
MTEXT
  5
6D78
330
6B5D
100
AcDbEntity
  8
L200_
 62
     7
100
AcDbMText
 10
-6.431648763020686
 20
161.9800198162358
 30
0.0
 40
2.444193535853943
 41
0.0
 71
     1
 72
     2
  1
\W1.29;\fOsaka|b0|i0|c128;50
  7
STD
1001
ACAD
1000
MTEXTBEGIN
1070
    73
1070
     1
1070
    44
1040
1.0
1070
    74
1070
     0
1000
MTEXTEND
1000
MTEXTBEGIN
1070
    73
1070
     1
1070
    44
1040
1.0
1070
    74
1070
     0
1000
MTEXTEND
1000
MTEXTBEGIN
1070
    73
1070
     1
1070
    44
1040
1.0
1070
    74
1070
     0
1000
MTEXTEND
1000
MTEXTBEGIN
1070
    73
1070
     1
1070
    44
1040
1.0
1070
    74
1070
     0
1000
MTEXTEND
1000
MTEXTBEGIN
1070
    73
1070
     1
1070
    44
1040
1.0
1070
    74
1070
     0
1000
MTEXTEND
  0
MTEXT
  5
6D79
330
6B5D
100
AcDbEntity
  8
L200_
 62
     7
100
AcDbMText
 10
-6.431648763020686
 20
165.4070285510448
 30
0.0
 40
2.444193535853943
 41
0.0
 71
     1
 72
     2
  1
\W1.29;\fOsaka|b0|i0|c128;60
  7
STD
1001
ACAD
1000
MTEXTBEGIN
1070
    73
1070
     1
1070
    44
1040
1.0
1070
    74
1070
     0
1000
MTEXTEND
1000
MTEXTBEGIN
1070
    73
1070
     1
1070
    44
1040
1.0
1070
    74
1070
     0
1000
MTEXTEND
1000
MTEXTBEGIN
1070
    73
1070
     1
1070
    44
1040
1.0
1070
    74
1070
     0
1000
MTEXTEND
1000
MTEXTBEGIN
1070
    73
1070
     1
1070
    44
1040
1.0
1070
    74
1070
     0
1000
MTEXTEND
1000
MTEXTBEGIN
1070
    73
1070
     1
1070
    44
1040
1.0
1070
    74
1070
     0
1000
MTEXTEND
  0
MTEXT
  5
6D7A
330
6B5D
100
AcDbEntity
  8
L200_
 62
     7
100
AcDbMText
 10
-7.777819824218596
 20
175.0166056452289
 30
0.0
 40
2.444193535853943
 41
0.0
 71
     1
 72
     2
  1
\W1.13;\fOsaka|b0|i0|c128;100
  7
STD
1001
ACAD
1000
MTEXTBEGIN
1070
    73
1070
     1
1070
    44
1040
1.0
1070
    74
1070
     0
1000
MTEXTEND
1000
MTEXTBEGIN
1070
    73
1070
     1
1070
    44
1040
1.0
1070
    74
1070
     0
1000
MTEXTEND
1000
MTEXTBEGIN
1070
    73
1070
     1
1070
    44
1040
1.0
1070
    74
1070
     0
1000
MTEXTEND
1000
MTEXTBEGIN
1070
    73
1070
     1
1070
    44
1040
1.0
1070
    74
1070
     0
1000
MTEXTEND
1000
MTEXTBEGIN
1070
    73
1070
     1
1070
    44
1040
1.0
1070
    74
1070
     0
1000
MTEXTEND
  0
MTEXT
  5
6D7B
330
6B5D
100
AcDbEntity
  8
L200_
 62
     7
100
AcDbMText
 10
-8.354701063368111
 20
188.0997002632841
 30
0.0
 40
2.444193535853943
 41
0.0
 71
     1
 72
     2
  1
\W1.25;\fOsaka|b0|i0|c128;200
  7
STD
1001
ACAD
1000
MTEXTBEGIN
1070
    73
1070
     1
1070
    44
1040
1.0
1070
    74
1070
     0
1000
MTEXTEND
1000
MTEXTBEGIN
1070
    73
1070
     1
1070
    44
1040
1.0
1070
    74
1070
     0
1000
MTEXTEND
1000
MTEXTBEGIN
1070
    73
1070
     1
1070
    44
1040
1.0
1070
    74
1070
     0
1000
MTEXTEND
1000
MTEXTBEGIN
1070
    73
1070
     1
1070
    44
1040
1.0
1070
    74
1070
     0
1000
MTEXTEND
1000
MTEXTBEGIN
1070
    73
1070
     1
1070
    44
1040
1.0
1070
    74
1070
     0
1000
MTEXTEND
  0
MTEXT
  5
6D7C
330
6B5D
100
AcDbEntity
  8
L200_
 62
     7
100
AcDbMText
 10
-8.547109646267271
 20
195.75177410226
 30
0.0
 40
2.444193535853943
 41
0.0
 71
     1
 72
     2
  1
\W1.29;\fOsaka|b0|i0|c128;300
  7
STD
1001
ACAD
1000
MTEXTBEGIN
1070
    73
1070
     1
1070
    44
1040
1.0
1070
    74
1070
     0
1000
MTEXTEND
1000
MTEXTBEGIN
1070
    73
1070
     1
1070
    44
1040
1.0
1070
    74
1070
     0
1000
MTEXTEND
1000
MTEXTBEGIN
1070
    73
1070
     1
1070
    44
1040
1.0
1070
    74
1070
     0
1000
MTEXTEND
1000
MTEXTBEGIN
1070
    73
1070
     1
1070
    44
1040
1.0
1070
    74
1070
     0
1000
MTEXTEND
1000
MTEXTBEGIN
1070
    73
1070
     1
1070
    44
1040
1.0
1070
    74
1070
     0
1000
MTEXTEND
  0
MTEXT
  5
6D7D
330
6B5D
100
AcDbEntity
  8
L200_
 62
     7
100
AcDbMText
 10
-8.547109646267271
 20
201.1740098878505
 30
0.0
 40
2.444193535853943
 41
0.0
 71
     1
 72
     2
  1
\W1.29;\fOsaka|b0|i0|c128;400
  7
STD
1001
ACAD
1000
MTEXTBEGIN
1070
    73
1070
     1
1070
    44
1040
1.0
1070
    74
1070
     0
1000
MTEXTEND
1000
MTEXTBEGIN
1070
    73
1070
     1
1070
    44
1040
1.0
1070
    74
1070
     0
1000
MTEXTEND
1000
MTEXTBEGIN
1070
    73
1070
     1
1070
    44
1040
1.0
1070
    74
1070
     0
1000
MTEXTEND
1000
MTEXTBEGIN
1070
    73
1070
     1
1070
    44
1040
1.0
1070
    74
1070
     0
1000
MTEXTEND
1000
MTEXTBEGIN
1070
    73
1070
     1
1070
    44
1040
1.0
1070
    74
1070
     0
1000
MTEXTEND
  0
MTEXT
  5
6D7E
330
6B5D
100
AcDbEntity
  8
L200_
 62
     7
100
AcDbMText
 10
-8.547109646267271
 20
205.3885674507844
 30
0.0
 40
2.444193535853943
 41
0.0
 71
     1
 72
     2
  1
\W1.29;\fOsaka|b0|i0|c128;500
  7
STD
1001
ACAD
1000
MTEXTBEGIN
1070
    73
1070
     1
1070
    44
1040
1.0
1070
    74
1070
     0
1000
MTEXTEND
1000
MTEXTBEGIN
1070
    73
1070
     1
1070
    44
1040
1.0
1070
    74
1070
     0
1000
MTEXTEND
1000
MTEXTBEGIN
1070
    73
1070
     1
1070
    44
1040
1.0
1070
    74
1070
     0
1000
MTEXTEND
1000
MTEXTBEGIN
1070
    73
1070
     1
1070
    44
1040
1.0
1070
    74
1070
     0
1000
MTEXTEND
1000
MTEXTBEGIN
1070
    73
1070
     1
1070
    44
1040
1.0
1070
    74
1070
     0
1000
MTEXTEND
  0
MTEXT
  5
6D7F
330
6B5D
100
AcDbEntity
  8
L200_
 62
     7
100
AcDbMText
 10
-9.89328070746518
 20
218.4428955215309
 30
0.0
 40
2.444193535853943
 41
0.0
 71
     1
 72
     2
  1
\W1.17;\fOsaka|b0|i0|c128;1000
  7
STD
1001
ACAD
1000
MTEXTBEGIN
1070
    73
1070
     1
1070
    44
1040
1.0
1070
    74
1070
     0
1000
MTEXTEND
1000
MTEXTBEGIN
1070
    73
1070
     1
1070
    44
1040
1.0
1070
    74
1070
     0
1000
MTEXTEND
1000
MTEXTBEGIN
1070
    73
1070
     1
1070
    44
1040
1.0
1070
    74
1070
     0
1000
MTEXTEND
1000
MTEXTBEGIN
1070
    73
1070
     1
1070
    44
1040
1.0
1070
    74
1070
     0
1000
MTEXTEND
1000
MTEXTBEGIN
1070
    73
1070
     1
1070
    44
1040
1.0
1070
    74
1070
     0
1000
MTEXTEND
  0
MTEXT
  5
6D80
330
6B5D
100
AcDbEntity
  8
L200_
 62
     7
100
AcDbMText
 10
-10.47016194661461
 20
231.509281426479
 30
0.0
 40
2.444193535853943
 41
0.0
 71
     1
 72
     2
  1
\W1.26;\fOsaka|b0|i0|c128;2000
  7
STD
1001
ACAD
1000
MTEXTBEGIN
1070
    73
1070
     1
1070
    44
1040
1.0
1070
    74
1070
     0
1000
MTEXTEND
1000
MTEXTBEGIN
1070
    73
1070
     1
1070
    44
1040
1.0
1070
    74
1070
     0
1000
MTEXTEND
1000
MTEXTBEGIN
1070
    73
1070
     1
1070
    44
1040
1.0
1070
    74
1070
     0
1000
MTEXTEND
1000
MTEXTBEGIN
1070
    73
1070
     1
1070
    44
1040
1.0
1070
    74
1070
     0
1000
MTEXTEND
1000
MTEXTBEGIN
1070
    73
1070
     1
1070
    44
1040
1.0
1070
    74
1070
     0
1000
MTEXTEND
  0
MTEXT
  5
6D81
330
6B5D
100
AcDbEntity
  8
L200_
 62
     7
100
AcDbMText
 10
-10.66239827473961
 20
239.1517089980935
 30
0.0
 40
2.444193535853943
 41
0.0
 71
     1
 72
     2
  1
\W1.29;\fOsaka|b0|i0|c128;3000
  7
STD
1001
ACAD
1000
MTEXTBEGIN
1070
    73
1070
     1
1070
    44
1040
1.0
1070
    74
1070
     0
1000
MTEXTEND
1000
MTEXTBEGIN
1070
    73
1070
     1
1070
    44
1040
1.0
1070
    74
1070
     0
1000
MTEXTEND
1000
MTEXTBEGIN
1070
    73
1070
     1
1070
    44
1040
1.0
1070
    74
1070
     0
1000
MTEXTEND
1000
MTEXTBEGIN
1070
    73
1070
     1
1070
    44
1040
1.0
1070
    74
1070
     0
1000
MTEXTEND
1000
MTEXTBEGIN
1070
    73
1070
     1
1070
    44
1040
1.0
1070
    74
1070
     0
1000
MTEXTEND
  0
MTEXT
  5
6D82
330
6B5D
100
AcDbEntity
  8
L200_
 62
     7
100
AcDbMText
 10
-10.66239827473961
 20
244.5741170384581
 30
0.0
 40
2.444193535853943
 41
0.0
 71
     1
 72
     2
  1
\W1.29;\fOsaka|b0|i0|c128;4000
  7
STD
1001
ACAD
1000
MTEXTBEGIN
1070
    73
1070
     1
1070
    44
1040
1.0
1070
    74
1070
     0
1000
MTEXTEND
1000
MTEXTBEGIN
1070
    73
1070
     1
1070
    44
1040
1.0
1070
    74
1070
     0
1000
MTEXTEND
1000
MTEXTBEGIN
1070
    73
1070
     1
1070
    44
1040
1.0
1070
    74
1070
     0
1000
MTEXTEND
1000
MTEXTBEGIN
1070
    73
1070
     1
1070
    44
1040
1.0
1070
    74
1070
     0
1000
MTEXTEND
1000
MTEXTBEGIN
1070
    73
1070
     1
1070
    44
1040
1.0
1070
    74
1070
     0
1000
MTEXTEND
  0
MTEXT
  5
6D83
330
6B5D
100
AcDbEntity
  8
L200_
 62
     7
100
AcDbMText
 10
-10.66239827473961
 20
248.7800618626768
 30
0.0
 40
2.444193535853943
 41
0.0
 71
     1
 72
     2
  1
\W1.29;\fOsaka|b0|i0|c128;5000
  7
STD
1001
ACAD
1000
MTEXTBEGIN
1070
    73
1070
     1
1070
    44
1040
1.0
1070
    74
1070
     0
1000
MTEXTEND
1000
MTEXTBEGIN
1070
    73
1070
     1
1070
    44
1040
1.0
1070
    74
1070
     0
1000
MTEXTEND
1000
MTEXTBEGIN
1070
    73
1070
     1
1070
    44
1040
1.0
1070
    74
1070
     0
1000
MTEXTEND
1000
MTEXTBEGIN
1070
    73
1070
     1
1070
    44
1040
1.0
1070
    74
1070
     0
1000
MTEXTEND
1000
MTEXTBEGIN
1070
    73
1070
     1
1070
    44
1040
1.0
1070
    74
1070
     0
1000
MTEXTEND
  0
MTEXT
  5
6D84
330
6B5D
100
AcDbEntity
  8
L200_
 62
     7
100
AcDbMText
 10
-12.00856933593749
 20
261.8447252198815
 30
0.0
 40
2.444193535853943
 41
0.0
 71
     1
 72
     2
  1
\W1.19;\fOsaka|b0|i0|c128;10000
  7
STD
1001
ACAD
1000
MTEXTBEGIN
1070
    73
1070
     1
1070
    44
1040
1.0
1070
    74
1070
     0
1000
MTEXTEND
1000
MTEXTBEGIN
1070
    73
1070
     1
1070
    44
1040
1.0
1070
    74
1070
     0
1000
MTEXTEND
1000
MTEXTBEGIN
1070
    73
1070
     1
1070
    44
1040
1.0
1070
    74
1070
     0
1000
MTEXTEND
1000
MTEXTBEGIN
1070
    73
1070
     1
1070
    44
1040
1.0
1070
    74
1070
     0
1000
MTEXTEND
1000
MTEXTBEGIN
1070
    73
1070
     1
1070
    44
1040
1.0
1070
    74
1070
     0
1000
MTEXTEND
  0
MTEXT
  5
6D85
330
6B5D
100
AcDbEntity
  8
L200_
 62
     7
100
AcDbMText
 10
-15.88897723853578
 20
88.3928819444443
 30
0.0
 40
3.421865693396991
 41
0.0
 71
     1
 72
     2
  1
\fOsaka|b0|i0|c128;Operating time (sec)
  7
STD
 11
0.0
 21
1.0
 31
0.0
1001
ACAD
1000
MTEXTBEGIN
1070
    73
1070
     1
1070
    44
1040
1.0
1070
    74
1070
     0
1000
MTEXTEND
1000
MTEXTBEGIN
1070
    73
1070
     1
1070
    44
1040
1.0
1070
    74
1070
     0
1000
MTEXTEND
1000
MTEXTBEGIN
1070
    73
1070
     1
1070
    44
1040
1.0
1070
    74
1070
     0
1000
MTEXTEND
1000
MTEXTBEGIN
1070
    73
1070
     1
1070
    44
1040
1.0
1070
    74
1070
     0
1000
MTEXTEND
1000
MTEXTBEGIN
1070
    73
1070
     1
1070
    44
1040
1.0
1070
    74
1070
     0
1000
MTEXTEND
  0
MTEXT
  5
6D86
330
6B5D
100
AcDbEntity
  8
L200_
 62
     7
100
AcDbMText
 10
32.42523871527776
 20
-17.48572979271409
 30
0.0
 40
3.421865693396991
 41
0.0
 71
     1
 72
     2
  1
\W0.96;\fOsaka|b0|i0|c128;Current (A)
  7
STD
1001
ACAD
1000
MTEXTBEGIN
1070
    73
1070
     1
1070
    44
1040
1.0
1070
    74
1070
     0
1000
MTEXTEND
1000
MTEXTBEGIN
1070
    73
1070
     1
1070
    44
1040
1.0
1070
    74
1070
     0
1000
MTEXTEND
1000
MTEXTBEGIN
1070
    73
1070
     1
1070
    44
1040
1.0
1070
    74
1070
     0
1000
MTEXTEND
1000
MTEXTBEGIN
1070
    73
1070
     1
1070
    44
1040
1.0
1070
    74
1070
     0
1000
MTEXTEND
1000
MTEXTBEGIN
1070
    73
1070
     1
1070
    44
1040
1.0
1070
    74
1070
     0
1000
MTEXTEND
  0
LINE
  5
6D87
330
6B5D
100
AcDbEntity
  8
L200_
 62
     4
100
AcDbLine
 10
173.5999118381077
 20
230.0651991102431
 30
0.0
 11
173.5999118381077
 21
0.0
 31
0.0
  0
LINE
  5
6D88
330
6B5D
100
AcDbEntity
  8
L200_
 62
     4
100
AcDbLine
 10
160.5354207356771
 20
230.0651991102431
 30
0.0
 11
160.5354207356771
 21
0.0
 31
0.0
  0
LINE
  5
6D89
330
6B5D
100
AcDbEntity
  8
L200_
 62
     4
100
AcDbLine
 10
156.3296481662324
 20
230.0651991102431
 30
0.0
 11
156.3296481662324
 21
0.0
 31
0.0
  0
LINE
  5
6D8A
330
6B5D
100
AcDbEntity
  8
L200_
 62
     4
100
AcDbLine
 10
147.4709296332465
 20
230.0651991102431
 30
0.0
 11
147.4709296332465
 21
0.0
 31
0.0
  0
LINE
  5
6D8B
330
6B5D
100
AcDbEntity
  8
L200_
 62
     4
100
AcDbLine
 10
137.8425767686632
 20
230.0651991102431
 30
0.0
 11
137.8425767686632
 21
0.0
 31
0.0
  0
LINE
  5
6D8C
330
6B5D
100
AcDbEntity
  8
L200_
 62
     4
100
AcDbLine
 10
130.1999769422742
 20
230.0651991102431
 30
0.0
 11
130.1999769422742
 21
0.0
 31
0.0
  0
LINE
  5
6D8D
330
6B5D
100
AcDbEntity
  8
L200_
 62
     4
100
AcDbLine
 10
117.1354858398437
 20
237.7076266818576
 30
0.0
 11
0.0
 21
237.7076266818576
 31
0.0
  0
LINE
  5
6D8E
330
6B5D
100
AcDbEntity
  8
L200_
 62
     4
100
AcDbLine
 10
117.1354858398437
 20
243.1298624674476
 30
0.0
 11
0.0
 21
243.1298624674476
 31
0.0
  0
LINE
  5
6D8F
330
6B5D
100
AcDbEntity
  8
L200_
 62
     4
100
AcDbLine
 10
117.1354858398437
 20
247.3358072916666
 30
0.0
 11
0.0
 21
247.3358072916666
 31
0.0
  0
LINE
  5
6D90
330
6B5D
100
AcDbEntity
  8
L200_
 62
     4
100
AcDbLine
 10
117.1354858398437
 20
250.7722900390624
 30
0.0
 11
0.0
 21
250.7722900390624
 31
0.0
  0
LINE
  5
6D91
330
6B5D
100
AcDbEntity
  8
L200_
 62
     4
100
AcDbLine
 10
181.2425116644966
 20
260.4004706488714
 30
0.0
 11
0.0
 21
260.4004706488714
 31
0.0
  0
LINE
  5
6D92
330
6B5D
100
AcDbEntity
  8
L200_
 62
     4
100
AcDbLine
 10
181.2425116644966
 20
256.1945258246526
 30
0.0
 11
0.0
 21
256.1945258246526
 31
0.0
  0
LINE
  5
6D93
330
6B5D
100
AcDbEntity
  8
L200_
 62
     4
100
AcDbLine
 10
181.2425116644966
 20
230.0651991102431
 30
0.0
 11
0.0
 21
230.0651991102431
 31
0.0
  0
LINE
  5
6D94
330
6B5D
100
AcDbEntity
  8
L200_
 62
     4
100
AcDbLine
 10
181.2425116644966
 20
217.0005357530381
 30
0.0
 11
0.0
 21
217.0005357530381
 31
0.0
  0
LINE
  5
6D95
330
6B5D
100
AcDbEntity
  8
L200_
 62
     4
100
AcDbLine
 10
181.2425116644966
 20
212.7945909288194
 30
0.0
 11
0.0
 21
212.7945909288194
 31
0.0
  0
LINE
  5
6D96
330
6B5D
100
AcDbEntity
  8
L200_
 62
     4
100
AcDbLine
 10
181.2425116644966
 20
207.3721828884548
 30
0.0
 11
0.0
 21
207.3721828884548
 31
0.0
  0
LINE
  5
6D97
330
6B5D
100
AcDbEntity
  8
L200_
 62
     4
100
AcDbLine
 10
181.2425116644966
 20
203.9357001410589
 30
0.0
 11
0.0
 21
203.9357001410589
 31
0.0
  0
LINE
  5
6D98
330
6B5D
100
AcDbEntity
  8
L200_
 62
     4
100
AcDbLine
 10
181.2425116644966
 20
199.7299275716146
 30
0.0
 11
0.0
 21
199.7299275716146
 31
0.0
  0
LINE
  5
6D99
330
6B5D
100
AcDbEntity
  8
L200_
 62
     4
100
AcDbLine
 10
181.2425116644966
 20
194.30751953125
 30
0.0
 11
0.0
 21
194.30751953125
 31
0.0
  0
LINE
  5
6D9A
330
6B5D
100
AcDbEntity
  8
L200_
 62
     4
100
AcDbLine
 10
181.2425116644966
 20
186.6652642144096
 30
0.0
 11
0.0
 21
186.6652642144096
 31
0.0
  0
LINE
  5
6D9B
330
6B5D
100
AcDbEntity
  8
L200_
 62
     4
100
AcDbLine
 10
181.2425116644966
 20
173.6004286024305
 30
0.0
 11
0.0
 21
173.6004286024305
 31
0.0
  0
LINE
  5
6D9C
330
6B5D
100
AcDbEntity
  8
L200_
 62
     4
100
AcDbLine
 10
181.2425116644966
 20
169.394656032986
 30
0.0
 11
0.0
 21
169.394656032986
 31
0.0
  0
LINE
  5
6D9D
330
6B5D
100
AcDbEntity
  8
L200_
 62
     4
100
AcDbLine
 10
181.2425116644966
 20
163.9722479926216
 30
0.0
 11
0.0
 21
163.9722479926216
 31
0.0
  0
LINE
  5
6D9E
330
6B5D
100
AcDbEntity
  8
L200_
 62
     4
100
AcDbLine
 10
181.2425116644966
 20
160.5357652452257
 30
0.0
 11
0.0
 21
160.5357652452257
 31
0.0
  0
LINE
  5
6D9F
330
6B5D
100
AcDbEntity
  8
L200_
 62
     4
100
AcDbLine
 10
181.2425116644966
 20
156.329820421007
 30
0.0
 11
0.0
 21
156.329820421007
 31
0.0
  0
LINE
  5
6DA0
330
6B5D
100
AcDbEntity
  8
L200_
 62
     4
100
AcDbLine
 10
181.2425116644966
 20
150.9075846354164
 30
0.0
 11
0.0
 21
150.9075846354164
 31
0.0
  0
LINE
  5
6DA1
330
6B5D
100
AcDbEntity
  8
L200_
 62
     4
100
AcDbLine
 10
181.2425116644966
 20
143.265157063802
 30
0.0
 11
0.0
 21
143.265157063802
 31
0.0
  0
LINE
  5
6DA2
330
6B5D
100
AcDbEntity
  8
L200_
 62
     4
100
AcDbLine
 10
181.2425116644966
 20
130.200493706597
 30
0.0
 11
0.0
 21
130.200493706597
 31
0.0
  0
LINE
  5
6DA3
330
6B5D
100
AcDbEntity
  8
L200_
 62
     4
100
AcDbLine
 10
181.2425116644966
 20
125.9945488823783
 30
0.0
 11
0.0
 21
125.9945488823783
 31
0.0
  0
LINE
  5
6DA4
330
6B5D
100
AcDbEntity
  8
L200_
 62
     4
100
AcDbLine
 10
181.2425116644966
 20
120.5723130967881
 30
0.0
 11
0.0
 21
120.5723130967881
 31
0.0
  0
LINE
  5
6DA5
330
6B5D
100
AcDbEntity
  8
L200_
 62
     4
100
AcDbLine
 10
181.2425116644966
 20
117.1356580946181
 30
0.0
 11
0.0
 21
117.1356580946181
 31
0.0
  0
LINE
  5
6DA6
330
6B5D
100
AcDbEntity
  8
L200_
 62
     4
100
AcDbLine
 10
181.2425116644966
 20
112.9298855251734
 30
0.0
 11
0.0
 21
112.9298855251734
 31
0.0
  0
LINE
  5
6DA7
330
6B5D
100
AcDbEntity
  8
L200_
 62
     4
100
AcDbLine
 10
181.2425116644966
 20
107.5073052300345
 30
0.0
 11
0.0
 21
107.5073052300345
 31
0.0
  0
LINE
  5
6DA8
330
6B5D
100
AcDbEntity
  8
L200_
 62
     4
100
AcDbLine
 10
181.2425116644966
 20
99.86539442274313
 30
0.0
 11
0.0
 21
99.86539442274313
 31
0.0
  0
LINE
  5
6DA9
330
6B5D
100
AcDbEntity
  8
L200_
 62
     4
100
AcDbLine
 10
181.2425116644966
 20
86.80055881076389
 30
0.0
 11
0.0
 21
86.80055881076389
 31
0.0
  0
LINE
  5
6DAA
330
6B5D
100
AcDbEntity
  8
L200_
 62
     4
100
AcDbLine
 10
181.2425116644966
 20
82.59409722222221
 30
0.0
 11
0.0
 21
82.59409722222221
 31
0.0
  0
LINE
  5
6DAB
330
6B5D
100
AcDbEntity
  8
L200_
 62
     4
100
AcDbLine
 10
181.2425116644966
 20
77.17220594618066
 30
0.0
 11
0.0
 21
77.17220594618066
 31
0.0
  0
LINE
  5
6DAC
330
6B5D
100
AcDbEntity
  8
L200_
 62
     4
100
AcDbLine
 10
181.2425116644966
 20
73.73537868923614
 30
0.0
 11
0.0
 21
73.73537868923614
 31
0.0
  0
LINE
  5
6DAD
330
6B5D
100
AcDbEntity
  8
L200_
 62
     4
100
AcDbLine
 10
181.2425116644966
 20
69.52960611979165
 30
0.0
 11
0.0
 21
69.52960611979165
 31
0.0
  0
LINE
  5
6DAE
330
6B5D
100
AcDbEntity
  8
L200_
 62
     4
100
AcDbLine
 10
181.2425116644966
 20
64.1070258246528
 30
0.0
 11
0.0
 21
64.1070258246528
 31
0.0
  0
LINE
  5
6DAF
330
6B5D
100
AcDbEntity
  8
L200_
 62
     4
100
AcDbLine
 10
181.2425116644966
 20
56.46511501736114
 30
0.0
 11
0.0
 21
56.46511501736114
 31
0.0
  0
LINE
  5
6DB0
330
6B5D
100
AcDbEntity
  8
L200_
 62
     4
100
AcDbLine
 10
181.2425116644966
 20
43.40062391493041
 30
0.0
 11
0.0
 21
43.40062391493041
 31
0.0
  0
LINE
  5
6DB1
330
6B5D
100
AcDbEntity
  8
L200_
 62
     4
100
AcDbLine
 10
181.2425116644966
 20
39.19416232638893
 30
0.0
 11
0.0
 21
39.19416232638893
 31
0.0
  0
LINE
  5
6DB2
330
6B5D
100
AcDbEntity
  8
L200_
 62
     4
100
AcDbLine
 10
181.2425116644966
 20
33.77227105034723
 30
0.0
 11
0.0
 21
33.77227105034723
 31
0.0
  0
LINE
  5
6DB3
330
6B5D
100
AcDbEntity
  8
L200_
 62
     4
100
AcDbLine
 10
181.2425116644966
 20
30.3354437934028
 30
0.0
 11
0.0
 21
30.3354437934028
 31
0.0
  0
LINE
  5
6DB4
330
6B5D
100
AcDbEntity
  8
L200_
 62
     4
100
AcDbLine
 10
181.2425116644966
 20
26.12967122395832
 30
0.0
 11
0.0
 21
26.12967122395832
 31
0.0
  0
LINE
  5
6DB5
330
6B5D
100
AcDbEntity
  8
L200_
 62
     4
100
AcDbLine
 10
181.2425116644966
 20
20.7070909288193
 30
0.0
 11
0.0
 21
20.7070909288193
 31
0.0
  0
LINE
  5
6DB6
330
6B5D
100
AcDbEntity
  8
L200_
 62
     4
100
AcDbLine
 10
181.2425116644966
 20
13.06518012152781
 30
0.0
 11
0.0
 21
13.06518012152781
 31
0.0
  0
LINE
  5
6DB7
330
6B5D
100
AcDbEntity
  8
L200_
 62
     7
100
AcDbLine
 10
181.2425116644966
 20
0.0
 30
0.0
 11
0.0
 21
0.0
 31
0.0
  0
LINE
  5
6DB8
330
6B5D
100
AcDbEntity
  8
L200_
 62
     4
100
AcDbLine
 10
181.2425116644966
 20
260.4004706488714
 30
0.0
 11
181.2425116644966
 21
0.0
 31
0.0
  0
LINE
  5
6DB9
330
6B5D
100
AcDbEntity
  8
L200_
 62
     4
100
AcDbLine
 10
173.5999118381077
 20
260.4004706488714
 30
0.0
 11
173.5999118381077
 21
256.1945258246526
 31
0.0
  0
LINE
  5
6DBA
330
6B5D
100
AcDbEntity
  8
L200_
 62
     4
100
AcDbLine
 10
160.5354207356771
 20
260.4004706488714
 30
0.0
 11
160.5354207356771
 21
256.1945258246526
 31
0.0
  0
LINE
  5
6DBB
330
6B5D
100
AcDbEntity
  8
L200_
 62
     4
100
AcDbLine
 10
156.3296481662324
 20
260.4004706488714
 30
0.0
 11
156.3296481662324
 21
256.1945258246526
 31
0.0
  0
LINE
  5
6DBC
330
6B5D
100
AcDbEntity
  8
L200_
 62
     4
100
AcDbLine
 10
147.4709296332465
 20
260.4004706488714
 30
0.0
 11
147.4709296332465
 21
256.1945258246526
 31
0.0
  0
LINE
  5
6DBD
330
6B5D
100
AcDbEntity
  8
L200_
 62
     4
100
AcDbLine
 10
137.8425767686632
 20
260.4004706488714
 30
0.0
 11
137.8425767686632
 21
256.1945258246526
 31
0.0
  0
LINE
  5
6DBE
330
6B5D
100
AcDbEntity
  8
L200_
 62
     4
100
AcDbLine
 10
130.1999769422742
 20
260.4004706488714
 30
0.0
 11
130.1999769422742
 21
256.1945258246526
 31
0.0
  0
LINE
  5
6DBF
330
6B5D
100
AcDbEntity
  8
L200_
 62
     4
100
AcDbLine
 10
117.1354858398437
 20
260.4004706488714
 30
0.0
 11
117.1354858398437
 21
0.0
 31
0.0
  0
LINE
  5
6DC0
330
6B5D
100
AcDbEntity
  8
L200_
 62
     4
100
AcDbLine
 10
112.9297132703994
 20
260.4004706488714
 30
0.0
 11
112.9297132703994
 21
0.0
 31
0.0
  0
LINE
  5
6DC1
330
6B5D
100
AcDbEntity
  8
L200_
 62
     4
100
AcDbLine
 10
104.0703057183161
 20
260.4004706488714
 30
0.0
 11
104.0703057183161
 21
0.0
 31
0.0
  0
LINE
  5
6DC2
330
6B5D
100
AcDbEntity
  8
L200_
 62
     4
100
AcDbLine
 10
94.44264187283001
 20
260.4004706488714
 30
0.0
 11
94.44264187283001
 21
0.0
 31
0.0
  0
LINE
  5
6DC3
330
6B5D
100
AcDbEntity
  8
L200_
 62
     4
100
AcDbLine
 10
86.80004204644102
 20
260.4004706488714
 30
0.0
 11
86.80004204644102
 21
0.0
 31
0.0
  0
LINE
  5
6DC4
330
6B5D
100
AcDbEntity
  8
L200_
 62
     4
100
AcDbLine
 10
73.73555094401059
 20
260.4004706488714
 30
0.0
 11
73.73555094401059
 21
0.0
 31
0.0
  0
LINE
  5
6DC5
330
6B5D
100
AcDbEntity
  8
L200_
 62
     4
100
AcDbLine
 10
69.52960611979179
 20
260.4004706488714
 30
0.0
 11
69.52960611979179
 21
0.0
 31
0.0
  0
LINE
  5
6DC6
330
6B5D
100
AcDbEntity
  8
L200_
 62
     4
100
AcDbLine
 10
60.670543077257
 20
260.4004706488714
 30
0.0
 11
60.670543077257
 21
0.0
 31
0.0
  0
LINE
  5
6DC7
330
6B5D
100
AcDbEntity
  8
L200_
 62
     4
100
AcDbLine
 10
51.04253472222229
 20
260.4004706488714
 30
0.0
 11
51.04253472222229
 21
0.0
 31
0.0
  0
LINE
  5
6DC8
330
6B5D
100
AcDbEntity
  8
L200_
 62
     4
100
AcDbLine
 10
43.39993489583347
 20
260.4004706488714
 30
0.0
 11
43.39993489583347
 21
0.0
 31
0.0
  0
LINE
  5
6DC9
330
6B5D
100
AcDbEntity
  8
L200_
 62
     4
100
AcDbLine
 10
30.3354437934029
 20
260.4004706488714
 30
0.0
 11
30.3354437934029
 21
0.0
 31
0.0
  0
LINE
  5
6DCA
330
6B5D
100
AcDbEntity
  8
L200_
 62
     4
100
AcDbLine
 10
26.1293267144097
 20
260.4004706488714
 30
0.0
 11
26.1293267144097
 21
0.0
 31
0.0
  0
LINE
  5
6DCB
330
6B5D
100
AcDbEntity
  8
L200_
 62
     4
100
AcDbLine
 10
17.27060818142371
 20
260.4004706488714
 30
0.0
 11
17.27060818142371
 21
0.0
 31
0.0
  0
LINE
  5
6DCC
330
6B5D
100
AcDbEntity
  8
L200_
 62
     4
100
AcDbLine
 10
7.642599826388987
 20
260.4004706488714
 30
0.0
 11
7.642599826388987
 21
0.0
 31
0.0
  0
LINE
  5
6DCD
330
6B5D
100
AcDbEntity
  8
L200_
 62
     7
100
AcDbLine
 10
0.0
 20
260.4004706488714
 30
0.0
 11
0.0
 21
0.0
 31
0.0
  0
ENDBLK
  5
6BE3
330
6B5D
100
AcDbEntity
  8
0
100
AcDbBlockEnd
  0
ENDSEC
  0
SECTION
  2
ENTITIES
  0
INSERT
  5
6B53
330
6AC9
100
AcDbEntity
  8
基準
  6
CONTINUOUS
 62
     7
100
AcDbBlockReference
  2
BASELINE
 10
26.90002499999996
 20
120.0
 30
0.0
  0
MTEXT
  5
6B54
330
6AC9
100
AcDbEntity
  8
7
100
AcDbMText
 10
187.4908064695664
 20
376.1945258246526
 30
0.0
 40
2.0
 41
60.6517
 71
     1
 72
     5
  1
100A\PZAE100-NF
1001
ACAD
1000
MTEXTBEGIN
1070
    73
1070
     1
1070
    44
1040
1.0
1070
    74
1070
     0
1000
MTEXTEND
1000
MTEXTBEGIN
1070
    73
1070
     1
1070
    44
1040
1.0
1070
    74
1070
     0
1000
MTEXTEND
1000
MTEXTBEGIN
1070
    73
1070
     1
1070
    44
1040
1.0
1070
    74
1070
     0
1000
MTEXTEND
1000
MTEXTBEGIN
1070
    73
1070
     1
1070
    44
1040
1.0
1070
    74
1070
     0
1000
MTEXTEND
1000
MTEXTBEGIN
1070
    73
1070
     1
1070
    44
1040
1.0
1070
    74
1070
     0
1000
MTEXTEND
1000
MTEXTBEGIN
1070
    73
1070
     1
1070
    44
1040
1.0
1070
    74
1070
     0
1000
MTEXTEND
1000
MTEXTBEGIN
1070
    73
1070
     1
1070
    44
1040
1.0
1070
    74
1070
     0
1000
MTEXTEND
1000
MTEXTBEGIN
1070
    73
1070
     1
1070
    44
1040
1.0
1070
    74
1070
     0
1000
MTEXTEND
  0
POINT
  5
6C09
330
6AC9
100
AcDbEntity
  8
0
  6
CONTINUOUS
100
AcDbPoint
 10
40.0
 20
120.0
 30
0.0
  0
POLYLINE
  5
6C58
330
6AC9
100
AcDbEntity
  8
M
  6
CONTINUOUS
 62
     7
100
AcDb2dPolyline
 66
     1
 10
0.0
 20
0.0
 30
0.0
 70
     4
  0
VERTEX
  5
6E7B
330
6C58
100
AcDbEntity
  8
M
  6
CONTINUOUS
 62
     7
100
AcDbVertex
100
AcDb2dVertex
 10
51.79295293010113
 20
380.3999999999998
 30
0.0
 70
    16
  0
VERTEX
  5
6EAA
330
6C58
100
AcDbEntity
  8
M
  6
CONTINUOUS
 62
     7
100
AcDbVertex
100
AcDb2dVertex
 10
51.79295293010113
 20
380.3999999999998
 30
0.0
 70
     8
  0
VERTEX
  5
6EAB
330
6C58
100
AcDbEntity
  8
M
  6
CONTINUOUS
 62
     7
100
AcDbVertex
100
AcDb2dVertex
 10
51.79303648223595
 20
379.8220052083332
 30
0.0
 70
     8
  0
VERTEX
  5
6EAC
330
6C58
100
AcDbEntity
  8
M
  6
CONTINUOUS
 62
     7
100
AcDbVertex
100
AcDb2dVertex
 10
51.7932065436965
 20
378.4760416666666
 30
0.0
 70
     8
  0
VERTEX
  5
6EAD
330
6C58
100
AcDbEntity
  8
M
  6
CONTINUOUS
 62
     7
100
AcDbVertex
100
AcDb2dVertex
 10
51.79344812933919
 20
376.494140625
 30
0.0
 70
     8
  0
VERTEX
  5
6EAE
330
6C58
100
AcDbEntity
  8
M
  6
CONTINUOUS
 62
     7
100
AcDbVertex
100
AcDb2dVertex
 10
51.79374625402051
 20
374.0083333333334
 30
0.0
 70
     8
  0
VERTEX
  5
6EAF
330
6C58
100
AcDbEntity
  8
M
  6
CONTINUOUS
 62
     7
100
AcDbVertex
100
AcDb2dVertex
 10
51.79408593259683
 20
371.1506510416666
 30
0.0
 70
     8
  0
VERTEX
  5
6EB0
330
6C58
100
AcDbEntity
  8
M
  6
CONTINUOUS
 62
     7
100
AcDbVertex
100
AcDb2dVertex
 10
51.79445217992464
 20
368.0531249999998
 30
0.0
 70
     8
  0
VERTEX
  5
6EB1
330
6C58
100
AcDbEntity
  8
M
  6
CONTINUOUS
 62
     7
100
AcDbVertex
100
AcDb2dVertex
 10
51.79483001086036
 20
364.8477864583333
 30
0.0
 70
     8
  0
VERTEX
  5
6EB2
330
6C58
100
AcDbEntity
  8
M
  6
CONTINUOUS
 62
     7
100
AcDbVertex
100
AcDb2dVertex
 10
51.79520444026039
 20
361.6666666666667
 30
0.0
 70
     8
  0
VERTEX
  5
6EB3
330
6C58
100
AcDbEntity
  8
M
  6
CONTINUOUS
 62
     7
100
AcDbVertex
100
AcDb2dVertex
 10
51.79583003254027
 20
358.6165364583332
 30
0.0
 70
     8
  0
VERTEX
  5
6EB4
330
6C58
100
AcDbEntity
  8
M
  6
CONTINUOUS
 62
     7
100
AcDbVertex
100
AcDb2dVertex
 10
51.7980395503516
 20
355.703125
 30
0.0
 70
     8
  0
VERTEX
  5
6EB5
330
6C58
100
AcDbEntity
  8
M
  6
CONTINUOUS
 62
     7
100
AcDbVertex
100
AcDb2dVertex
 10
51.80343530590508
 20
352.9069010416666
 30
0.0
 70
     8
  0
VERTEX
  5
6EB6
330
6C58
100
AcDbEntity
  8
M
  6
CONTINUOUS
 62
     7
100
AcDbVertex
100
AcDb2dVertex
 10
51.81361961141135
 20
350.2083333333331
 30
0.0
 70
     8
  0
VERTEX
  5
6EB7
330
6C58
100
AcDbEntity
  8
M
  6
CONTINUOUS
 62
     7
100
AcDbVertex
100
AcDb2dVertex
 10
51.83019477908112
 20
347.587890625
 30
0.0
 70
     8
  0
VERTEX
  5
6EB8
330
6C58
100
AcDbEntity
  8
M
  6
CONTINUOUS
 62
     7
100
AcDbVertex
100
AcDb2dVertex
 10
51.85476312112506
 20
345.0260416666667
 30
0.0
 70
     8
  0
VERTEX
  5
6EB9
330
6C58
100
AcDbEntity
  8
M
  6
CONTINUOUS
 62
     7
100
AcDbVertex
100
AcDb2dVertex
 10
51.88892694975383
 20
342.5032552083333
 30
0.0
 70
     8
  0
VERTEX
  5
6EBA
330
6C58
100
AcDbEntity
  8
M
  6
CONTINUOUS
 62
     7
100
AcDbVertex
100
AcDb2dVertex
 10
51.93428857717811
 20
340.0
 30
0.0
 70
     8
  0
VERTEX
  5
6EBB
330
6C58
100
AcDbEntity
  8
M
  6
CONTINUOUS
 62
     7
100
AcDbVertex
100
AcDb2dVertex
 10
51.99277424387157
 20
337.5
 30
0.0
 70
     8
  0
VERTEX
  5
6EBC
330
6C58
100
AcDbEntity
  8
M
  6
CONTINUOUS
 62
     7
100
AcDbVertex
100
AcDb2dVertex
 10
52.06760590335992
 20
335.0
 30
0.0
 70
     8
  0
VERTEX
  5
6EBD
330
6C58
100
AcDbEntity
  8
M
  6
CONTINUOUS
 62
     7
100
AcDbVertex
100
AcDb2dVertex
 10
52.16232943743174
 20
332.5
 30
0.0
 70
     8
  0
VERTEX
  5
6EBE
330
6C58
100
AcDbEntity
  8
M
  6
CONTINUOUS
 62
     7
100
AcDbVertex
100
AcDb2dVertex
 10
52.28049072787576
 20
330.0
 30
0.0
 70
     8
  0
VERTEX
  5
6EBF
330
6C58
100
AcDbEntity
  8
M
  6
CONTINUOUS
 62
     7
100
AcDbVertex
100
AcDb2dVertex
 10
52.4256356564806
 20
327.4999999999999
 30
0.0
 70
     8
  0
VERTEX
  5
6EC0
330
6C58
100
AcDbEntity
  8
M
  6
CONTINUOUS
 62
     7
100
AcDbVertex
100
AcDb2dVertex
 10
52.60131010503489
 20
325.0
 30
0.0
 70
     8
  0
VERTEX
  5
6EC1
330
6C58
100
AcDbEntity
  8
M
  6
CONTINUOUS
 62
     7
100
AcDbVertex
100
AcDb2dVertex
 10
52.81105995532739
 20
322.5
 30
0.0
 70
     8
  0
VERTEX
  5
6EC2
330
6C58
100
AcDbEntity
  8
M
  6
CONTINUOUS
 62
     7
100
AcDbVertex
100
AcDb2dVertex
 10
53.05843108914665
 20
320.0
 30
0.0
 70
     8
  0
VERTEX
  5
6EC3
330
6C58
100
AcDbEntity
  8
M
  6
CONTINUOUS
 62
     7
100
AcDbVertex
100
AcDb2dVertex
 10
53.3463548951704
 20
317.5
 30
0.0
 70
     8
  0
VERTEX
  5
6EC4
330
6C58
100
AcDbEntity
  8
M
  6
CONTINUOUS
 62
     7
100
AcDbVertex
100
AcDb2dVertex
 10
53.67530478963234
 20
315.0
 30
0.0
 70
     8
  0
VERTEX
  5
6EC5
330
6C58
100
AcDbEntity
  8
M
  6
CONTINUOUS
 62
     7
100
AcDbVertex
100
AcDb2dVertex
 10
54.04513969565522
 20
312.5
 30
0.0
 70
     8
  0
VERTEX
  5
6EC6
330
6C58
100
AcDbEntity
  8
M
  6
CONTINUOUS
 62
     7
100
AcDbVertex
100
AcDb2dVertex
 10
54.45571853636181
 20
310.0
 30
0.0
 70
     8
  0
VERTEX
  5
6EC7
330
6C58
100
AcDbEntity
  8
M
  6
CONTINUOUS
 62
     7
100
AcDbVertex
100
AcDb2dVertex
 10
54.90690023487482
 20
307.5
 30
0.0
 70
     8
  0
VERTEX
  5
6EC8
330
6C58
100
AcDbEntity
  8
M
  6
CONTINUOUS
 62
     7
100
AcDbVertex
100
AcDb2dVertex
 10
55.39854371431697
 20
305.0
 30
0.0
 70
     8
  0
VERTEX
  5
6EC9
330
6C58
100
AcDbEntity
  8
M
  6
CONTINUOUS
 62
     7
100
AcDbVertex
100
AcDb2dVertex
 10
55.93050789781107
 20
302.4999999999999
 30
0.0
 70
     8
  0
VERTEX
  5
6ECA
330
6C58
100
AcDbEntity
  8
M
  6
CONTINUOUS
 62
     7
100
AcDbVertex
100
AcDb2dVertex
 10
56.50265170847982
 20
300.0
 30
0.0
 70
     8
  0
VERTEX
  5
6ECB
330
6C58
100
AcDbEntity
  8
M
  6
CONTINUOUS
 62
     7
100
AcDbVertex
100
AcDb2dVertex
 10
57.11603164283172
 20
297.4967447916666
 30
0.0
 70
     8
  0
VERTEX
  5
6ECC
330
6C58
100
AcDbEntity
  8
M
  6
CONTINUOUS
 62
     7
100
AcDbVertex
100
AcDb2dVertex
 10
57.77649449091835
 20
294.9739583333333
 30
0.0
 70
     8
  0
VERTEX
  5
6ECD
330
6C58
100
AcDbEntity
  8
M
  6
CONTINUOUS
 62
     7
100
AcDbVertex
100
AcDb2dVertex
 10
58.49108461617703
 20
292.412109375
 30
0.0
 70
     8
  0
VERTEX
  5
6ECE
330
6C58
100
AcDbEntity
  8
M
  6
CONTINUOUS
 62
     7
100
AcDbVertex
100
AcDb2dVertex
 10
59.26684638204513
 20
289.7916666666666
 30
0.0
 70
     8
  0
VERTEX
  5
6ECF
330
6C58
100
AcDbEntity
  8
M
  6
CONTINUOUS
 62
     7
100
AcDbVertex
100
AcDb2dVertex
 10
60.11082415195993
 20
287.0930989583333
 30
0.0
 70
     8
  0
VERTEX
  5
6ED0
330
6C58
100
AcDbEntity
  8
M
  6
CONTINUOUS
 62
     7
100
AcDbVertex
100
AcDb2dVertex
 10
61.03006228935882
 20
284.296875
 30
0.0
 70
     8
  0
VERTEX
  5
6ED1
330
6C58
100
AcDbEntity
  8
M
  6
CONTINUOUS
 62
     7
100
AcDbVertex
100
AcDb2dVertex
 10
62.03160515767911
 20
281.3834635416666
 30
0.0
 70
     8
  0
VERTEX
  5
6ED2
330
6C58
100
AcDbEntity
  8
M
  6
CONTINUOUS
 62
     7
100
AcDbVertex
100
AcDb2dVertex
 10
63.12249712035811
 20
278.3333333333333
 30
0.0
 70
     8
  0
VERTEX
  5
6ED3
330
6C58
100
AcDbEntity
  8
M
  6
CONTINUOUS
 62
     7
100
AcDbVertex
100
AcDb2dVertex
 10
64.30689215806618
 20
275.1336562632896
 30
0.0
 70
     8
  0
VERTEX
  5
6ED4
330
6C58
100
AcDbEntity
  8
M
  6
CONTINUOUS
 62
     7
100
AcDbVertex
100
AcDb2dVertex
 10
65.57738272040555
 20
271.7984167729845
 30
0.0
 70
     8
  0
VERTEX
  5
6ED5
330
6C58
100
AcDbEntity
  8
M
  6
CONTINUOUS
 62
     7
100
AcDbVertex
100
AcDb2dVertex
 10
66.92367087421146
 20
268.3483024421564
 30
0.0
 70
     8
  0
VERTEX
  5
6ED6
330
6C58
100
AcDbEntity
  8
M
  6
CONTINUOUS
 62
     7
100
AcDbVertex
100
AcDb2dVertex
 10
68.33545868631924
 20
264.804000850544
 30
0.0
 70
     8
  0
VERTEX
  5
6ED7
330
6C58
100
AcDbEntity
  8
M
  6
CONTINUOUS
 62
     7
100
AcDbVertex
100
AcDb2dVertex
 10
69.80244822356404
 20
261.1861995778856
 30
0.0
 70
     8
  0
VERTEX
  5
6ED8
330
6C58
100
AcDbEntity
  8
M
  6
CONTINUOUS
 62
     7
100
AcDbVertex
100
AcDb2dVertex
 10
71.31434155278118
 20
257.5155862039196
 30
0.0
 70
     8
  0
VERTEX
  5
6ED9
330
6C58
100
AcDbEntity
  8
M
  6
CONTINUOUS
 62
     7
100
AcDbVertex
100
AcDb2dVertex
 10
72.8608407408059
 20
253.8128483083848
 30
0.0
 70
     8
  0
VERTEX
  5
6EDA
330
6C58
100
AcDbEntity
  8
M
  6
CONTINUOUS
 62
     7
100
AcDbVertex
100
AcDb2dVertex
 10
74.43164785447341
 20
250.0986734710195
 30
0.0
 70
     8
  0
VERTEX
  5
6EDB
330
6C58
100
AcDbEntity
  8
M
  6
CONTINUOUS
 62
     7
100
AcDbVertex
100
AcDb2dVertex
 10
76.01452652247793
 20
246.3971911593833
 30
0.0
 70
     8
  0
VERTEX
  5
6EDC
330
6C58
100
AcDbEntity
  8
M
  6
CONTINUOUS
 62
     7
100
AcDbVertex
100
AcDb2dVertex
 10
77.58948662094955
 20
242.746298392319
 30
0.0
 70
     8
  0
VERTEX
  5
6EDD
330
6C58
100
AcDbEntity
  8
M
  6
CONTINUOUS
 62
     7
100
AcDbVertex
100
AcDb2dVertex
 10
79.13459958787736
 20
239.1873340764905
 30
0.0
 70
     8
  0
VERTEX
  5
6EDE
330
6C58
100
AcDbEntity
  8
M
  6
CONTINUOUS
 62
     7
100
AcDbVertex
100
AcDb2dVertex
 10
80.62793686125029
 20
235.761637118562
 30
0.0
 70
     8
  0
VERTEX
  5
6EDF
330
6C58
100
AcDbEntity
  8
M
  6
CONTINUOUS
 62
     7
100
AcDbVertex
100
AcDb2dVertex
 10
82.04756987905744
 20
232.5105464251969
 30
0.0
 70
     8
  0
VERTEX
  5
6EE0
330
6C58
100
AcDbEntity
  8
M
  6
CONTINUOUS
 62
     7
100
AcDbVertex
100
AcDb2dVertex
 10
83.37157007928778
 20
229.4754009030596
 30
0.0
 70
     8
  0
VERTEX
  5
6EE1
330
6C58
100
AcDbEntity
  8
M
  6
CONTINUOUS
 62
     7
100
AcDbVertex
100
AcDb2dVertex
 10
84.57800889993043
 20
226.6975394588138
 30
0.0
 70
     8
  0
VERTEX
  5
6EE2
330
6C58
100
AcDbEntity
  8
M
  6
CONTINUOUS
 62
     7
100
AcDbVertex
100
AcDb2dVertex
 10
85.64495777897436
 20
224.2183009991232
 30
0.0
 70
     8
  0
VERTEX
  5
6EE3
330
6C58
100
AcDbEntity
  8
M
  6
CONTINUOUS
 62
     7
100
AcDbVertex
100
AcDb2dVertex
 10
86.5571563644899
 20
222.0655433867089
 30
0.0
 70
     8
  0
VERTEX
  5
6EE4
330
6C58
100
AcDbEntity
  8
M
  6
CONTINUOUS
 62
     7
100
AcDbVertex
100
AcDb2dVertex
 10
87.32601714487238
 20
220.2132003085181
 30
0.0
 70
     8
  0
VERTEX
  5
6EE5
330
6C58
100
AcDbEntity
  8
M
  6
CONTINUOUS
 62
     7
100
AcDbVertex
100
AcDb2dVertex
 10
87.96962081859851
 20
218.621724407556
 30
0.0
 70
     8
  0
VERTEX
  5
6EE6
330
6C58
100
AcDbEntity
  8
M
  6
CONTINUOUS
 62
     7
100
AcDbVertex
100
AcDb2dVertex
 10
88.50604808414486
 20
217.2515683268265
 30
0.0
 70
     8
  0
VERTEX
  5
6EE7
330
6C58
100
AcDbEntity
  8
M
  6
CONTINUOUS
 62
     7
100
AcDbVertex
100
AcDb2dVertex
 10
88.95337963998811
 20
216.0631847093342
 30
0.0
 70
     8
  0
VERTEX
  5
6EE8
330
6C58
100
AcDbEntity
  8
M
  6
CONTINUOUS
 62
     7
100
AcDbVertex
100
AcDb2dVertex
 10
89.32969618460486
 20
215.0170261980839
 30
0.0
 70
     8
  0
VERTEX
  5
6EE9
330
6C58
100
AcDbEntity
  8
M
  6
CONTINUOUS
 62
     7
100
AcDbVertex
100
AcDb2dVertex
 10
89.65307841647177
 20
214.0735454360799
 30
0.0
 70
     8
  0
VERTEX
  5
6EEA
330
6C58
100
AcDbEntity
  8
M
  6
CONTINUOUS
 62
     7
100
AcDbVertex
100
AcDb2dVertex
 10
89.94160703406548
 20
213.1931950663266
 30
0.0
 70
     8
  0
VERTEX
  5
6EEB
330
6C58
100
AcDbEntity
  8
M
  6
CONTINUOUS
 62
     7
100
AcDbVertex
100
AcDb2dVertex
 10
90.21036031020781
 20
212.3429382448561
 30
0.0
 70
     8
  0
VERTEX
  5
6EEC
330
6C58
100
AcDbEntity
  8
M
  6
CONTINUOUS
 62
     7
100
AcDbVertex
100
AcDb2dVertex
 10
90.46240681510132
 20
211.5157801798082
 30
0.0
 70
     8
  0
VERTEX
  5
6EED
330
6C58
100
AcDbEntity
  8
M
  6
CONTINUOUS
 62
     7
100
AcDbVertex
100
AcDb2dVertex
 10
90.69781269329375
 20
210.7112365923514
 30
0.0
 70
     8
  0
VERTEX
  5
6EEE
330
6C58
100
AcDbEntity
  8
M
  6
CONTINUOUS
 62
     7
100
AcDbVertex
100
AcDb2dVertex
 10
90.91664408933292
 20
209.928823203653
 30
0.0
 70
     8
  0
VERTEX
  5
6EEF
330
6C58
100
AcDbEntity
  8
M
  6
CONTINUOUS
 62
     7
100
AcDbVertex
100
AcDb2dVertex
 10
91.11896714776651
 20
209.1680557348805
 30
0.0
 70
     8
  0
VERTEX
  5
6EF0
330
6C58
100
AcDbEntity
  8
M
  6
CONTINUOUS
 62
     7
100
AcDbVertex
100
AcDb2dVertex
 10
91.3048480131423
 20
208.4284499072021
 30
0.0
 70
     8
  0
VERTEX
  5
6EF1
330
6C58
100
AcDbEntity
  8
M
  6
CONTINUOUS
 62
     7
100
AcDbVertex
100
AcDb2dVertex
 10
91.47435283000799
 20
207.709521441785
 30
0.0
 70
     8
  0
VERTEX
  5
6EF2
330
6C58
100
AcDbEntity
  8
M
  6
CONTINUOUS
 62
     7
100
AcDbVertex
100
AcDb2dVertex
 10
91.62754774291142
 20
207.0107860597973
 30
0.0
 70
     8
  0
VERTEX
  5
6EF3
330
6C58
100
AcDbEntity
  8
M
  6
CONTINUOUS
 62
     7
100
AcDbVertex
100
AcDb2dVertex
 10
91.76497984784452
 20
206.3247316777988
 30
0.0
 70
     8
  0
VERTEX
  5
6EF4
330
6C58
100
AcDbEntity
  8
M
  6
CONTINUOUS
 62
     7
100
AcDbVertex
100
AcDb2dVertex
 10
91.8891200465765
 20
205.6157349939186
 30
0.0
 70
     8
  0
VERTEX
  5
6EF5
330
6C58
100
AcDbEntity
  8
M
  6
CONTINUOUS
 62
     7
100
AcDbVertex
100
AcDb2dVertex
 10
92.00292019232069
 20
204.8411449016783
 30
0.0
 70
     8
  0
VERTEX
  5
6EF6
330
6C58
100
AcDbEntity
  8
M
  6
CONTINUOUS
 62
     7
100
AcDbVertex
100
AcDb2dVertex
 10
92.10933213829049
 20
203.9583102945992
 30
0.0
 70
     8
  0
VERTEX
  5
6EF7
330
6C58
100
AcDbEntity
  8
M
  6
CONTINUOUS
 62
     7
100
AcDbVertex
100
AcDb2dVertex
 10
92.21130773769926
 20
202.924580066203
 30
0.0
 70
     8
  0
VERTEX
  5
6EF8
330
6C58
100
AcDbEntity
  8
M
  6
CONTINUOUS
 62
     7
100
AcDbVertex
100
AcDb2dVertex
 10
92.31179884376043
 20
201.6973031100115
 30
0.0
 70
     8
  0
VERTEX
  5
6EF9
330
6C58
100
AcDbEntity
  8
M
  6
CONTINUOUS
 62
     7
100
AcDbVertex
100
AcDb2dVertex
 10
92.41375730968734
 20
200.2338283195455
 30
0.0
 70
     8
  0
VERTEX
  5
6EFA
330
6C58
100
AcDbEntity
  8
M
  6
CONTINUOUS
 62
     7
100
AcDbVertex
100
AcDb2dVertex
 10
92.52013498869343
 20
198.4915045883271
 30
0.0
 70
     8
  0
VERTEX
  5
6EFB
330
6C58
100
AcDbEntity
  8
M
  6
CONTINUOUS
 62
     7
100
AcDbVertex
100
AcDb2dVertex
 10
92.63312184574505
 20
196.4455208495406
 30
0.0
 70
     8
  0
VERTEX
  5
6EFC
330
6C58
100
AcDbEntity
  8
M
  6
CONTINUOUS
 62
     7
100
AcDbVertex
100
AcDb2dVertex
 10
92.75186029282052
 20
194.1424261950239
 30
0.0
 70
     8
  0
VERTEX
  5
6EFD
330
6C58
100
AcDbEntity
  8
M
  6
CONTINUOUS
 62
     7
100
AcDbVertex
100
AcDb2dVertex
 10
92.87473085365126
 20
191.646609756278
 30
0.0
 70
     8
  0
VERTEX
  5
6EFE
330
6C58
100
AcDbEntity
  8
M
  6
CONTINUOUS
 62
     7
100
AcDbVertex
100
AcDb2dVertex
 10
93.00011405196864
 20
189.0224606648033
 30
0.0
 70
     8
  0
VERTEX
  5
6EFF
330
6C58
100
AcDbEntity
  8
M
  6
CONTINUOUS
 62
     7
100
AcDbVertex
100
AcDb2dVertex
 10
93.12639041150395
 20
186.3343680521015
 30
0.0
 70
     8
  0
VERTEX
  5
6F00
330
6C58
100
AcDbEntity
  8
M
  6
CONTINUOUS
 62
     7
100
AcDbVertex
100
AcDb2dVertex
 10
93.25194045598861
 20
183.6467210496728
 30
0.0
 70
     8
  0
VERTEX
  5
6F01
330
6C58
100
AcDbEntity
  8
M
  6
CONTINUOUS
 62
     7
100
AcDbVertex
100
AcDb2dVertex
 10
93.37514470915396
 20
181.0239087890183
 30
0.0
 70
     8
  0
VERTEX
  5
6F02
330
6C58
100
AcDbEntity
  8
M
  6
CONTINUOUS
 62
     7
100
AcDbVertex
100
AcDb2dVertex
 10
93.49438369473141
 20
178.5303204016388
 30
0.0
 70
     8
  0
VERTEX
  5
6F03
330
6C58
100
AcDbEntity
  8
M
  6
CONTINUOUS
 62
     7
100
AcDbVertex
100
AcDb2dVertex
 10
93.60817842312178
 20
176.2198326568835
 30
0.0
 70
     8
  0
VERTEX
  5
6F04
330
6C58
100
AcDbEntity
  8
M
  6
CONTINUOUS
 62
     7
100
AcDbVertex
100
AcDb2dVertex
 10
93.7156118514043
 20
174.1042728754916
 30
0.0
 70
     8
  0
VERTEX
  5
6F05
330
6C58
100
AcDbEntity
  8
M
  6
CONTINUOUS
 62
     7
100
AcDbVertex
100
AcDb2dVertex
 10
93.81590742332772
 20
172.1849560160504
 30
0.0
 70
     8
  0
VERTEX
  5
6F06
330
6C58
100
AcDbEntity
  8
M
  6
CONTINUOUS
 62
     7
100
AcDbVertex
100
AcDb2dVertex
 10
93.90828858264072
 20
170.4631970371478
 30
0.0
 70
     8
  0
VERTEX
  5
6F07
330
6C58
100
AcDbEntity
  8
M
  6
CONTINUOUS
 62
     7
100
AcDbVertex
100
AcDb2dVertex
 10
93.99197877309203
 20
168.9403108973708
 30
0.0
 70
     8
  0
VERTEX
  5
6F08
330
6C58
100
AcDbEntity
  8
M
  6
CONTINUOUS
 62
     7
100
AcDbVertex
100
AcDb2dVertex
 10
94.0662014384304
 20
167.617612555307
 30
0.0
 70
     8
  0
VERTEX
  5
6F09
330
6C58
100
AcDbEntity
  8
M
  6
CONTINUOUS
 62
     7
100
AcDbVertex
100
AcDb2dVertex
 10
94.13018002240455
 20
166.4964169695439
 30
0.0
 70
     8
  0
VERTEX
  5
6F0A
330
6C58
100
AcDbEntity
  8
M
  6
CONTINUOUS
 62
     7
100
AcDbVertex
100
AcDb2dVertex
 10
94.18313796876317
 20
165.5780390986686
 30
0.0
 70
     8
  0
VERTEX
  5
6F0B
330
6C58
100
AcDbEntity
  8
M
  6
CONTINUOUS
 62
     7
100
AcDbVertex
100
AcDb2dVertex
 10
94.22488036947404
 20
164.8563080895276
 30
0.0
 70
     8
  0
VERTEX
  5
6F0C
330
6C58
100
AcDbEntity
  8
M
  6
CONTINUOUS
 62
     7
100
AcDbVertex
100
AcDb2dVertex
 10
94.25753890938098
 20
164.2951098420001
 30
0.0
 70
     8
  0
VERTEX
  5
6F0D
330
6C58
100
AcDbEntity
  8
M
  6
CONTINUOUS
 62
     7
100
AcDbVertex
100
AcDb2dVertex
 10
94.2838269215469
 20
163.8508444442244
 30
0.0
 70
     8
  0
VERTEX
  5
6F0E
330
6C58
100
AcDbEntity
  8
M
  6
CONTINUOUS
 62
     7
100
AcDbVertex
100
AcDb2dVertex
 10
94.3064577390346
 20
163.4799119843384
 30
0.0
 70
     8
  0
VERTEX
  5
6F0F
330
6C58
100
AcDbEntity
  8
M
  6
CONTINUOUS
 62
     7
100
AcDbVertex
100
AcDb2dVertex
 10
94.32814469490699
 20
163.1387125504809
 30
0.0
 70
     8
  0
VERTEX
  5
6F10
330
6C58
100
AcDbEntity
  8
M
  6
CONTINUOUS
 62
     7
100
AcDbVertex
100
AcDb2dVertex
 10
94.35160112222693
 20
162.7836462307895
 30
0.0
 70
     8
  0
VERTEX
  5
6F11
330
6C58
100
AcDbEntity
  8
M
  6
CONTINUOUS
 62
     7
100
AcDbVertex
100
AcDb2dVertex
 10
94.37954035405722
 20
162.3711131134023
 30
0.0
 70
     8
  0
VERTEX
  5
6F12
330
6C58
100
AcDbEntity
  8
M
  6
CONTINUOUS
 62
     7
100
AcDbVertex
100
AcDb2dVertex
 10
94.41467572346079
 20
161.8575132864578
 30
0.0
 70
     8
  0
VERTEX
  5
6F13
330
6C58
100
AcDbEntity
  8
M
  6
CONTINUOUS
 62
     7
100
AcDbVertex
100
AcDb2dVertex
 10
94.45885544671355
 20
161.2125412659635
 30
0.0
 70
     8
  0
VERTEX
  5
6F14
330
6C58
100
AcDbEntity
  8
M
  6
CONTINUOUS
 62
     7
100
AcDbVertex
100
AcDb2dVertex
 10
94.5104672729434
 20
160.4590692794048
 30
0.0
 70
     8
  0
VERTEX
  5
6F15
330
6C58
100
AcDbEntity
  8
M
  6
CONTINUOUS
 62
     7
100
AcDbVertex
100
AcDb2dVertex
 10
94.56703383449127
 20
159.6332639821365
 30
0.0
 70
     8
  0
VERTEX
  5
6F16
330
6C58
100
AcDbEntity
  8
M
  6
CONTINUOUS
 62
     7
100
AcDbVertex
100
AcDb2dVertex
 10
94.6260777636982
 20
158.7712920295133
 30
0.0
 70
     8
  0
VERTEX
  5
6F17
330
6C58
100
AcDbEntity
  8
M
  6
CONTINUOUS
 62
     7
100
AcDbVertex
100
AcDb2dVertex
 10
94.68512169290512
 20
157.90932007689
 30
0.0
 70
     8
  0
VERTEX
  5
6F18
330
6C58
100
AcDbEntity
  8
M
  6
CONTINUOUS
 62
     7
100
AcDbVertex
100
AcDb2dVertex
 10
94.74168825445302
 20
157.0835147796215
 30
0.0
 70
     8
  0
VERTEX
  5
6F19
330
6C58
100
AcDbEntity
  8
M
  6
CONTINUOUS
 62
     7
100
AcDbVertex
100
AcDb2dVertex
 10
94.79330008068286
 20
156.3300427930628
 30
0.0
 70
     8
  0
VERTEX
  5
6F1A
330
6C58
100
AcDbEntity
  8
M
  6
CONTINUOUS
 62
     7
100
AcDbVertex
100
AcDb2dVertex
 10
94.83747980393557
 20
155.6850707725684
 30
0.0
 70
     8
  0
VERTEX
  5
6F1B
330
6C58
100
AcDbEntity
  8
M
  6
CONTINUOUS
 62
     7
100
AcDbVertex
100
AcDb2dVertex
 10
94.87236939846694
 20
155.1757237096549
 30
0.0
 70
     8
  0
VERTEX
  5
6F1C
330
6C58
100
AcDbEntity
  8
M
  6
CONTINUOUS
 62
     7
100
AcDbVertex
100
AcDb2dVertex
 10
94.89858820619172
 20
154.792959940483
 30
0.0
 70
     8
  0
VERTEX
  5
6F1D
330
6C58
100
AcDbEntity
  8
M
  6
CONTINUOUS
 62
     7
100
AcDbVertex
100
AcDb2dVertex
 10
94.91737491093934
 20
154.5186961373756
 30
0.0
 70
     8
  0
VERTEX
  5
6F1E
330
6C58
100
AcDbEntity
  8
M
  6
CONTINUOUS
 62
     7
100
AcDbVertex
100
AcDb2dVertex
 10
94.92996819653944
 20
154.3348489726553
 30
0.0
 70
     8
  0
VERTEX
  5
6F1F
330
6C58
100
AcDbEntity
  8
M
  6
CONTINUOUS
 62
     7
100
AcDbVertex
100
AcDb2dVertex
 10
94.93760674682146
 20
154.2233351186446
 30
0.0
 70
     8
  0
VERTEX
  5
6F20
330
6C58
100
AcDbEntity
  8
M
  6
CONTINUOUS
 62
     7
100
AcDbVertex
100
AcDb2dVertex
 10
94.94152924561493
 20
154.1660712476659
 30
0.0
 70
     8
  0
VERTEX
  5
6F21
330
6C58
100
AcDbEntity
  8
M
  6
CONTINUOUS
 62
     7
100
AcDbVertex
100
AcDb2dVertex
 10
94.94297437674935
 20
154.1449740320425
 30
0.0
 70
     8
  0
VERTEX
  5
6F22
330
6C58
100
AcDbEntity
  8
M
  6
CONTINUOUS
 62
     7
100
AcDbVertex
100
AcDb2dVertex
 10
94.94318082405428
 20
154.1419601440963
 30
0.0
 70
     8
  0
VERTEX
  5
6F23
330
6C58
100
AcDbEntity
  8
M
  6
CONTINUOUS
 62
     7
100
AcDbVertex
100
AcDb2dVertex
 10
94.94318082405428
 20
154.1419601440963
 30
0.0
 70
     8
  0
VERTEX
  5
6F24
330
6C58
100
AcDbEntity
  8
M
  6
CONTINUOUS
 62
     7
100
AcDbVertex
100
AcDb2dVertex
 10
94.94318082405428
 20
154.1419601440963
 30
0.0
 70
     8
  0
VERTEX
  5
6F25
330
6C58
100
AcDbEntity
  8
M
  6
CONTINUOUS
 62
     7
100
AcDbVertex
100
AcDb2dVertex
 10
94.94318082405428
 20
154.1419601440963
 30
0.0
 70
     8
  0
VERTEX
  5
6F26
330
6C58
100
AcDbEntity
  8
M
  6
CONTINUOUS
 62
     7
100
AcDbVertex
100
AcDb2dVertex
 10
94.94318082405428
 20
154.1419601440963
 30
0.0
 70
     8
  0
VERTEX
  5
6F27
330
6C58
100
AcDbEntity
  8
M
  6
CONTINUOUS
 62
     7
100
AcDbVertex
100
AcDb2dVertex
 10
94.94318082405428
 20
154.1419601440963
 30
0.0
 70
     8
  0
VERTEX
  5
6F28
330
6C58
100
AcDbEntity
  8
M
  6
CONTINUOUS
 62
     7
100
AcDbVertex
100
AcDb2dVertex
 10
94.94318082405428
 20
154.1419601440963
 30
0.0
 70
     8
  0
VERTEX
  5
6F29
330
6C58
100
AcDbEntity
  8
M
  6
CONTINUOUS
 62
     7
100
AcDbVertex
100
AcDb2dVertex
 10
94.94318082405428
 20
154.1419601440963
 30
0.0
 70
     8
  0
VERTEX
  5
6F2A
330
6C58
100
AcDbEntity
  8
M
  6
CONTINUOUS
 62
     7
100
AcDbVertex
100
AcDb2dVertex
 10
94.94318082405428
 20
154.1419601440963
 30
0.0
 70
     8
  0
VERTEX
  5
6F2B
330
6C58
100
AcDbEntity
  8
M
  6
CONTINUOUS
 62
     7
100
AcDbVertex
100
AcDb2dVertex
 10
94.94318082405428
 20
154.1419601440963
 30
0.0
 70
     8
  0
VERTEX
  5
6F2C
330
6C58
100
AcDbEntity
  8
M
  6
CONTINUOUS
 62
     7
100
AcDbVertex
100
AcDb2dVertex
 10
94.94318082405428
 20
154.1419601440963
 30
0.0
 70
     8
  0
VERTEX
  5
6F2D
330
6C58
100
AcDbEntity
  8
M
  6
CONTINUOUS
 62
     7
100
AcDbVertex
100
AcDb2dVertex
 10
94.94318082405428
 20
154.1419601440963
 30
0.0
 70
     8
  0
VERTEX
  5
6F2E
330
6C58
100
AcDbEntity
  8
M
  6
CONTINUOUS
 62
     7
100
AcDbVertex
100
AcDb2dVertex
 10
94.94318082405428
 20
154.1419601440963
 30
0.0
 70
     8
  0
VERTEX
  5
6F2F
330
6C58
100
AcDbEntity
  8
M
  6
CONTINUOUS
 62
     7
100
AcDbVertex
100
AcDb2dVertex
 10
94.94318082405428
 20
154.1419601440963
 30
0.0
 70
     8
  0
VERTEX
  5
6F30
330
6C58
100
AcDbEntity
  8
M
  6
CONTINUOUS
 62
     7
100
AcDbVertex
100
AcDb2dVertex
 10
94.94318082405428
 20
154.1419601440963
 30
0.0
 70
     8
  0
VERTEX
  5
6F31
330
6C58
100
AcDbEntity
  8
M
  6
CONTINUOUS
 62
     7
100
AcDbVertex
100
AcDb2dVertex
 10
94.94318082405428
 20
154.1419601440963
 30
0.0
 70
     8
  0
VERTEX
  5
6F32
330
6C58
100
AcDbEntity
  8
M
  6
CONTINUOUS
 62
     7
100
AcDbVertex
100
AcDb2dVertex
 10
94.94318082405428
 20
154.1419601440963
 30
0.0
 70
     8
  0
VERTEX
  5
6F33
330
6C58
100
AcDbEntity
  8
M
  6
CONTINUOUS
 62
     7
100
AcDbVertex
100
AcDb2dVertex
 10
94.94318082405428
 20
154.1419601440963
 30
0.0
 70
     8
  0
VERTEX
  5
6F34
330
6C58
100
AcDbEntity
  8
M
  6
CONTINUOUS
 62
     7
100
AcDbVertex
100
AcDb2dVertex
 10
94.94318082405428
 20
154.1419601440963
 30
0.0
 70
     8
  0
VERTEX
  5
6F35
330
6C58
100
AcDbEntity
  8
M
  6
CONTINUOUS
 62
     7
100
AcDbVertex
100
AcDb2dVertex
 10
94.94318082405428
 20
154.1419601440963
 30
0.0
 70
     8
  0
VERTEX
  5
6F36
330
6C58
100
AcDbEntity
  8
M
  6
CONTINUOUS
 62
     7
100
AcDbVertex
100
AcDb2dVertex
 10
94.94318082405428
 20
154.1419601440963
 30
0.0
 70
     8
  0
VERTEX
  5
6F37
330
6C58
100
AcDbEntity
  8
M
  6
CONTINUOUS
 62
     7
100
AcDbVertex
100
AcDb2dVertex
 10
94.94318082405428
 20
154.1419601440963
 30
0.0
 70
     8
  0
VERTEX
  5
6F38
330
6C58
100
AcDbEntity
  8
M
  6
CONTINUOUS
 62
     7
100
AcDbVertex
100
AcDb2dVertex
 10
94.94318082405428
 20
154.1419601440963
 30
0.0
 70
     8
  0
VERTEX
  5
6F39
330
6C58
100
AcDbEntity
  8
M
  6
CONTINUOUS
 62
     7
100
AcDbVertex
100
AcDb2dVertex
 10
94.94318082405428
 20
154.1419601440963
 30
0.0
 70
     8
  0
VERTEX
  5
6F3A
330
6C58
100
AcDbEntity
  8
M
  6
CONTINUOUS
 62
     7
100
AcDbVertex
100
AcDb2dVertex
 10
94.94318082405428
 20
154.1419601440963
 30
0.0
 70
     8
  0
VERTEX
  5
6F3B
330
6C58
100
AcDbEntity
  8
M
  6
CONTINUOUS
 62
     7
100
AcDbVertex
100
AcDb2dVertex
 10
94.94318082405428
 20
154.1419601440963
 30
0.0
 70
     8
  0
VERTEX
  5
6F3C
330
6C58
100
AcDbEntity
  8
M
  6
CONTINUOUS
 62
     7
100
AcDbVertex
100
AcDb2dVertex
 10
94.94318082405428
 20
154.1419601440963
 30
0.0
 70
     8
  0
VERTEX
  5
6F3D
330
6C58
100
AcDbEntity
  8
M
  6
CONTINUOUS
 62
     7
100
AcDbVertex
100
AcDb2dVertex
 10
94.94318082405428
 20
154.1419601440963
 30
0.0
 70
     8
  0
VERTEX
  5
6F3E
330
6C58
100
AcDbEntity
  8
M
  6
CONTINUOUS
 62
     7
100
AcDbVertex
100
AcDb2dVertex
 10
94.94318082405428
 20
154.1419601440963
 30
0.0
 70
     8
  0
VERTEX
  5
6F3F
330
6C58
100
AcDbEntity
  8
M
  6
CONTINUOUS
 62
     7
100
AcDbVertex
100
AcDb2dVertex
 10
94.94318082405428
 20
154.1419601440963
 30
0.0
 70
     8
  0
VERTEX
  5
6F40
330
6C58
100
AcDbEntity
  8
M
  6
CONTINUOUS
 62
     7
100
AcDbVertex
100
AcDb2dVertex
 10
94.94318082405428
 20
154.1419601440963
 30
0.0
 70
     8
  0
VERTEX
  5
6F41
330
6C58
100
AcDbEntity
  8
M
  6
CONTINUOUS
 62
     7
100
AcDbVertex
100
AcDb2dVertex
 10
94.94318082405428
 20
154.1419601440963
 30
0.0
 70
     8
  0
VERTEX
  5
6F42
330
6C58
100
AcDbEntity
  8
M
  6
CONTINUOUS
 62
     7
100
AcDbVertex
100
AcDb2dVertex
 10
94.94318082405428
 20
154.1419601440963
 30
0.0
 70
     8
  0
VERTEX
  5
6F43
330
6C58
100
AcDbEntity
  8
M
  6
CONTINUOUS
 62
     7
100
AcDbVertex
100
AcDb2dVertex
 10
94.94382183635002
 20
154.1398069043534
 30
0.0
 70
     8
  0
VERTEX
  5
6F44
330
6C58
100
AcDbEntity
  8
M
  6
CONTINUOUS
 62
     7
100
AcDbVertex
100
AcDb2dVertex
 10
94.9483089224201
 20
154.1247342261542
 30
0.0
 70
     8
  0
VERTEX
  5
6F45
330
6C58
100
AcDbEntity
  8
M
  6
CONTINUOUS
 62
     7
100
AcDbVertex
100
AcDb2dVertex
 10
94.96048815603892
 20
154.0838226710416
 30
0.0
 70
     8
  0
VERTEX
  5
6F46
330
6C58
100
AcDbEntity
  8
M
  6
CONTINUOUS
 62
     7
100
AcDbVertex
100
AcDb2dVertex
 10
94.98420561098077
 20
154.0041528005595
 30
0.0
 70
     8
  0
VERTEX
  5
6F47
330
6C58
100
AcDbEntity
  8
M
  6
CONTINUOUS
 62
     7
100
AcDbVertex
100
AcDb2dVertex
 10
95.02330736102008
 20
153.8728051762509
 30
0.0
 70
     8
  0
VERTEX
  5
6F48
330
6C58
100
AcDbEntity
  8
M
  6
CONTINUOUS
 62
     7
100
AcDbVertex
100
AcDb2dVertex
 10
95.08163947993114
 20
153.6768603596595
 30
0.0
 70
     8
  0
VERTEX
  5
6F49
330
6C58
100
AcDbEntity
  8
M
  6
CONTINUOUS
 62
     7
100
AcDbVertex
100
AcDb2dVertex
 10
95.16304804148836
 20
153.4033989123285
 30
0.0
 70
     8
  0
VERTEX
  5
6F4A
330
6C58
100
AcDbEntity
  8
M
  6
CONTINUOUS
 62
     7
100
AcDbVertex
100
AcDb2dVertex
 10
95.27137911946606
 20
153.0395013958016
 30
0.0
 70
     8
  0
VERTEX
  5
6F4B
330
6C58
100
AcDbEntity
  8
M
  6
CONTINUOUS
 62
     7
100
AcDbVertex
100
AcDb2dVertex
 10
95.40855575075143
 20
152.5787080908503
 30
0.0
 70
     8
  0
VERTEX
  5
6F4C
330
6C58
100
AcDbEntity
  8
M
  6
CONTINUOUS
 62
     7
100
AcDbVertex
100
AcDb2dVertex
 10
95.56880882468297
 20
152.0403981551595
 30
0.0
 70
     8
  0
VERTEX
  5
6F4D
330
6C58
100
AcDbEntity
  8
M
  6
CONTINUOUS
 62
     7
100
AcDbVertex
100
AcDb2dVertex
 10
95.74444619371192
 20
151.4504104656425
 30
0.0
 70
     8
  0
VERTEX
  5
6F4E
330
6C58
100
AcDbEntity
  8
M
  6
CONTINUOUS
 62
     7
100
AcDbVertex
100
AcDb2dVertex
 10
95.92777571028959
 20
150.8345838992123
 30
0.0
 70
     8
  0
VERTEX
  5
6F4F
330
6C58
100
AcDbEntity
  8
M
  6
CONTINUOUS
 62
     7
100
AcDbVertex
100
AcDb2dVertex
 10
96.11110522686729
 20
150.218757332782
 30
0.0
 70
     8
  0
VERTEX
  5
6F50
330
6C58
100
AcDbEntity
  8
M
  6
CONTINUOUS
 62
     7
100
AcDbVertex
100
AcDb2dVertex
 10
96.28674259589622
 20
149.628769643265
 30
0.0
 70
     8
  0
VERTEX
  5
6F51
330
6C58
100
AcDbEntity
  8
M
  6
CONTINUOUS
 62
     7
100
AcDbVertex
100
AcDb2dVertex
 10
96.44699566982779
 20
149.0904597075742
 30
0.0
 70
     8
  0
VERTEX
  5
6F52
330
6C58
100
AcDbEntity
  8
M
  6
CONTINUOUS
 62
     7
100
AcDbVertex
100
AcDb2dVertex
 10
96.58417230111314
 20
148.6296664026229
 30
0.0
 70
     8
  0
VERTEX
  5
6F53
330
6C58
100
AcDbEntity
  8
M
  6
CONTINUOUS
 62
     7
100
AcDbVertex
100
AcDb2dVertex
 10
96.69250337909089
 20
148.2657688860959
 30
0.0
 70
     8
  0
VERTEX
  5
6F54
330
6C58
100
AcDbEntity
  8
M
  6
CONTINUOUS
 62
     7
100
AcDbVertex
100
AcDb2dVertex
 10
96.7739119406481
 20
147.9923074387651
 30
0.0
 70
     8
  0
VERTEX
  5
6F55
330
6C58
100
AcDbEntity
  8
M
  6
CONTINUOUS
 62
     7
100
AcDbVertex
100
AcDb2dVertex
 10
96.83224405955918
 20
147.7963626221736
 30
0.0
 70
     8
  0
VERTEX
  5
6F56
330
6C58
100
AcDbEntity
  8
M
  6
CONTINUOUS
 62
     7
100
AcDbVertex
100
AcDb2dVertex
 10
96.87134580959845
 20
147.665014997865
 30
0.0
 70
     8
  0
VERTEX
  5
6F57
330
6C58
100
AcDbEntity
  8
M
  6
CONTINUOUS
 62
     7
100
AcDbVertex
100
AcDb2dVertex
 10
96.89506326454031
 20
147.5853451273829
 30
0.0
 70
     8
  0
VERTEX
  5
6F58
330
6C58
100
AcDbEntity
  8
M
  6
CONTINUOUS
 62
     7
100
AcDbVertex
100
AcDb2dVertex
 10
96.90724249815913
 20
147.5444335722704
 30
0.0
 70
     8
  0
VERTEX
  5
6F59
330
6C58
100
AcDbEntity
  8
M
  6
CONTINUOUS
 62
     7
100
AcDbVertex
100
AcDb2dVertex
 10
96.91172958422921
 20
147.529360894071
 30
0.0
 70
     8
  0
VERTEX
  5
6F5A
330
6C58
100
AcDbEntity
  8
M
  6
CONTINUOUS
 62
     7
100
AcDbVertex
100
AcDb2dVertex
 10
96.91237059652493
 20
147.5272076543283
 30
0.0
 70
     8
  0
VERTEX
  5
6F5B
330
6C58
100
AcDbEntity
  8
M
  6
CONTINUOUS
 62
     7
100
AcDbVertex
100
AcDb2dVertex
 10
96.91237059652493
 20
147.5272076543283
 30
0.0
 70
     8
  0
VERTEX
  5
6F5C
330
6C58
100
AcDbEntity
  8
M
  6
CONTINUOUS
 62
     7
100
AcDbVertex
100
AcDb2dVertex
 10
96.91237059652493
 20
147.5272076543283
 30
0.0
 70
     8
  0
VERTEX
  5
6F5D
330
6C58
100
AcDbEntity
  8
M
  6
CONTINUOUS
 62
     7
100
AcDbVertex
100
AcDb2dVertex
 10
96.91237059652493
 20
147.5272076543283
 30
0.0
 70
     8
  0
VERTEX
  5
6F5E
330
6C58
100
AcDbEntity
  8
M
  6
CONTINUOUS
 62
     7
100
AcDbVertex
100
AcDb2dVertex
 10
96.91237059652493
 20
147.5272076543283
 30
0.0
 70
     8
  0
VERTEX
  5
6F5F
330
6C58
100
AcDbEntity
  8
M
  6
CONTINUOUS
 62
     7
100
AcDbVertex
100
AcDb2dVertex
 10
96.91237059652493
 20
147.5272076543283
 30
0.0
 70
     8
  0
VERTEX
  5
6F60
330
6C58
100
AcDbEntity
  8
M
  6
CONTINUOUS
 62
     7
100
AcDbVertex
100
AcDb2dVertex
 10
96.91237059652493
 20
147.5272076543283
 30
0.0
 70
     8
  0
VERTEX
  5
6F61
330
6C58
100
AcDbEntity
  8
M
  6
CONTINUOUS
 62
     7
100
AcDbVertex
100
AcDb2dVertex
 10
96.91237059652493
 20
147.5272076543283
 30
0.0
 70
     8
  0
VERTEX
  5
6F62
330
6C58
100
AcDbEntity
  8
M
  6
CONTINUOUS
 62
     7
100
AcDbVertex
100
AcDb2dVertex
 10
96.91237059652493
 20
147.5272076543283
 30
0.0
 70
     8
  0
VERTEX
  5
6F63
330
6C58
100
AcDbEntity
  8
M
  6
CONTINUOUS
 62
     7
100
AcDbVertex
100
AcDb2dVertex
 10
96.91237059652493
 20
147.5272076543283
 30
0.0
 70
     8
  0
VERTEX
  5
6F64
330
6C58
100
AcDbEntity
  8
M
  6
CONTINUOUS
 62
     7
100
AcDbVertex
100
AcDb2dVertex
 10
96.91237059652493
 20
147.5272076543283
 30
0.0
 70
     8
  0
VERTEX
  5
6F65
330
6C58
100
AcDbEntity
  8
M
  6
CONTINUOUS
 62
     7
100
AcDbVertex
100
AcDb2dVertex
 10
96.91237059652493
 20
147.5272076543283
 30
0.0
 70
     8
  0
VERTEX
  5
6F66
330
6C58
100
AcDbEntity
  8
M
  6
CONTINUOUS
 62
     7
100
AcDbVertex
100
AcDb2dVertex
 10
96.91237059652493
 20
147.5272076543283
 30
0.0
 70
     8
  0
VERTEX
  5
6F67
330
6C58
100
AcDbEntity
  8
M
  6
CONTINUOUS
 62
     7
100
AcDbVertex
100
AcDb2dVertex
 10
96.91237059652493
 20
147.5272076543283
 30
0.0
 70
     8
  0
VERTEX
  5
6F68
330
6C58
100
AcDbEntity
  8
M
  6
CONTINUOUS
 62
     7
100
AcDbVertex
100
AcDb2dVertex
 10
96.91237059652493
 20
147.5272076543283
 30
0.0
 70
     8
  0
VERTEX
  5
6F69
330
6C58
100
AcDbEntity
  8
M
  6
CONTINUOUS
 62
     7
100
AcDbVertex
100
AcDb2dVertex
 10
96.91237059652493
 20
147.5272076543283
 30
0.0
 70
     8
  0
VERTEX
  5
6F6A
330
6C58
100
AcDbEntity
  8
M
  6
CONTINUOUS
 62
     7
100
AcDbVertex
100
AcDb2dVertex
 10
96.91237059652493
 20
147.5272076543283
 30
0.0
 70
     8
  0
VERTEX
  5
6F6B
330
6C58
100
AcDbEntity
  8
M
  6
CONTINUOUS
 62
     7
100
AcDbVertex
100
AcDb2dVertex
 10
96.91237059652493
 20
147.5272076543283
 30
0.0
 70
     8
  0
VERTEX
  5
6F6C
330
6C58
100
AcDbEntity
  8
M
  6
CONTINUOUS
 62
     7
100
AcDbVertex
100
AcDb2dVertex
 10
96.91237059652493
 20
147.5272076543283
 30
0.0
 70
     8
  0
VERTEX
  5
6F6D
330
6C58
100
AcDbEntity
  8
M
  6
CONTINUOUS
 62
     7
100
AcDbVertex
100
AcDb2dVertex
 10
96.91237059652493
 20
147.5272076543283
 30
0.0
 70
     8
  0
VERTEX
  5
6F6E
330
6C58
100
AcDbEntity
  8
M
  6
CONTINUOUS
 62
     7
100
AcDbVertex
100
AcDb2dVertex
 10
96.91237059652493
 20
147.5272076543283
 30
0.0
 70
     8
  0
VERTEX
  5
6F6F
330
6C58
100
AcDbEntity
  8
M
  6
CONTINUOUS
 62
     7
100
AcDbVertex
100
AcDb2dVertex
 10
96.91237059652493
 20
147.5272076543283
 30
0.0
 70
     8
  0
VERTEX
  5
6F70
330
6C58
100
AcDbEntity
  8
M
  6
CONTINUOUS
 62
     7
100
AcDbVertex
100
AcDb2dVertex
 10
96.91237059652493
 20
147.5272076543283
 30
0.0
 70
     8
  0
VERTEX
  5
6F71
330
6C58
100
AcDbEntity
  8
M
  6
CONTINUOUS
 62
     7
100
AcDbVertex
100
AcDb2dVertex
 10
96.91237059652493
 20
147.5272076543283
 30
0.0
 70
     8
  0
VERTEX
  5
6F72
330
6C58
100
AcDbEntity
  8
M
  6
CONTINUOUS
 62
     7
100
AcDbVertex
100
AcDb2dVertex
 10
96.91237059652493
 20
147.5272076543283
 30
0.0
 70
     8
  0
VERTEX
  5
6F73
330
6C58
100
AcDbEntity
  8
M
  6
CONTINUOUS
 62
     7
100
AcDbVertex
100
AcDb2dVertex
 10
96.91237059652493
 20
147.5272076543283
 30
0.0
 70
     8
  0
VERTEX
  5
6F74
330
6C58
100
AcDbEntity
  8
M
  6
CONTINUOUS
 62
     7
100
AcDbVertex
100
AcDb2dVertex
 10
96.91237059652493
 20
147.5272076543283
 30
0.0
 70
     8
  0
VERTEX
  5
6F75
330
6C58
100
AcDbEntity
  8
M
  6
CONTINUOUS
 62
     7
100
AcDbVertex
100
AcDb2dVertex
 10
96.91237059652493
 20
147.5272076543283
 30
0.0
 70
     8
  0
VERTEX
  5
6F76
330
6C58
100
AcDbEntity
  8
M
  6
CONTINUOUS
 62
     7
100
AcDbVertex
100
AcDb2dVertex
 10
96.91237059652493
 20
147.5272076543283
 30
0.0
 70
     8
  0
VERTEX
  5
6F77
330
6C58
100
AcDbEntity
  8
M
  6
CONTINUOUS
 62
     7
100
AcDbVertex
100
AcDb2dVertex
 10
96.91237059652493
 20
147.5272076543283
 30
0.0
 70
     8
  0
VERTEX
  5
6F78
330
6C58
100
AcDbEntity
  8
M
  6
CONTINUOUS
 62
     7
100
AcDbVertex
100
AcDb2dVertex
 10
96.91237059652493
 20
147.5272076543283
 30
0.0
 70
     8
  0
VERTEX
  5
6F79
330
6C58
100
AcDbEntity
  8
M
  6
CONTINUOUS
 62
     7
100
AcDbVertex
100
AcDb2dVertex
 10
96.91237059652493
 20
147.5272076543283
 30
0.0
 70
     8
  0
VERTEX
  5
6F7A
330
6C58
100
AcDbEntity
  8
M
  6
CONTINUOUS
 62
     7
100
AcDbVertex
100
AcDb2dVertex
 10
96.91237059652493
 20
147.5272076543283
 30
0.0
 70
     8
  0
VERTEX
  5
6F7B
330
6C58
100
AcDbEntity
  8
M
  6
CONTINUOUS
 62
     7
100
AcDbVertex
100
AcDb2dVertex
 10
96.91353607374987
 20
147.5254617843719
 30
0.0
 70
     8
  0
VERTEX
  5
6F7C
330
6C58
100
AcDbEntity
  8
M
  6
CONTINUOUS
 62
     7
100
AcDbVertex
100
AcDb2dVertex
 10
96.92169441432442
 20
147.5132406946773
 30
0.0
 70
     8
  0
VERTEX
  5
6F7D
330
6C58
100
AcDbEntity
  8
M
  6
CONTINUOUS
 62
     7
100
AcDbVertex
100
AcDb2dVertex
 10
96.94383848159828
 20
147.4800691655061
 30
0.0
 70
     8
  0
VERTEX
  5
6F7E
330
6C58
100
AcDbEntity
  8
M
  6
CONTINUOUS
 62
     7
100
AcDbVertex
100
AcDb2dVertex
 10
96.98696113892099
 20
147.4154719771201
 30
0.0
 70
     8
  0
VERTEX
  5
6F7F
330
6C58
100
AcDbEntity
  8
M
  6
CONTINUOUS
 62
     7
100
AcDbVertex
100
AcDb2dVertex
 10
97.05805524964222
 20
147.308973909781
 30
0.0
 70
     8
  0
VERTEX
  5
6F80
330
6C58
100
AcDbEntity
  8
M
  6
CONTINUOUS
 62
     7
100
AcDbVertex
100
AcDb2dVertex
 10
97.1641136771116
 20
147.1500997437509
 30
0.0
 70
     8
  0
VERTEX
  5
6F81
330
6C58
100
AcDbEntity
  8
M
  6
CONTINUOUS
 62
     7
100
AcDbVertex
100
AcDb2dVertex
 10
97.31212928467881
 20
146.9283742592911
 30
0.0
 70
     8
  0
VERTEX
  5
6F82
330
6C58
100
AcDbEntity
  8
M
  6
CONTINUOUS
 62
     7
100
AcDbVertex
100
AcDb2dVertex
 10
97.50909493569338
 20
146.6333222366634
 30
0.0
 70
     8
  0
VERTEX
  5
6F83
330
6C58
100
AcDbEntity
  8
M
  6
CONTINUOUS
 62
     7
100
AcDbVertex
100
AcDb2dVertex
 10
97.75850706183016
 20
146.2597060659989
 30
0.0
 70
     8
  0
VERTEX
  5
6F84
330
6C58
100
AcDbEntity
  8
M
  6
CONTINUOUS
 62
     7
100
AcDbVertex
100
AcDb2dVertex
 10
98.0498763680648
 20
145.8232385769051
 30
0.0
 70
     8
  0
VERTEX
  5
6F85
330
6C58
100
AcDbEntity
  8
M
  6
CONTINUOUS
 62
     7
100
AcDbVertex
100
AcDb2dVertex
 10
98.36921712769786
 20
145.344870208858
 30
0.0
 70
     8
  0
VERTEX
  5
6F86
330
6C58
100
AcDbEntity
  8
M
  6
CONTINUOUS
 62
     7
100
AcDbVertex
100
AcDb2dVertex
 10
98.70254361403029
 20
144.8455514013344
 30
0.0
 70
     8
  0
VERTEX
  5
6F87
330
6C58
100
AcDbEntity
  8
M
  6
CONTINUOUS
 62
     7
100
AcDbVertex
100
AcDb2dVertex
 10
99.03587010036259
 20
144.3462325938108
 30
0.0
 70
     8
  0
VERTEX
  5
6F88
330
6C58
100
AcDbEntity
  8
M
  6
CONTINUOUS
 62
     7
100
AcDbVertex
100
AcDb2dVertex
 10
99.35521085999576
 20
143.8678642257635
 30
0.0
 70
     8
  0
VERTEX
  5
6F89
330
6C58
100
AcDbEntity
  8
M
  6
CONTINUOUS
 62
     7
100
AcDbVertex
100
AcDb2dVertex
 10
99.64658016623033
 20
143.4313967366696
 30
0.0
 70
     8
  0
VERTEX
  5
6F8A
330
6C58
100
AcDbEntity
  8
M
  6
CONTINUOUS
 62
     7
100
AcDbVertex
100
AcDb2dVertex
 10
99.89599229236716
 20
143.0577805660051
 30
0.0
 70
     8
  0
VERTEX
  5
6F8B
330
6C58
100
AcDbEntity
  8
M
  6
CONTINUOUS
 62
     7
100
AcDbVertex
100
AcDb2dVertex
 10
100.0929579433817
 20
142.7627285433775
 30
0.0
 70
     8
  0
VERTEX
  5
6F8C
330
6C58
100
AcDbEntity
  8
M
  6
CONTINUOUS
 62
     7
100
AcDbVertex
100
AcDb2dVertex
 10
100.2409735509486
 20
142.5410030589176
 30
0.0
 70
     8
  0
VERTEX
  5
6F8D
330
6C58
100
AcDbEntity
  8
M
  6
CONTINUOUS
 62
     7
100
AcDbVertex
100
AcDb2dVertex
 10
100.3470319784182
 20
142.3821288928875
 30
0.0
 70
     8
  0
VERTEX
  5
6F8E
330
6C58
100
AcDbEntity
  8
M
  6
CONTINUOUS
 62
     7
100
AcDbVertex
100
AcDb2dVertex
 10
100.4181260891395
 20
142.2756308255486
 30
0.0
 70
     8
  0
VERTEX
  5
6F8F
330
6C58
100
AcDbEntity
  8
M
  6
CONTINUOUS
 62
     7
100
AcDbVertex
100
AcDb2dVertex
 10
100.4612487464622
 20
142.2110336371625
 30
0.0
 70
     8
  0
VERTEX
  5
6F90
330
6C58
100
AcDbEntity
  8
M
  6
CONTINUOUS
 62
     7
100
AcDbVertex
100
AcDb2dVertex
 10
100.4833928137359
 20
142.1778621079915
 30
0.0
 70
     8
  0
VERTEX
  5
6F91
330
6C58
100
AcDbEntity
  8
M
  6
CONTINUOUS
 62
     7
100
AcDbVertex
100
AcDb2dVertex
 10
100.4915511543104
 20
142.1656410182968
 30
0.0
 70
     8
  0
VERTEX
  5
6F92
330
6C58
100
AcDbEntity
  8
M
  6
CONTINUOUS
 62
     7
100
AcDbVertex
100
AcDb2dVertex
 10
100.4927166315354
 20
142.1638951483406
 30
0.0
 70
     8
  0
VERTEX
  5
6F93
330
6C58
100
AcDbEntity
  8
M
  6
CONTINUOUS
 62
     7
100
AcDbVertex
100
AcDb2dVertex
 10
100.4927166315354
 20
142.1638951483406
 30
0.0
 70
     8
  0
VERTEX
  5
6F94
330
6C58
100
AcDbEntity
  8
M
  6
CONTINUOUS
 62
     7
100
AcDbVertex
100
AcDb2dVertex
 10
100.4927166315354
 20
142.1638951483406
 30
0.0
 70
     8
  0
VERTEX
  5
6F95
330
6C58
100
AcDbEntity
  8
M
  6
CONTINUOUS
 62
     7
100
AcDbVertex
100
AcDb2dVertex
 10
100.4927166315354
 20
142.1638951483406
 30
0.0
 70
     8
  0
VERTEX
  5
6F96
330
6C58
100
AcDbEntity
  8
M
  6
CONTINUOUS
 62
     7
100
AcDbVertex
100
AcDb2dVertex
 10
100.4927166315354
 20
142.1638951483406
 30
0.0
 70
     8
  0
VERTEX
  5
6F97
330
6C58
100
AcDbEntity
  8
M
  6
CONTINUOUS
 62
     7
100
AcDbVertex
100
AcDb2dVertex
 10
100.4927166315354
 20
142.1638951483406
 30
0.0
 70
     8
  0
VERTEX
  5
6F98
330
6C58
100
AcDbEntity
  8
M
  6
CONTINUOUS
 62
     7
100
AcDbVertex
100
AcDb2dVertex
 10
100.4927166315354
 20
142.1638951483406
 30
0.0
 70
     8
  0
VERTEX
  5
6F99
330
6C58
100
AcDbEntity
  8
M
  6
CONTINUOUS
 62
     7
100
AcDbVertex
100
AcDb2dVertex
 10
100.4927166315354
 20
142.1638951483406
 30
0.0
 70
     8
  0
VERTEX
  5
6F9A
330
6C58
100
AcDbEntity
  8
M
  6
CONTINUOUS
 62
     7
100
AcDbVertex
100
AcDb2dVertex
 10
100.4927166315354
 20
142.1638951483406
 30
0.0
 70
     8
  0
VERTEX
  5
6F9B
330
6C58
100
AcDbEntity
  8
M
  6
CONTINUOUS
 62
     7
100
AcDbVertex
100
AcDb2dVertex
 10
100.4927166315354
 20
142.1638951483406
 30
0.0
 70
     8
  0
VERTEX
  5
6F9C
330
6C58
100
AcDbEntity
  8
M
  6
CONTINUOUS
 62
     7
100
AcDbVertex
100
AcDb2dVertex
 10
100.4927166315354
 20
142.1638951483406
 30
0.0
 70
     8
  0
VERTEX
  5
6F9D
330
6C58
100
AcDbEntity
  8
M
  6
CONTINUOUS
 62
     7
100
AcDbVertex
100
AcDb2dVertex
 10
100.4927166315354
 20
142.1638951483406
 30
0.0
 70
     8
  0
VERTEX
  5
6F9E
330
6C58
100
AcDbEntity
  8
M
  6
CONTINUOUS
 62
     7
100
AcDbVertex
100
AcDb2dVertex
 10
100.4927166315354
 20
142.1638951483406
 30
0.0
 70
     8
  0
VERTEX
  5
6F9F
330
6C58
100
AcDbEntity
  8
M
  6
CONTINUOUS
 62
     7
100
AcDbVertex
100
AcDb2dVertex
 10
100.4927166315354
 20
142.1638951483406
 30
0.0
 70
     8
  0
VERTEX
  5
6FA0
330
6C58
100
AcDbEntity
  8
M
  6
CONTINUOUS
 62
     7
100
AcDbVertex
100
AcDb2dVertex
 10
100.4927166315354
 20
142.1638951483406
 30
0.0
 70
     8
  0
VERTEX
  5
6FA1
330
6C58
100
AcDbEntity
  8
M
  6
CONTINUOUS
 62
     7
100
AcDbVertex
100
AcDb2dVertex
 10
100.4927166315354
 20
142.1638951483406
 30
0.0
 70
     8
  0
VERTEX
  5
6FA2
330
6C58
100
AcDbEntity
  8
M
  6
CONTINUOUS
 62
     7
100
AcDbVertex
100
AcDb2dVertex
 10
100.4927166315354
 20
142.1638951483406
 30
0.0
 70
     8
  0
VERTEX
  5
6FA3
330
6C58
100
AcDbEntity
  8
M
  6
CONTINUOUS
 62
     7
100
AcDbVertex
100
AcDb2dVertex
 10
100.4927166315354
 20
142.1638951483406
 30
0.0
 70
     8
  0
VERTEX
  5
6FA4
330
6C58
100
AcDbEntity
  8
M
  6
CONTINUOUS
 62
     7
100
AcDbVertex
100
AcDb2dVertex
 10
100.4927166315354
 20
142.1638951483406
 30
0.0
 70
     8
  0
VERTEX
  5
6FA5
330
6C58
100
AcDbEntity
  8
M
  6
CONTINUOUS
 62
     7
100
AcDbVertex
100
AcDb2dVertex
 10
100.4927166315354
 20
142.1638951483406
 30
0.0
 70
     8
  0
VERTEX
  5
6FA6
330
6C58
100
AcDbEntity
  8
M
  6
CONTINUOUS
 62
     7
100
AcDbVertex
100
AcDb2dVertex
 10
100.4927166315354
 20
142.1638951483406
 30
0.0
 70
     8
  0
VERTEX
  5
6FA7
330
6C58
100
AcDbEntity
  8
M
  6
CONTINUOUS
 62
     7
100
AcDbVertex
100
AcDb2dVertex
 10
100.4927166315354
 20
142.1638951483406
 30
0.0
 70
     8
  0
VERTEX
  5
6FA8
330
6C58
100
AcDbEntity
  8
M
  6
CONTINUOUS
 62
     7
100
AcDbVertex
100
AcDb2dVertex
 10
100.4927166315354
 20
142.1638951483406
 30
0.0
 70
     8
  0
VERTEX
  5
6FA9
330
6C58
100
AcDbEntity
  8
M
  6
CONTINUOUS
 62
     7
100
AcDbVertex
100
AcDb2dVertex
 10
100.4927166315354
 20
142.1638951483406
 30
0.0
 70
     8
  0
VERTEX
  5
6FAA
330
6C58
100
AcDbEntity
  8
M
  6
CONTINUOUS
 62
     7
100
AcDbVertex
100
AcDb2dVertex
 10
100.4927166315354
 20
142.1638951483406
 30
0.0
 70
     8
  0
VERTEX
  5
6FAB
330
6C58
100
AcDbEntity
  8
M
  6
CONTINUOUS
 62
     7
100
AcDbVertex
100
AcDb2dVertex
 10
100.4927166315354
 20
142.1638951483406
 30
0.0
 70
     8
  0
VERTEX
  5
6FAC
330
6C58
100
AcDbEntity
  8
M
  6
CONTINUOUS
 62
     7
100
AcDbVertex
100
AcDb2dVertex
 10
100.4927166315354
 20
142.1638951483406
 30
0.0
 70
     8
  0
VERTEX
  5
6FAD
330
6C58
100
AcDbEntity
  8
M
  6
CONTINUOUS
 62
     7
100
AcDbVertex
100
AcDb2dVertex
 10
100.4927166315354
 20
142.1638951483406
 30
0.0
 70
     8
  0
VERTEX
  5
6FAE
330
6C58
100
AcDbEntity
  8
M
  6
CONTINUOUS
 62
     7
100
AcDbVertex
100
AcDb2dVertex
 10
100.4927166315354
 20
142.1638951483406
 30
0.0
 70
     8
  0
VERTEX
  5
6FAF
330
6C58
100
AcDbEntity
  8
M
  6
CONTINUOUS
 62
     7
100
AcDbVertex
100
AcDb2dVertex
 10
100.4927166315354
 20
142.1638951483406
 30
0.0
 70
     8
  0
VERTEX
  5
6FB0
330
6C58
100
AcDbEntity
  8
M
  6
CONTINUOUS
 62
     7
100
AcDbVertex
100
AcDb2dVertex
 10
100.4927166315354
 20
142.1638951483406
 30
0.0
 70
     8
  0
VERTEX
  5
6FB1
330
6C58
100
AcDbEntity
  8
M
  6
CONTINUOUS
 62
     7
100
AcDbVertex
100
AcDb2dVertex
 10
100.4927166315354
 20
142.1638951483406
 30
0.0
 70
     8
  0
VERTEX
  5
6FB2
330
6C58
100
AcDbEntity
  8
M
  6
CONTINUOUS
 62
     7
100
AcDbVertex
100
AcDb2dVertex
 10
100.4927166315354
 20
142.1638951483406
 30
0.0
 70
     8
  0
VERTEX
  5
6FB3
330
6C58
100
AcDbEntity
  8
M
  6
CONTINUOUS
 62
     7
100
AcDbVertex
100
AcDb2dVertex
 10
100.4940569300645
 20
142.1629640177405
 30
0.0
 70
     8
  0
VERTEX
  5
6FB4
330
6C58
100
AcDbEntity
  8
M
  6
CONTINUOUS
 62
     7
100
AcDbVertex
100
AcDb2dVertex
 10
100.5034390197673
 20
142.1564461035397
 30
0.0
 70
     8
  0
VERTEX
  5
6FB5
330
6C58
100
AcDbEntity
  8
M
  6
CONTINUOUS
 62
     7
100
AcDbVertex
100
AcDb2dVertex
 10
100.528904691818
 20
142.1387546221378
 30
0.0
 70
     8
  0
VERTEX
  5
6FB6
330
6C58
100
AcDbEntity
  8
M
  6
CONTINUOUS
 62
     7
100
AcDbVertex
100
AcDb2dVertex
 10
100.5784957373901
 20
142.1043027899341
 30
0.0
 70
     8
  0
VERTEX
  5
6FB7
330
6C58
100
AcDbEntity
  8
M
  6
CONTINUOUS
 62
     7
100
AcDbVertex
100
AcDb2dVertex
 10
100.6602539476581
 20
142.0475038233279
 30
0.0
 70
     8
  0
VERTEX
  5
6FB8
330
6C58
100
AcDbEntity
  8
M
  6
CONTINUOUS
 62
     7
100
AcDbVertex
100
AcDb2dVertex
 10
100.7822211137953
 20
141.9627709387185
 30
0.0
 70
     8
  0
VERTEX
  5
6FB9
330
6C58
100
AcDbEntity
  8
M
  6
CONTINUOUS
 62
     7
100
AcDbVertex
100
AcDb2dVertex
 10
100.9524390269759
 20
141.8445173525059
 30
0.0
 70
     8
  0
VERTEX
  5
6FBA
330
6C58
100
AcDbEntity
  8
M
  6
CONTINUOUS
 62
     7
100
AcDbVertex
100
AcDb2dVertex
 10
101.1789494783735
 20
141.6871562810888
 30
0.0
 70
     8
  0
VERTEX
  5
6FBB
330
6C58
100
AcDbEntity
  8
M
  6
CONTINUOUS
 62
     7
100
AcDbVertex
100
AcDb2dVertex
 10
101.4667640189876
 20
141.4871377889328
 30
0.0
 70
     8
  0
VERTEX
  5
6FBC
330
6C58
100
AcDbEntity
  8
M
  6
CONTINUOUS
 62
     7
100
AcDbVertex
100
AcDb2dVertex
 10
101.8087732391194
 20
141.2490593327669
 30
0.0
 70
     8
  0
VERTEX
  5
6FBD
330
6C58
100
AcDbEntity
  8
M
  6
CONTINUOUS
 62
     7
100
AcDbVertex
100
AcDb2dVertex
 10
102.1948374888947
 20
140.9795552173864
 30
0.0
 70
     8
  0
VERTEX
  5
6FBE
330
6C58
100
AcDbEntity
  8
M
  6
CONTINUOUS
 62
     7
100
AcDbVertex
100
AcDb2dVertex
 10
102.6148171184402
 20
140.6852597475862
 30
0.0
 70
     8
  0
VERTEX
  5
6FBF
330
6C58
100
AcDbEntity
  8
M
  6
CONTINUOUS
 62
     7
100
AcDbVertex
100
AcDb2dVertex
 10
103.0585724778823
 20
140.3728072281612
 30
0.0
 70
     8
  0
VERTEX
  5
6FC0
330
6C58
100
AcDbEntity
  8
M
  6
CONTINUOUS
 62
     7
100
AcDbVertex
100
AcDb2dVertex
 10
103.5159639173469
 20
140.0488319639066
 30
0.0
 70
     8
  0
VERTEX
  5
6FC1
330
6C58
100
AcDbEntity
  8
M
  6
CONTINUOUS
 62
     7
100
AcDbVertex
100
AcDb2dVertex
 10
103.976851786961
 20
139.7199682596171
 30
0.0
 70
     8
  0
VERTEX
  5
6FC2
330
6C58
100
AcDbEntity
  8
M
  6
CONTINUOUS
 62
     7
100
AcDbVertex
100
AcDb2dVertex
 10
104.4310964368504
 20
139.3928504200882
 30
0.0
 70
     8
  0
VERTEX
  5
6FC3
330
6C58
100
AcDbEntity
  8
M
  6
CONTINUOUS
 62
     7
100
AcDbVertex
100
AcDb2dVertex
 10
104.869723694367
 20
139.0735307938959
 30
0.0
 70
     8
  0
VERTEX
  5
6FC4
330
6C58
100
AcDbEntity
  8
M
  6
CONTINUOUS
 62
     7
100
AcDbVertex
100
AcDb2dVertex
 10
105.2884212957613
 20
138.7657339047391
 30
0.0
 70
     8
  0
VERTEX
  5
6FC5
330
6C58
100
AcDbEntity
  8
M
  6
CONTINUOUS
 62
     7
100
AcDbVertex
100
AcDb2dVertex
 10
105.6840424545094
 20
138.4726023200983
 30
0.0
 70
     8
  0
VERTEX
  5
6FC6
330
6C58
100
AcDbEntity
  8
M
  6
CONTINUOUS
 62
     7
100
AcDbVertex
100
AcDb2dVertex
 10
106.0534403840873
 20
138.1972786074537
 30
0.0
 70
     8
  0
VERTEX
  5
6FC7
330
6C58
100
AcDbEntity
  8
M
  6
CONTINUOUS
 62
     7
100
AcDbVertex
100
AcDb2dVertex
 10
106.393468297971
 20
137.9429053342855
 30
0.0
 70
     8
  0
VERTEX
  5
6FC8
330
6C58
100
AcDbEntity
  8
M
  6
CONTINUOUS
 62
     7
100
AcDbVertex
100
AcDb2dVertex
 10
106.7009794096365
 20
137.7126250680744
 30
0.0
 70
     8
  0
VERTEX
  5
6FC9
330
6C58
100
AcDbEntity
  8
M
  6
CONTINUOUS
 62
     7
100
AcDbVertex
100
AcDb2dVertex
 10
106.97282693256
 20
137.5095803762999
 30
0.0
 70
     8
  0
VERTEX
  5
6FCA
330
6C58
100
AcDbEntity
  8
M
  6
CONTINUOUS
 62
     7
100
AcDbVertex
100
AcDb2dVertex
 10
107.2058640802173
 20
137.3369138264432
 30
0.0
 70
     8
  0
VERTEX
  5
6FCB
330
6C58
100
AcDbEntity
  8
M
  6
CONTINUOUS
 62
     7
100
AcDbVertex
100
AcDb2dVertex
 10
107.399508115267
 20
137.1960221155944
 30
0.0
 70
     8
  0
VERTEX
  5
6FCC
330
6C58
100
AcDbEntity
  8
M
  6
CONTINUOUS
 62
     7
100
AcDbVertex
100
AcDb2dVertex
 10
107.5634324971
 20
137.0813184592874
 30
0.0
 70
     8
  0
VERTEX
  5
6FCD
330
6C58
100
AcDbEntity
  8
M
  6
CONTINUOUS
 62
     7
100
AcDbVertex
100
AcDb2dVertex
 10
107.7098747342897
 20
136.985470202666
 30
0.0
 70
     8
  0
VERTEX
  5
6FCE
330
6C58
100
AcDbEntity
  8
M
  6
CONTINUOUS
 62
     7
100
AcDbVertex
100
AcDb2dVertex
 10
107.8510723354094
 20
136.9011446908741
 30
0.0
 70
     8
  0
VERTEX
  5
6FCF
330
6C58
100
AcDbEntity
  8
M
  6
CONTINUOUS
 62
     7
100
AcDbVertex
100
AcDb2dVertex
 10
107.9992628090324
 20
136.821009269056
 30
0.0
 70
     8
  0
VERTEX
  5
6FD0
330
6C58
100
AcDbEntity
  8
M
  6
CONTINUOUS
 62
     7
100
AcDbVertex
100
AcDb2dVertex
 10
108.1666836637322
 20
136.7377312823554
 30
0.0
 70
     8
  0
VERTEX
  5
6FD1
330
6C58
100
AcDbEntity
  8
M
  6
CONTINUOUS
 62
     7
100
AcDbVertex
100
AcDb2dVertex
 10
108.3655724080823
 20
136.6439780759168
 30
0.0
 70
     8
  0
VERTEX
  5
6FD2
330
6C58
100
AcDbEntity
  8
M
  6
CONTINUOUS
 62
     7
100
AcDbVertex
100
AcDb2dVertex
 10
108.6081665506559
 20
136.5324169948838
 30
0.0
 70
     8
  0
VERTEX
  5
6FD3
330
6C58
100
AcDbEntity
  8
M
  6
CONTINUOUS
 62
     7
100
AcDbVertex
100
AcDb2dVertex
 10
108.903113529458
 20
136.3977877528947
 30
0.0
 70
     8
  0
VERTEX
  5
6FD4
330
6C58
100
AcDbEntity
  8
M
  6
CONTINUOUS
 62
     7
100
AcDbVertex
100
AcDb2dVertex
 10
109.2447005002195
 20
136.2431195375635
 30
0.0
 70
     8
  0
VERTEX
  5
6FD5
330
6C58
100
AcDbEntity
  8
M
  6
CONTINUOUS
 62
     7
100
AcDbVertex
100
AcDb2dVertex
 10
109.6236245481019
 20
136.0735139049983
 30
0.0
 70
     8
  0
VERTEX
  5
6FD6
330
6C58
100
AcDbEntity
  8
M
  6
CONTINUOUS
 62
     7
100
AcDbVertex
100
AcDb2dVertex
 10
110.0305827582682
 20
135.8940724113072
 30
0.0
 70
     8
  0
VERTEX
  5
6FD7
330
6C58
100
AcDbEntity
  8
M
  6
CONTINUOUS
 62
     7
100
AcDbVertex
100
AcDb2dVertex
 10
110.4562722158799
 20
135.7098966125984
 30
0.0
 70
     8
  0
VERTEX
  5
6FD8
330
6C58
100
AcDbEntity
  8
M
  6
CONTINUOUS
 62
     7
100
AcDbVertex
100
AcDb2dVertex
 10
110.891390006099
 20
135.5260880649799
 30
0.0
 70
     8
  0
VERTEX
  5
6FD9
330
6C58
100
AcDbEntity
  8
M
  6
CONTINUOUS
 62
     7
100
AcDbVertex
100
AcDb2dVertex
 10
111.3266332140882
 20
135.3477483245596
 30
0.0
 70
     8
  0
VERTEX
  5
6FDA
330
6C58
100
AcDbEntity
  8
M
  6
CONTINUOUS
 62
     7
100
AcDbVertex
100
AcDb2dVertex
 10
111.7526989250096
 20
135.1799789474459
 30
0.0
 70
     8
  0
VERTEX
  5
6FDB
330
6C58
100
AcDbEntity
  8
M
  6
CONTINUOUS
 62
     7
100
AcDbVertex
100
AcDb2dVertex
 10
112.163365291346
 20
135.0267025112628
 30
0.0
 70
     8
  0
VERTEX
  5
6FDC
330
6C58
100
AcDbEntity
  8
M
  6
CONTINUOUS
 62
     7
100
AcDbVertex
100
AcDb2dVertex
 10
112.5647347348669
 20
134.887125679699
 30
0.0
 70
     8
  0
VERTEX
  5
6FDD
330
6C58
100
AcDbEntity
  8
M
  6
CONTINUOUS
 62
     7
100
AcDbVertex
100
AcDb2dVertex
 10
112.9659907446619
 20
134.7592761379592
 30
0.0
 70
     8
  0
VERTEX
  5
6FDE
330
6C58
100
AcDbEntity
  8
M
  6
CONTINUOUS
 62
     7
100
AcDbVertex
100
AcDb2dVertex
 10
113.3763168098212
 20
134.6411815712477
 30
0.0
 70
     8
  0
VERTEX
  5
6FDF
330
6C58
100
AcDbEntity
  8
M
  6
CONTINUOUS
 62
     7
100
AcDbVertex
100
AcDb2dVertex
 10
113.804896419435
 20
134.5308696647699
 30
0.0
 70
     8
  0
VERTEX
  5
6FE0
330
6C58
100
AcDbEntity
  8
M
  6
CONTINUOUS
 62
     7
100
AcDbVertex
100
AcDb2dVertex
 10
114.2609130625934
 20
134.42636810373
 30
0.0
 70
     8
  0
VERTEX
  5
6FE1
330
6C58
100
AcDbEntity
  8
M
  6
CONTINUOUS
 62
     7
100
AcDbVertex
100
AcDb2dVertex
 10
114.7535502283864
 20
134.3257045733327
 30
0.0
 70
     8
  0
VERTEX
  5
6FE2
330
6C58
100
AcDbEntity
  8
M
  6
CONTINUOUS
 62
     7
100
AcDbVertex
100
AcDb2dVertex
 10
115.291991405904
 20
134.2269067587827
 30
0.0
 70
     8
  0
VERTEX
  5
6FE3
330
6C58
100
AcDbEntity
  8
M
  6
CONTINUOUS
 62
     7
100
AcDbVertex
100
AcDb2dVertex
 10
115.8807013403355
 20
134.1285909643709
 30
0.0
 70
     8
  0
VERTEX
  5
6FE4
330
6C58
100
AcDbEntity
  8
M
  6
CONTINUOUS
 62
     7
100
AcDbVertex
100
AcDb2dVertex
 10
116.5052698012664
 20
134.0317279707344
 30
0.0
 70
     8
  0
VERTEX
  5
6FE5
330
6C58
100
AcDbEntity
  8
M
  6
CONTINUOUS
 62
     7
100
AcDbVertex
100
AcDb2dVertex
 10
117.1465678143813
 20
133.9378771775955
 30
0.0
 70
     8
  0
VERTEX
  5
6FE6
330
6C58
100
AcDbEntity
  8
M
  6
CONTINUOUS
 62
     7
100
AcDbVertex
100
AcDb2dVertex
 10
117.7854664053644
 20
133.8485979846774
 30
0.0
 70
     8
  0
VERTEX
  5
6FE7
330
6C58
100
AcDbEntity
  8
M
  6
CONTINUOUS
 62
     7
100
AcDbVertex
100
AcDb2dVertex
 10
118.402836599901
 20
133.7654497917032
 30
0.0
 70
     8
  0
VERTEX
  5
6FE8
330
6C58
100
AcDbEntity
  8
M
  6
CONTINUOUS
 62
     7
100
AcDbVertex
100
AcDb2dVertex
 10
118.9795494236749
 20
133.6899919983955
 30
0.0
 70
     8
  0
VERTEX
  5
6FE9
330
6C58
100
AcDbEntity
  8
M
  6
CONTINUOUS
 62
     7
100
AcDbVertex
100
AcDb2dVertex
 10
119.4964759023712
 20
133.6237840044774
 30
0.0
 70
     8
  0
VERTEX
  5
6FEA
330
6C58
100
AcDbEntity
  8
M
  6
CONTINUOUS
 62
     7
100
AcDbVertex
100
AcDb2dVertex
 10
119.9344870616742
 20
133.5683852096717
 30
0.0
 70
     8
  0
VERTEX
  5
6FEB
330
6C58
100
AcDbEntity
  8
M
  6
CONTINUOUS
 62
     7
100
AcDbVertex
100
AcDb2dVertex
 10
120.2816197639192
 20
133.5247730148902
 30
0.0
 70
     8
  0
VERTEX
  5
6FEC
330
6C58
100
AcDbEntity
  8
M
  6
CONTINUOUS
 62
     7
100
AcDbVertex
100
AcDb2dVertex
 10
120.5545742180432
 20
133.4915968257992
 30
0.0
 70
     8
  0
VERTEX
  5
6FED
330
6C58
100
AcDbEntity
  8
M
  6
CONTINUOUS
 62
     7
100
AcDbVertex
100
AcDb2dVertex
 10
120.7772164696347
 20
133.4669240492533
 30
0.0
 70
     8
  0
VERTEX
  5
6FEE
330
6C58
100
AcDbEntity
  8
M
  6
CONTINUOUS
 62
     7
100
AcDbVertex
100
AcDb2dVertex
 10
120.9734125642811
 20
133.4488220921081
 30
0.0
 70
     8
  0
VERTEX
  5
6FEF
330
6C58
100
AcDbEntity
  8
M
  6
CONTINUOUS
 62
     7
100
AcDbVertex
100
AcDb2dVertex
 10
121.1670285475703
 20
133.4353583612186
 30
0.0
 70
     8
  0
VERTEX
  5
6FF0
330
6C58
100
AcDbEntity
  8
M
  6
CONTINUOUS
 62
     7
100
AcDbVertex
100
AcDb2dVertex
 10
121.3819304650906
 20
133.4246002634392
 30
0.0
 70
     8
  0
VERTEX
  5
6FF1
330
6C58
100
AcDbEntity
  8
M
  6
CONTINUOUS
 62
     7
100
AcDbVertex
100
AcDb2dVertex
 10
121.6419843624297
 20
133.4146152056254
 30
0.0
 70
     8
  0
VERTEX
  5
6FF2
330
6C58
100
AcDbEntity
  8
M
  6
CONTINUOUS
 62
     7
100
AcDbVertex
100
AcDb2dVertex
 10
121.9710562851755
 20
133.4034705946319
 30
0.0
 70
     8
  0
VERTEX
  5
6FF3
330
6C58
100
AcDbEntity
  8
M
  6
CONTINUOUS
 62
     7
100
AcDbVertex
100
AcDb2dVertex
 10
122.387837836684
 20
133.3895682931195
 30
0.0
 70
     8
  0
VERTEX
  5
6FF4
330
6C58
100
AcDbEntity
  8
M
  6
CONTINUOUS
 62
     7
100
AcDbVertex
100
AcDb2dVertex
 10
122.8903228513853
 20
133.3726479869689
 30
0.0
 70
     8
  0
VERTEX
  5
6FF5
330
6C58
100
AcDbEntity
  8
M
  6
CONTINUOUS
 62
     7
100
AcDbVertex
100
AcDb2dVertex
 10
123.471330721477
 20
133.352783817867
 30
0.0
 70
     8
  0
VERTEX
  5
6FF6
330
6C58
100
AcDbEntity
  8
M
  6
CONTINUOUS
 62
     7
100
AcDbVertex
100
AcDb2dVertex
 10
124.1236808391574
 20
133.3300499275007
 30
0.0
 70
     8
  0
VERTEX
  5
6FF7
330
6C58
100
AcDbEntity
  8
M
  6
CONTINUOUS
 62
     7
100
AcDbVertex
100
AcDb2dVertex
 10
124.840192596624
 20
133.3045204575562
 30
0.0
 70
     8
  0
VERTEX
  5
6FF8
330
6C58
100
AcDbEntity
  8
M
  6
CONTINUOUS
 62
     7
100
AcDbVertex
100
AcDb2dVertex
 10
125.6136853860753
 20
133.2762695497204
 30
0.0
 70
     8
  0
VERTEX
  5
6FF9
330
6C58
100
AcDbEntity
  8
M
  6
CONTINUOUS
 62
     7
100
AcDbVertex
100
AcDb2dVertex
 10
126.4369785997089
 20
133.2453713456797
 30
0.0
 70
     8
  0
VERTEX
  5
6FFA
330
6C58
100
AcDbEntity
  8
M
  6
CONTINUOUS
 62
     7
100
AcDbVertex
100
AcDb2dVertex
 10
127.3028916297229
 20
133.2118999871209
 30
0.0
 70
     8
  0
VERTEX
  5
6FFB
330
6C58
100
AcDbEntity
  8
M
  6
CONTINUOUS
 62
     7
100
AcDbVertex
100
AcDb2dVertex
 10
128.2054355942464
 20
133.1763194740152
 30
0.0
 70
     8
  0
VERTEX
  5
6FFC
330
6C58
100
AcDbEntity
  8
M
  6
CONTINUOUS
 62
     7
100
AcDbVertex
100
AcDb2dVertex
 10
129.1433885151324
 20
133.1406532394709
 30
0.0
 70
     8
  0
VERTEX
  5
6FFD
330
6C58
100
AcDbEntity
  8
M
  6
CONTINUOUS
 62
     7
100
AcDbVertex
100
AcDb2dVertex
 10
130.116720140166
 20
133.1073145748809
 30
0.0
 70
     8
  0
VERTEX
  5
6FFE
330
6C58
100
AcDbEntity
  8
M
  6
CONTINUOUS
 62
     7
100
AcDbVertex
100
AcDb2dVertex
 10
131.1254002171315
 20
133.0787167716382
 30
0.0
 70
     8
  0
VERTEX
  5
6FFF
330
6C58
100
AcDbEntity
  8
M
  6
CONTINUOUS
 62
     7
100
AcDbVertex
100
AcDb2dVertex
 10
132.1693984938131
 20
133.0572731211357
 30
0.0
 70
     8
  0
VERTEX
  5
7000
330
6C58
100
AcDbEntity
  8
M
  6
CONTINUOUS
 62
     7
100
AcDbVertex
100
AcDb2dVertex
 10
133.2486847179953
 20
133.0453969147668
 30
0.0
 70
     8
  0
VERTEX
  5
7001
330
6C58
100
AcDbEntity
  8
M
  6
CONTINUOUS
 62
     7
100
AcDbVertex
100
AcDb2dVertex
 10
134.3632286374625
 20
133.0455014439237
 30
0.0
 70
     8
  0
VERTEX
  5
7002
330
6C58
100
AcDbEntity
  8
M
  6
CONTINUOUS
 62
     7
100
AcDbVertex
100
AcDb2dVertex
 10
135.5129999999995
 20
133.0599999999999
 30
0.0
 70
     8
  0
VERTEX
  5
6E7C
330
6C58
100
AcDbEntity
  8
M
  6
CONTINUOUS
 62
     7
100
AcDbVertex
100
AcDb2dVertex
 10
51.79304706989874
 20
380.0
 30
0.0
 70
    16
  0
VERTEX
  5
6E7D
330
6C58
100
AcDbEntity
  8
M
  6
CONTINUOUS
 62
     7
100
AcDbVertex
100
AcDb2dVertex
 10
51.79540056483872
 20
360.0
 30
0.0
 70
    16
  0
VERTEX
  5
6E7E
330
6C58
100
AcDbEntity
  8
M
  6
CONTINUOUS
 62
     7
100
AcDbVertex
100
AcDb2dVertex
 10
51.79775405977872
 20
340.0
 30
0.0
 70
    16
  0
VERTEX
  5
6E7F
330
6C58
100
AcDbEntity
  8
M
  6
CONTINUOUS
 62
     7
100
AcDbVertex
100
AcDb2dVertex
 10
52.61931465911507
 20
320.0
 30
0.0
 70
    16
  0
VERTEX
  5
6E80
330
6C58
100
AcDbEntity
  8
M
  6
CONTINUOUS
 62
     7
100
AcDbVertex
100
AcDb2dVertex
 10
56.07557383864094
 20
300.0
 30
0.0
 70
    16
  0
VERTEX
  5
6E81
330
6C58
100
AcDbEntity
  8
M
  6
CONTINUOUS
 62
     7
100
AcDbVertex
100
AcDb2dVertex
 10
62.0943002372001
 20
280.0
 30
0.0
 70
    16
  0
VERTEX
  5
6E82
330
6C58
100
AcDbEntity
  8
M
  6
CONTINUOUS
 62
     7
100
AcDbVertex
100
AcDb2dVertex
 10
74.28220793470737
 20
250.0
 30
0.0
 70
    16
  0
VERTEX
  5
6E83
330
6C58
100
AcDbEntity
  8
M
  6
CONTINUOUS
 62
     7
100
AcDbVertex
100
AcDb2dVertex
 10
87.36675515081083
 20
220.5920408261174
 30
0.0
 70
    16
  0
VERTEX
  5
6E84
330
6C58
100
AcDbEntity
  8
M
  6
CONTINUOUS
 62
     7
100
AcDbVertex
100
AcDb2dVertex
 10
90.12051813589549
 20
212.9416426902697
 30
0.0
 70
    16
  0
VERTEX
  5
6E85
330
6C58
100
AcDbEntity
  8
M
  6
CONTINUOUS
 62
     7
100
AcDbVertex
100
AcDb2dVertex
 10
91.80081450999997
 20
206.8005588107638
 30
0.0
 70
    16
  0
VERTEX
  5
6E86
330
6C58
100
AcDbEntity
  8
M
  6
CONTINUOUS
 62
     7
100
AcDbVertex
100
AcDb2dVertex
 10
92.44151028157309
 20
201.9208384254596
 30
0.0
 70
    16
  0
VERTEX
  5
6E87
330
6C58
100
AcDbEntity
  8
M
  6
CONTINUOUS
 62
     7
100
AcDbVertex
100
AcDb2dVertex
 10
93.55395429586828
 20
176.4651150173611
 30
0.0
 70
    16
  0
VERTEX
  5
6E88
330
6C58
100
AcDbEntity
  8
M
  6
CONTINUOUS
 62
     7
100
AcDbVertex
100
AcDb2dVertex
 10
94.30897470334214
 20
163.4006239149304
 30
0.0
 70
    16
  0
VERTEX
  5
6E89
330
6C58
100
AcDbEntity
  8
M
  6
CONTINUOUS
 62
     7
100
AcDbVertex
100
AcDb2dVertex
 10
94.30897470334214
 20
163.4006239149304
 30
0.0
 70
    16
  0
VERTEX
  5
6E8A
330
6C58
100
AcDbEntity
  8
M
  6
CONTINUOUS
 62
     7
100
AcDbVertex
100
AcDb2dVertex
 10
94.94318082405428
 20
154.1419601440963
 30
0.0
 70
    16
  0
VERTEX
  5
6E8B
330
6C58
100
AcDbEntity
  8
M
  6
CONTINUOUS
 62
     7
100
AcDbVertex
100
AcDb2dVertex
 10
94.94318082405428
 20
154.1419601440963
 30
0.0
 70
    16
  0
VERTEX
  5
6E8C
330
6C58
100
AcDbEntity
  8
M
  6
CONTINUOUS
 62
     7
100
AcDbVertex
100
AcDb2dVertex
 10
94.94318082405428
 20
154.1419601440963
 30
0.0
 70
    16
  0
VERTEX
  5
6E8D
330
6C58
100
AcDbEntity
  8
M
  6
CONTINUOUS
 62
     7
100
AcDbVertex
100
AcDb2dVertex
 10
94.94318082405428
 20
154.1419601440963
 30
0.0
 70
    16
  0
VERTEX
  5
6E8E
330
6C58
100
AcDbEntity
  8
M
  6
CONTINUOUS
 62
     7
100
AcDbVertex
100
AcDb2dVertex
 10
94.94318082405428
 20
154.1419601440963
 30
0.0
 70
    16
  0
VERTEX
  5
6E8F
330
6C58
100
AcDbEntity
  8
M
  6
CONTINUOUS
 62
     7
100
AcDbVertex
100
AcDb2dVertex
 10
94.94318082405428
 20
154.1419601440963
 30
0.0
 70
    16
  0
VERTEX
  5
6E90
330
6C58
100
AcDbEntity
  8
M
  6
CONTINUOUS
 62
     7
100
AcDbVertex
100
AcDb2dVertex
 10
94.94318082405428
 20
154.1419601440963
 30
0.0
 70
    16
  0
VERTEX
  5
6E91
330
6C58
100
AcDbEntity
  8
M
  6
CONTINUOUS
 62
     7
100
AcDbVertex
100
AcDb2dVertex
 10
96.91237059652493
 20
147.5272076543283
 30
0.0
 70
    16
  0
VERTEX
  5
6E92
330
6C58
100
AcDbEntity
  8
M
  6
CONTINUOUS
 62
     7
100
AcDbVertex
100
AcDb2dVertex
 10
96.91237059652493
 20
147.5272076543283
 30
0.0
 70
    16
  0
VERTEX
  5
6E93
330
6C58
100
AcDbEntity
  8
M
  6
CONTINUOUS
 62
     7
100
AcDbVertex
100
AcDb2dVertex
 10
96.91237059652493
 20
147.5272076543283
 30
0.0
 70
    16
  0
VERTEX
  5
6E94
330
6C58
100
AcDbEntity
  8
M
  6
CONTINUOUS
 62
     7
100
AcDbVertex
100
AcDb2dVertex
 10
96.91237059652493
 20
147.5272076543283
 30
0.0
 70
    16
  0
VERTEX
  5
6E95
330
6C58
100
AcDbEntity
  8
M
  6
CONTINUOUS
 62
     7
100
AcDbVertex
100
AcDb2dVertex
 10
96.91237059652493
 20
147.5272076543283
 30
0.0
 70
    16
  0
VERTEX
  5
6E96
330
6C58
100
AcDbEntity
  8
M
  6
CONTINUOUS
 62
     7
100
AcDbVertex
100
AcDb2dVertex
 10
96.91237059652493
 20
147.5272076543283
 30
0.0
 70
    16
  0
VERTEX
  5
6E97
330
6C58
100
AcDbEntity
  8
M
  6
CONTINUOUS
 62
     7
100
AcDbVertex
100
AcDb2dVertex
 10
96.91237059652493
 20
147.5272076543283
 30
0.0
 70
    16
  0
VERTEX
  5
6E98
330
6C58
100
AcDbEntity
  8
M
  6
CONTINUOUS
 62
     7
100
AcDbVertex
100
AcDb2dVertex
 10
100.4927166315354
 20
142.1638951483406
 30
0.0
 70
    16
  0
VERTEX
  5
6E99
330
6C58
100
AcDbEntity
  8
M
  6
CONTINUOUS
 62
     7
100
AcDbVertex
100
AcDb2dVertex
 10
100.4927166315354
 20
142.1638951483406
 30
0.0
 70
    16
  0
VERTEX
  5
6E9A
330
6C58
100
AcDbEntity
  8
M
  6
CONTINUOUS
 62
     7
100
AcDbVertex
100
AcDb2dVertex
 10
100.4927166315354
 20
142.1638951483406
 30
0.0
 70
    16
  0
VERTEX
  5
6E9B
330
6C58
100
AcDbEntity
  8
M
  6
CONTINUOUS
 62
     7
100
AcDbVertex
100
AcDb2dVertex
 10
100.4927166315354
 20
142.1638951483406
 30
0.0
 70
    16
  0
VERTEX
  5
6E9C
330
6C58
100
AcDbEntity
  8
M
  6
CONTINUOUS
 62
     7
100
AcDbVertex
100
AcDb2dVertex
 10
100.4927166315354
 20
142.1638951483406
 30
0.0
 70
    16
  0
VERTEX
  5
6E9D
330
6C58
100
AcDbEntity
  8
M
  6
CONTINUOUS
 62
     7
100
AcDbVertex
100
AcDb2dVertex
 10
100.4927166315354
 20
142.1638951483406
 30
0.0
 70
    16
  0
VERTEX
  5
6E9E
330
6C58
100
AcDbEntity
  8
M
  6
CONTINUOUS
 62
     7
100
AcDbVertex
100
AcDb2dVertex
 10
100.4927166315354
 20
142.1638951483406
 30
0.0
 70
    16
  0
VERTEX
  5
6E9F
330
6C58
100
AcDbEntity
  8
M
  6
CONTINUOUS
 62
     7
100
AcDbVertex
100
AcDb2dVertex
 10
104.6101137125638
 20
139.3034619448302
 30
0.0
 70
    16
  0
VERTEX
  5
6EA0
330
6C58
100
AcDbEntity
  8
M
  6
CONTINUOUS
 62
     7
100
AcDbVertex
100
AcDb2dVertex
 10
107.6534071393129
 20
136.9793595928688
 30
0.0
 70
    16
  0
VERTEX
  5
6EA1
330
6C58
100
AcDbEntity
  8
M
  6
CONTINUOUS
 62
     7
100
AcDbVertex
100
AcDb2dVertex
 10
108.0114422114875
 20
136.8005826423529
 30
0.0
 70
    16
  0
VERTEX
  5
6EA2
330
6C58
100
AcDbEntity
  8
M
  6
CONTINUOUS
 62
     7
100
AcDbVertex
100
AcDb2dVertex
 10
111.9498233186726
 20
135.0128118070236
 30
0.0
 70
    16
  0
VERTEX
  5
6EA3
330
6C58
100
AcDbEntity
  8
M
  6
CONTINUOUS
 62
     7
100
AcDbVertex
100
AcDb2dVertex
 10
114.7054580638797
 20
134.2280438142281
 30
0.0
 70
    16
  0
VERTEX
  5
6EA4
330
6C58
100
AcDbEntity
  8
M
  6
CONTINUOUS
 62
     7
100
AcDbVertex
100
AcDb2dVertex
 10
120.9802928612331
 20
133.4364534887605
 30
0.0
 70
    16
  0
VERTEX
  5
6EA5
330
6C58
100
AcDbEntity
  8
M
  6
CONTINUOUS
 62
     7
100
AcDbVertex
100
AcDb2dVertex
 10
120.9802928612331
 20
133.4364534887605
 30
0.0
 70
    16
  0
VERTEX
  5
6EA6
330
6C58
100
AcDbEntity
  8
M
  6
CONTINUOUS
 62
     7
100
AcDbVertex
100
AcDb2dVertex
 10
126.924873404887
 20
133.2385561239904
 30
0.0
 70
    16
  0
VERTEX
  5
6EA7
330
6C58
100
AcDbEntity
  8
M
  6
CONTINUOUS
 62
     7
100
AcDbVertex
100
AcDb2dVertex
 10
132.3999999999996
 20
133.0
 30
0.0
 70
    16
  0
VERTEX
  5
6EA8
330
6C58
100
AcDbEntity
  8
M
  6
CONTINUOUS
 62
     7
100
AcDbVertex
100
AcDb2dVertex
 10
135.5129999999996
 20
133.06
 30
0.0
 70
    16
  0
SEQEND
  5
6EA9
330
6C58
100
AcDbEntity
  8
M
  6
CONTINUOUS
 62
     7
  0
ENDSEC
  0
SECTION
  2
OBJECTS
  0
DICTIONARY
  5
6AB7
330
0
100
AcDbDictionary
  3
ACAD_GROUP
350
6AB8
  3
ACAD_LAYOUT
350
6AC4
  3
ACAD_MLINESTYLE
350
6AC1
  3
ACAD_PLOTSETTINGS
350
6AC3
  3
ACAD_PLOTSTYLENAME
350
6AB9
  3
ACDBHEADERROUNDTRIPXREC
350
705E
  3
ACDBVARIABLEDICTIONARY
350
6B56
  0
DICTIONARY
  5
6CE4
330
6AC9
100
AcDbDictionary
280
     1
  3
ACAD_LAYOUTSELFREF
360
707F
  0
DICTIONARY
  5
6CE2
330
6AC5
100
AcDbDictionary
280
     1
  3
ACAD_LAYOUTSELFREF
360
707E
  0
DICTIONARY
  5
6AB8
102
{ACAD_REACTORS
330
6AB7
102
}
330
6AB7
100
AcDbDictionary
  0
DICTIONARY
  5
6AC4
102
{ACAD_REACTORS
330
6AB7
102
}
330
6AB7
100
AcDbDictionary
  0
DICTIONARY
  5
6AC1
102
{ACAD_REACTORS
330
6AB7
102
}
330
6AB7
100
AcDbDictionary
  3
STANDARD
350
6AC2
  0
DICTIONARY
  5
6AC3
102
{ACAD_REACTORS
330
6AB7
102
}
330
6AB7
100
AcDbDictionary
  0
ACDBDICTIONARYWDFLT
  5
6AB9
102
{ACAD_REACTORS
330
6AB7
102
}
330
6AB7
100
AcDbDictionary
281
     1
  3
Normal
350
6ABA
100
AcDbDictionaryWithDefault
340
6ABA
  0
DICTIONARY
  5
705E
102
{ACAD_REACTORS
330
6AB7
102
}
330
6AB7
100
AcDbDictionary
  3
CEPSNTYPE
350
7068
  3
FINGERPRINTGUID
350
7069
  3
HYPERLINKBASE
350
7061
  3
INSUNITS
350
7067
  3
LAYOUTDICT
350
7063
  3
LWETCUNION
350
7066
  3
PLOTSETDICT
350
7064
  3
PLOTSTYLNAMDICT
350
7065
  3
PSVPSCALE
350
706B
  3
PUCSBASE
350
706E
  3
PUCSORGBACK
350
7074
  3
PUCSORGBOTTOM
350
7070
  3
PUCSORGFRONT
350
7073
  3
PUCSORGLEFT
350
7071
  3
PUCSORGRIGHT
350
7072
  3
PUCSORGTOP
350
706F
  3
PUCSORTHOREF
350
706C
  3
PUCSORTHOVIEW
350
706D
  3
STYLESHEET
350
7062
  3
TSTACKALIGN
350
705F
  3
TSTACKSIZE
350
7060
  3
UCSBASE
350
7077
  3
UCSORGBACK
350
707D
  3
UCSORGBOTTOM
350
7079
  3
UCSORGFRONT
350
707C
  3
UCSORGLEFT
350
707A
  3
UCSORGRIGHT
350
707B
  3
UCSORGTOP
350
7078
  3
UCSORTHOREF
350
7075
  3
UCSORTHOVIEW
350
7076
  3
VERSIONGUID
350
706A
  0
DICTIONARY
  5
6B56
102
{ACAD_REACTORS
330
6AB7
102
}
330
6AB7
100
AcDbDictionary
  3
DIMASSOC
350
6B57
  0
XRECORD
  5
707F
102
{ACAD_REACTORS
330
6CE4
102
}
330
6CE4
100
AcDbXrecord
340
6AC9
  0
XRECORD
  5
707E
102
{ACAD_REACTORS
330
6CE2
102
}
330
6CE2
100
AcDbXrecord
340
6AC5
  0
MLINESTYLE
  5
6AC2
102
{ACAD_REACTORS
330
6AC1
102
}
330
6AC1
100
AcDbMlineStyle
  2
STANDARD
 70
     0
  3

 62
   256
 51
90.0
 52
90.0
 71
     2
 49
0.5
 62
   256
  6
BYLAYER
 49
-0.5
 62
   256
  6
BYLAYER
  0
ACDBPLACEHOLDER
  5
6ABA
102
{ACAD_REACTORS
330
6AB9
102
}
330
6AB9
100
AcDbPlaceHolder
280
     0
  0
XRECORD
  5
7068
102
{ACAD_REACTORS
330
705E
102
}
330
705E
100
AcDbXrecord
 90
        0
  0
XRECORD
  5
7069
102
{ACAD_REACTORS
330
705E
102
}
330
705E
100
AcDbXrecord
  1
{5ACCE74A-4399-43CB-8AA2-EB8775A1F59F}
  0
XRECORD
  5
7061
102
{ACAD_REACTORS
330
705E
102
}
330
705E
100
AcDbXrecord
  1

  0
XRECORD
  5
7067
102
{ACAD_REACTORS
330
705E
102
}
330
705E
100
AcDbXrecord
 90
        0
  0
XRECORD
  5
7063
102
{ACAD_REACTORS
330
705E
102
}
330
705E
100
AcDbXrecord
340
6AC4
  0
XRECORD
  5
7066
102
{ACAD_REACTORS
330
705E
102
}
330
705E
100
AcDbXrecord
 90
    10781
  0
XRECORD
  5
7064
102
{ACAD_REACTORS
330
705E
102
}
330
705E
100
AcDbXrecord
340
6AC3
  0
XRECORD
  5
7065
102
{ACAD_REACTORS
330
705E
102
}
330
705E
100
AcDbXrecord
340
6AB9
  0
XRECORD
  5
706B
102
{ACAD_REACTORS
330
705E
102
}
330
705E
100
AcDbXrecord
 40
0.0
  0
XRECORD
  5
706E
102
{ACAD_REACTORS
330
705E
102
}
330
705E
100
AcDbXrecord
340
0
  0
XRECORD
  5
7074
102
{ACAD_REACTORS
330
705E
102
}
330
705E
100
AcDbXrecord
 10
0.0
 20
0.0
 30
0.0
  0
XRECORD
  5
7070
102
{ACAD_REACTORS
330
705E
102
}
330
705E
100
AcDbXrecord
 10
0.0
 20
0.0
 30
0.0
  0
XRECORD
  5
7073
102
{ACAD_REACTORS
330
705E
102
}
330
705E
100
AcDbXrecord
 10
0.0
 20
0.0
 30
0.0
  0
XRECORD
  5
7071
102
{ACAD_REACTORS
330
705E
102
}
330
705E
100
AcDbXrecord
 10
0.0
 20
0.0
 30
0.0
  0
XRECORD
  5
7072
102
{ACAD_REACTORS
330
705E
102
}
330
705E
100
AcDbXrecord
 10
0.0
 20
0.0
 30
0.0
  0
XRECORD
  5
706F
102
{ACAD_REACTORS
330
705E
102
}
330
705E
100
AcDbXrecord
 10
0.0
 20
0.0
 30
0.0
  0
XRECORD
  5
706C
102
{ACAD_REACTORS
330
705E
102
}
330
705E
100
AcDbXrecord
340
0
  0
XRECORD
  5
706D
102
{ACAD_REACTORS
330
705E
102
}
330
705E
100
AcDbXrecord
 70
     0
  0
XRECORD
  5
7062
102
{ACAD_REACTORS
330
705E
102
}
330
705E
100
AcDbXrecord
  1

  0
XRECORD
  5
705F
102
{ACAD_REACTORS
330
705E
102
}
330
705E
100
AcDbXrecord
 90
        1
  0
XRECORD
  5
7060
102
{ACAD_REACTORS
330
705E
102
}
330
705E
100
AcDbXrecord
 90
       70
  0
XRECORD
  5
7077
102
{ACAD_REACTORS
330
705E
102
}
330
705E
100
AcDbXrecord
340
0
  0
XRECORD
  5
707D
102
{ACAD_REACTORS
330
705E
102
}
330
705E
100
AcDbXrecord
 10
0.0
 20
0.0
 30
0.0
  0
XRECORD
  5
7079
102
{ACAD_REACTORS
330
705E
102
}
330
705E
100
AcDbXrecord
 10
0.0
 20
0.0
 30
0.0
  0
XRECORD
  5
707C
102
{ACAD_REACTORS
330
705E
102
}
330
705E
100
AcDbXrecord
 10
0.0
 20
0.0
 30
0.0
  0
XRECORD
  5
707A
102
{ACAD_REACTORS
330
705E
102
}
330
705E
100
AcDbXrecord
 10
0.0
 20
0.0
 30
0.0
  0
XRECORD
  5
707B
102
{ACAD_REACTORS
330
705E
102
}
330
705E
100
AcDbXrecord
 10
0.0
 20
0.0
 30
0.0
  0
XRECORD
  5
7078
102
{ACAD_REACTORS
330
705E
102
}
330
705E
100
AcDbXrecord
 10
0.0
 20
0.0
 30
0.0
  0
XRECORD
  5
7075
102
{ACAD_REACTORS
330
705E
102
}
330
705E
100
AcDbXrecord
340
0
  0
XRECORD
  5
7076
102
{ACAD_REACTORS
330
705E
102
}
330
705E
100
AcDbXrecord
 70
     0
  0
XRECORD
  5
706A
102
{ACAD_REACTORS
330
705E
102
}
330
705E
100
AcDbXrecord
  1
{ADF6D2D7-8E5C-4A8C-9ABB-8A94CF493D26}
  0
DICTIONARYVAR
  5
6B57
102
{ACAD_REACTORS
330
6B56
102
}
330
6B56
100
DictionaryVariables
280
     0
  1
1
  0
ENDSEC
  0
EOF
