  0
SECTION
  2
HEADER
  9
$ACADVER
  1
AC1014
  9
$ACADMAINTVER
 70
     9
  9
$DWGCODEPAGE
  3
ANSI_932
  9
$INSBASE
 10
0.0
 20
0.0
 30
0.0
  9
$EXTMIN
 10
-19.28891213436926
 20
79.80531350965316
 30
0.0
  9
$EXTMAX
 10
221.2425119999999
 20
399.3113035643387
 30
0.0
  9
$LIMMIN
 10
-3.5
 20
57.5
  9
$LIMMAX
 10
254.0
 20
421.4999999999998
  9
$ORTHOMODE
 70
     0
  9
$REGENMODE
 70
     1
  9
$FILLMODE
 70
     1
  9
$QTEXTMODE
 70
     0
  9
$MIRRTEXT
 70
     1
  9
$DRAGMODE
 70
     2
  9
$LTSCALE
 40
1.0
  9
$OSMODE
 70
    37
  9
$ATTMODE
 70
     1
  9
$TEXTSIZE
 40
20.0
  9
$TRACEWID
 40
0.05
  9
$TEXTSTYLE
  7
STANDARD
  9
$CLAYER
  8
0
  9
$CELTYPE
  6
CONTINUOUS
  9
$CECOLOR
 62
   256
  9
$CELTSCALE
 40
1.0
  9
$DELOBJ
 70
     1
  9
$DISPSILH
 70
     0
  9
$DIMSCALE
 40
1.0
  9
$DIMASZ
 40
0.18
  9
$DIMEXO
 40
0.0625
  9
$DIMDLI
 40
0.38
  9
$DIMRND
 40
0.0
  9
$DIMDLE
 40
0.0
  9
$DIMEXE
 40
0.18
  9
$DIMTP
 40
0.0
  9
$DIMTM
 40
0.0
  9
$DIMTXT
 40
0.18
  9
$DIMCEN
 40
0.09
  9
$DIMTSZ
 40
0.0
  9
$DIMTOL
 70
     0
  9
$DIMLIM
 70
     0
  9
$DIMTIH
 70
     1
  9
$DIMTOH
 70
     1
  9
$DIMSE1
 70
     0
  9
$DIMSE2
 70
     0
  9
$DIMTAD
 70
     0
  9
$DIMZIN
 70
     0
  9
$DIMBLK
  1

  9
$DIMASO
 70
     1
  9
$DIMSHO
 70
     1
  9
$DIMPOST
  1

  9
$DIMAPOST
  1

  9
$DIMALT
 70
     0
  9
$DIMALTD
 70
     2
  9
$DIMALTF
 40
25.4
  9
$DIMLFAC
 40
1.0
  9
$DIMTOFL
 70
     0
  9
$DIMTVP
 40
0.0
  9
$DIMTIX
 70
     0
  9
$DIMSOXD
 70
     0
  9
$DIMSAH
 70
     0
  9
$DIMBLK1
  1

  9
$DIMBLK2
  1

  9
$DIMSTYLE
  2
STANDARD
  9
$DIMCLRD
 70
     0
  9
$DIMCLRE
 70
     0
  9
$DIMCLRT
 70
     0
  9
$DIMTFAC
 40
1.0
  9
$DIMGAP
 40
0.09
  9
$DIMJUST
 70
     0
  9
$DIMSD1
 70
     0
  9
$DIMSD2
 70
     0
  9
$DIMTOLJ
 70
     1
  9
$DIMTZIN
 70
     0
  9
$DIMALTZ
 70
     0
  9
$DIMALTTZ
 70
     0
  9
$DIMFIT
 70
     3
  9
$DIMUPT
 70
     0
  9
$DIMUNIT
 70
     2
  9
$DIMDEC
 70
     4
  9
$DIMTDEC
 70
     4
  9
$DIMALTU
 70
     2
  9
$DIMALTTD
 70
     2
  9
$DIMTXSTY
  7
STANDARD
  9
$DIMAUNIT
 70
     0
  9
$LUNITS
 70
     2
  9
$LUPREC
 70
     4
  9
$SKETCHINC
 40
0.1
  9
$FILLETRAD
 40
0.0
  9
$AUNITS
 70
     0
  9
$AUPREC
 70
     0
  9
$MENU
  1
.
  9
$ELEVATION
 40
0.0
  9
$PELEVATION
 40
0.0
  9
$THICKNESS
 40
0.0
  9
$LIMCHECK
 70
     0
  9
$BLIPMODE
 70
     0
  9
$CHAMFERA
 40
0.0
  9
$CHAMFERB
 40
0.0
  9
$CHAMFERC
 40
0.0
  9
$CHAMFERD
 40
0.0
  9
$SKPOLY
 70
     0
  9
$TDCREATE
 40
2452523.402957292
  9
$TDUPDATE
 40
2453319.559186389
  9
$TDINDWG
 40
0.1710150116
  9
$TDUSRTIMER
 40
0.1710086343
  9
$USRTIMER
 70
     1
  9
$ANGBASE
 50
0.0
  9
$ANGDIR
 70
     0
  9
$PDMODE
 70
     3
  9
$PDSIZE
 40
-1.0
  9
$PLINEWID
 40
0.0
  9
$COORDS
 70
     1
  9
$SPLFRAME
 70
     0
  9
$SPLINETYPE
 70
     6
  9
$SPLINESEGS
 70
     8
  9
$ATTDIA
 70
     0
  9
$ATTREQ
 70
     1
  9
$HANDLING
 70
-16383
  9
$HANDSEED
  5
7D3B
  9
$SURFTAB1
 70
     6
  9
$SURFTAB2
 70
     6
  9
$SURFTYPE
 70
     6
  9
$SURFU
 70
     6
  9
$SURFV
 70
     6
  9
$UCSNAME
  2

  9
$UCSORG
 10
0.0
 20
0.0
 30
0.0
  9
$UCSXDIR
 10
1.0
 20
0.0
 30
0.0
  9
$UCSYDIR
 10
0.0
 20
1.0
 30
0.0
  9
$PUCSNAME
  2

  9
$PUCSORG
 10
0.0
 20
0.0
 30
0.0
  9
$PUCSXDIR
 10
1.0
 20
0.0
 30
0.0
  9
$PUCSYDIR
 10
0.0
 20
1.0
 30
0.0
  9
$USERI1
 70
     0
  9
$USERI2
 70
     0
  9
$USERI3
 70
     0
  9
$USERI4
 70
     0
  9
$USERI5
 70
     0
  9
$USERR1
 40
0.0
  9
$USERR2
 40
0.0
  9
$USERR3
 40
0.0
  9
$USERR4
 40
0.0
  9
$USERR5
 40
0.0
  9
$WORLDVIEW
 70
     1
  9
$SHADEDGE
 70
     3
  9
$SHADEDIF
 70
    70
  9
$TILEMODE
 70
     1
  9
$MAXACTVP
 70
    64
  9
$PINSBASE
 10
0.0
 20
0.0
 30
0.0
  9
$PLIMCHECK
 70
     0
  9
$PEXTMIN
 10
1.000000000000000E+20
 20
1.000000000000000E+20
 30
1.000000000000000E+20
  9
$PEXTMAX
 10
-1.000000000000000E+20
 20
-1.000000000000000E+20
 30
-1.000000000000000E+20
  9
$PLIMMIN
 10
0.0
 20
0.0
  9
$PLIMMAX
 10
12.0
 20
9.0
  9
$UNITMODE
 70
     0
  9
$VISRETAIN
 70
     1
  9
$PLINEGEN
 70
     0
  9
$PSLTSCALE
 70
     1
  9
$TREEDEPTH
 70
  3020
  9
$PICKSTYLE
 70
     1
  9
$CMLSTYLE
  2
STANDARD
  9
$CMLJUST
 70
     0
  9
$CMLSCALE
 40
1.0
  9
$PROXYGRAPHICS
 70
     1
  9
$MEASUREMENT
 70
     0
  0
ENDSEC
  0
SECTION
  2
CLASSES
  0
CLASS
  1
ACDBDICTIONARYWDFLT
  2
AcDbDictionaryWithDefault
  3
AutoCAD 2000
 90
        0
280
     0
281
     0
  0
CLASS
  1
ACDBPLACEHOLDER
  2
AcDbPlaceHolder
  3
AutoCAD 2000
 90
        0
280
     0
281
     0
  0
CLASS
  1
LAYOUT
  2
AcDbLayout
  3
AutoCAD 2000
 90
        0
280
     0
281
     0
  0
CLASS
  1
DICTIONARYVAR
  2
AcDbDictionaryVar
  3
AutoCAD 2000
 90
        0
280
     0
281
     0
  0
CLASS
  1
LONG_TRANSACTION
  2
AcDbLongTransaction
  3
AutoCAD 2000
 90
        0
280
     0
281
     0
  0
CLASS
  1
LWPOLYLINE
  2
AcDbPolyline
  3
AutoCAD 2000
 90
        0
280
     0
281
     1
  0
CLASS
  1
HATCH
  2
AcDbHatch
  3
AutoCAD 2000
 90
        0
280
     0
281
     1
  0
CLASS
  1
XRECORD
  2
AcDbXrecord
  3
AutoCAD 2000
 90
        0
280
     0
281
     0
  0
CLASS
  1
LONG_TRANSACTION
  2
AcDbLongTransaction
  3
AutoCAD 2000
 90
        0
280
     0
281
     0
  0
CLASS
  1
LWPOLYLINE
  2
AcDbPolyline
  3
AutoCAD 2000
 90
        0
280
     0
281
     1
  0
CLASS
  1
HATCH
  2
AcDbHatch
  3
AutoCAD 2000
 90
        0
280
     0
281
     1
  0
CLASS
  1
XRECORD
  2
AcDbXrecord
  3
AutoCAD 2000
 90
        0
280
     0
281
     0
  0
CLASS
  1
LONG_TRANSACTION
  2
AcDbLongTransaction
  3
AutoCAD 2000
 90
        0
280
     0
281
     0
  0
CLASS
  1
LWPOLYLINE
  2
AcDbPolyline
  3
AutoCAD 2000
 90
        0
280
     0
281
     1
  0
CLASS
  1
HATCH
  2
AcDbHatch
  3
AutoCAD 2000
 90
        0
280
     0
281
     1
  0
CLASS
  1
XRECORD
  2
AcDbXrecord
  3
AutoCAD 2000
 90
        0
280
     0
281
     0
  0
CLASS
  1
LONG_TRANSACTION
  2
AcDbLongTransaction
  3
AutoCAD 2000
 90
        0
280
     0
281
     0
  0
CLASS
  1
LWPOLYLINE
  2
AcDbPolyline
  3
AutoCAD 2000
 90
        0
280
     0
281
     1
  0
CLASS
  1
HATCH
  2
AcDbHatch
  3
AutoCAD 2000
 90
        0
280
     0
281
     1
  0
CLASS
  1
XRECORD
  2
AcDbXrecord
  3
AutoCAD 2000
 90
        0
280
     0
281
     0
  0
CLASS
  1
LONG_TRANSACTION
  2
AcDbLongTransaction
  3
AutoCAD 2000
 90
        0
280
     0
281
     0
  0
CLASS
  1
LWPOLYLINE
  2
AcDbPolyline
  3
AutoCAD 2000
 90
        0
280
     0
281
     1
  0
CLASS
  1
HATCH
  2
AcDbHatch
  3
AutoCAD 2000
 90
        0
280
     0
281
     1
  0
CLASS
  1
XRECORD
  2
AcDbXrecord
  3
AutoCAD 2000
 90
        0
280
     0
281
     0
  0
CLASS
  1
LONG_TRANSACTION
  2
AcDbLongTransaction
  3
AutoCAD 2000
 90
        0
280
     0
281
     0
  0
CLASS
  1
LWPOLYLINE
  2
AcDbPolyline
  3
AutoCAD 2000
 90
        0
280
     0
281
     1
  0
CLASS
  1
HATCH
  2
AcDbHatch
  3
AutoCAD 2000
 90
        0
280
     0
281
     1
  0
CLASS
  1
XRECORD
  2
AcDbXrecord
  3
AutoCAD 2000
 90
        0
280
     0
281
     0
  0
CLASS
  1
LONG_TRANSACTION
  2
AcDbLongTransaction
  3
AutoCAD 2000
 90
        0
280
     0
281
     0
  0
CLASS
  1
LWPOLYLINE
  2
AcDbPolyline
  3
AutoCAD 2000
 90
        0
280
     0
281
     1
  0
CLASS
  1
HATCH
  2
AcDbHatch
  3
AutoCAD 2000
 90
        0
280
     0
281
     1
  0
CLASS
  1
XRECORD
  2
AcDbXrecord
  3
AutoCAD 2000
 90
        0
280
     0
281
     0
  0
ENDSEC
  0
SECTION
  2
TABLES
  0
TABLE
  2
VPORT
  5
771C
330
0
100
AcDbSymbolTable
 70
     2
  0
VPORT
  5
7D17
330
771C
100
AcDbSymbolTableRecord
100
AcDbViewportTableRecord
  2
*ACTIVE
 70
     0
 10
0.0
 20
0.0
 11
1.0
 21
1.0
 12
134.6159441429746
 22
244.9690006226501
 13
0.0
 23
0.0
 14
1.0
 24
1.0
 15
0.0
 25
0.0
 16
0.0
 26
0.0
 36
1.0
 17
0.0
 27
0.0
 37
0.0
 40
306.7582242829287
 41
1.863905325443786
 42
50.0
 43
0.0
 44
0.0
 50
0.0
 51
0.0
 71
     0
 72
   100
 73
     1
 74
     1
 75
     0
 76
     0
 77
     0
 78
     0
  0
ENDTAB
  0
TABLE
  2
LTYPE
  5
7719
330
0
100
AcDbSymbolTable
 70
     2
  0
LTYPE
  5
7727
330
7719
100
AcDbSymbolTableRecord
100
AcDbLinetypeTableRecord
  2
BYBLOCK
 70
     0
  3

 72
    65
 73
     0
 40
0.0
  0
LTYPE
  5
7728
330
7719
100
AcDbSymbolTableRecord
100
AcDbLinetypeTableRecord
  2
BYLAYER
 70
     0
  3

 72
    65
 73
     0
 40
0.0
  0
LTYPE
  5
7729
330
7719
100
AcDbSymbolTableRecord
100
AcDbLinetypeTableRecord
  2
CONTINUOUS
 70
     0
  3
Solid line
 72
    65
 73
     0
 40
0.0
  0
LTYPE
  5
7A81
330
7719
100
AcDbSymbolTableRecord
100
AcDbLinetypeTableRecord
  2
DOT2
 70
     0
  3
Dot (.5x) .....................................
 72
    65
 73
     2
 40
3.174999999999998
 49
0.0
 74
     0
 49
-3.174999999999998
 74
     0
  0
ENDTAB
  0
TABLE
  2
LAYER
  5
7716
330
0
100
AcDbSymbolTable
 70
     7
  0
LAYER
  5
7724
330
7716
100
AcDbSymbolTableRecord
100
AcDbLayerTableRecord
  2
0
 70
     0
 62
     7
  6
CONTINUOUS
  0
LAYER
  5
7737
330
7716
100
AcDbSymbolTableRecord
100
AcDbLayerTableRecord
  2
7
 70
     0
 62
     7
  6
CONTINUOUS
  0
LAYER
  5
7797
330
7716
100
AcDbSymbolTableRecord
100
AcDbLayerTableRecord
  2
基準
 70
     0
 62
     7
  6
CONTINUOUS
  0
LAYER
  5
77AB
330
7716
100
AcDbSymbolTableRecord
100
AcDbLayerTableRecord
  2
HOJYO
 70
     0
 62
     2
  6
CONTINUOUS
  0
LAYER
  5
77D2
330
7716
100
AcDbSymbolTableRecord
100
AcDbLayerTableRecord
  2
M
 70
     0
 62
     1
  6
CONTINUOUS
  0
LAYER
  5
7A82
330
7716
100
AcDbSymbolTableRecord
100
AcDbLayerTableRecord
  2
L0_
 70
     0
 62
     3
  6
CONTINUOUS
  0
LAYER
  5
7A83
330
7716
100
AcDbSymbolTableRecord
100
AcDbLayerTableRecord
  2
L200_
 70
     0
 62
     4
  6
DOT2
  0
ENDTAB
  0
TABLE
  2
STYLE
  5
7717
330
0
100
AcDbSymbolTable
 70
     3
  0
STYLE
  5
7725
330
7717
100
AcDbSymbolTableRecord
100
AcDbTextStyleTableRecord
  2
STANDARD
 70
     0
 40
0.0
 41
0.8
 50
0.0
 71
     0
 42
20.0
  3
MONOTXT
  4
BIGFONT
  0
STYLE
  5
7798
330
7717
100
AcDbSymbolTableRecord
100
AcDbTextStyleTableRecord
  2
STD
 70
     0
 40
0.0
 41
1.0
 50
0.0
 71
     0
 42
0.0
  3
txt
  4

  0
STYLE
  5
7A84
330
7717
100
AcDbSymbolTableRecord
100
AcDbTextStyleTableRecord
  2

 70
     1
 40
0.0
 41
1.0
 50
0.0
 71
     0
 42
2.5
  3
ltypeshp.shx
  4

  0
ENDTAB
  0
TABLE
  2
VIEW
  5
771A
330
0
100
AcDbSymbolTable
 70
     0
  0
ENDTAB
  0
TABLE
  2
UCS
  5
771B
330
0
100
AcDbSymbolTable
 70
     0
  0
ENDTAB
  0
TABLE
  2
APPID
  5
771D
330
0
100
AcDbSymbolTable
 70
     2
  0
APPID
  5
7726
330
771D
100
AcDbSymbolTableRecord
100
AcDbRegAppTableRecord
  2
ACAD
 70
     0
  0
APPID
  5
79F6
330
771D
100
AcDbSymbolTableRecord
100
AcDbRegAppTableRecord
  2
CONTENTBLOCKICON
 70
     0
  0
ENDTAB
  0
TABLE
  2
DIMSTYLE
  5
771E
330
0
100
AcDbSymbolTable
 70
     2
  0
DIMSTYLE
105
7738
330
771E
100
AcDbSymbolTableRecord
100
AcDbDimStyleTableRecord
  2
STANDARD
 70
     0
  3

  4

  5

  6

  7

 40
1.0
 41
0.18
 42
0.0625
 43
0.38
 44
0.18
 45
0.0
 46
0.0
 47
0.0
 48
0.0
140
0.18
141
0.09
142
0.0
143
25.4
144
1.0
145
0.0
146
1.0
147
0.09
 71
     0
 72
     0
 73
     1
 74
     1
 75
     0
 76
     0
 77
     0
 78
     0
170
     0
171
     2
172
     0
173
     0
174
     0
175
     0
176
     0
177
     0
178
     0
270
     2
271
     4
272
     4
273
     2
274
     2
340
7725
275
     0
280
     0
281
     0
282
     0
283
     1
284
     0
285
     0
286
     0
287
     3
288
     0
  0
DIMSTYLE
105
7A85
330
771E
100
AcDbSymbolTableRecord
100
AcDbDimStyleTableRecord
  2
ISO-25
 70
     0
  3

  4

  5

  6

  7

 40
1.0
 41
2.5
 42
0.625
 43
3.75
 44
1.25
 45
0.0
 46
0.0
 47
0.0
 48
0.0
140
2.5
141
2.5
142
0.0
143
0.03937007874016
144
1.0
145
0.0
146
1.0
147
0.625
 71
     0
 72
     0
 73
     0
 74
     0
 75
     0
 76
     0
 77
     1
 78
     8
170
     0
171
     3
172
     1
173
     0
174
     0
175
     0
176
     0
177
     0
178
     0
270
     2
271
     2
272
     2
273
     2
274
     3
340
7725
275
     0
280
     0
281
     0
282
     0
283
     0
284
     8
285
     0
286
     0
287
     3
288
     0
  0
ENDTAB
  0
TABLE
  2
BLOCK_RECORD
  5
7715
330
0
100
AcDbSymbolTable
 70
     4
  0
BLOCK_RECORD
  5
7732
102
{ACAD_XDICTIONARY
360
79F4
102
}
330
7715
100
AcDbSymbolTableRecord
100
AcDbBlockTableRecord
  2
*MODEL_SPACE
  0
BLOCK_RECORD
  5
772E
102
{ACAD_XDICTIONARY
360
79F2
102
}
330
7715
100
AcDbSymbolTableRecord
100
AcDbBlockTableRecord
  2
*PAPER_SPACE
  0
BLOCK_RECORD
  5
773B
330
7715
100
AcDbSymbolTableRecord
100
AcDbBlockTableRecord
  2
$MODEL_SPACE
  0
BLOCK_RECORD
  5
773E
330
7715
100
AcDbSymbolTableRecord
100
AcDbBlockTableRecord
  2
$PAPER_SPACE
  0
BLOCK_RECORD
  5
778B
330
7715
100
AcDbSymbolTableRecord
100
AcDbBlockTableRecord
  2
BASELINE
1001
CONTENTBLOCKICON
1071
        0
1004
2800000020000000200000000100080000000000000400000000000000000000000000000000000000000000000080000080000000808000800000008000800080800000C0C0C000C0DCC000F0CAA6000020400000206000002080000020A0000020C0000020E00000400000004020000040400000406000004080000040A0
1004
000040C0000040E00000600000006020000060400000606000006080000060A0000060C0000060E00000800000008020000080400000806000008080000080A0000080C0000080E00000A0000000A0200000A0400000A0600000A0800000A0A00000A0C00000A0E00000C0000000C0200000C0400000C0600000C0800000C0
1004
A00000C0C00000C0E00000E0000000E0200000E0400000E0600000E0800000E0A00000E0C00000E0E00040000000400020004000400040006000400080004000A0004000C0004000E00040200000402020004020400040206000402080004020A0004020C0004020E000404000004040200040404000404060004040800040
1004
40A0004040C0004040E00040600000406020004060400040606000406080004060A0004060C0004060E00040800000408020004080400040806000408080004080A0004080C0004080E00040A0000040A0200040A0400040A0600040A0800040A0A00040A0C00040A0E00040C0000040C0200040C0400040C0600040C08000
1004
40C0A00040C0C00040C0E00040E0000040E0200040E0400040E0600040E0800040E0A00040E0C00040E0E00080000000800020008000400080006000800080008000A0008000C0008000E00080200000802020008020400080206000802080008020A0008020C0008020E00080400000804020008040400080406000804080
1004
008040A0008040C0008040E00080600000806020008060400080606000806080008060A0008060C0008060E00080800000808020008080400080806000808080008080A0008080C0008080E00080A0000080A0200080A0400080A0600080A0800080A0A00080A0C00080A0E00080C0000080C0200080C0400080C0600080C0
1004
800080C0A00080C0C00080C0E00080E0000080E0200080E0400080E0600080E0800080E0A00080E0C00080E0E000C0000000C0002000C0004000C0006000C0008000C000A000C000C000C000E000C0200000C0202000C0204000C0206000C0208000C020A000C020C000C020E000C0400000C0402000C0404000C0406000C0
1004
408000C040A000C040C000C040E000C0600000C0602000C0604000C0606000C0608000C060A000C060C000C060E000C0800000C0802000C0804000C0806000C0808000C080A000C080C000C080E000C0A00000C0A02000C0A04000C0A06000C0A08000C0A0A000C0A0C000C0A0E000C0C00000C0C02000C0C04000C0C06000
1004
C0C08000C0C0A000F0FBFF00A4A0A000808080000000FF0000FF000000FFFF00FF000000FF00FF00FFFF0000FFFFFF00000000000000000000000000000000000000000000000000000000000000000000000000000000FFFFFFFF00000000000000000000000000000000000000000000000000000000FFFFFFFF00000000
1004
00000000000000000000000000000000000000000000FFFFFFFCFCFCFCFCFCFCFCFCFCFCFCFCFCFCFCFCFCFC000000000000000000000000FCFCFC0000000000000000000000000000000000000000000000000000000000FCFCFC0000000000000000000000000000000000000000000000000000000000FCFCFC00000000
1004
00000000000000000000000000000000000000000000000000FCFCFC0000000000000000000000000000000000000000000000000000000000FCFCFC0000000000000000000000000000000000000000000000000000000000FCFCFC0000000000000000000000000000000000000000000000000000000000FCFCFC000000
1004
0000000000000000000000000000000000000000000000000000FCFCFC0000000000000000000000000000000000000000000000000000000000FCFCFC0000000000000000000000000000000000000000000000000000000000FCFCFC0000000000000000000000000000000000000000000000000000000000FCFCFC0000
1004
000000000000000000000000000000000000000000000000000000FCFCFC0000000000000000000000000000000000000000000000000000000000FCFCFC0000000000000000000000000000000000000000000000000000000000FCFCFC0000000000000000000000000000000000000000000000000000000000FCFCFC00
1004
00000000000000000000000000000000000000000000000000000000FCFCFC0000000000000000000000000000000000000000000000000000000000FCFCFC0000000000000000000000000000000000000000000000000000000000FCFCFC0000000000000000000000000000000000000000000000000000000000FCFCFC
1004
0000000000000000000000000000000000000000000000000000000000FCFCFC0000000000000000000000000000000000000000000000000000000000FCFCFC0000000000000000000000000000000000000000000000000000000000FCFCFC0000000000000000000000000000000000000000000000000000000000FCFC
1004
FC0000000000000000000000000000000000000000000000000000000000FCFCFC0000000000000000000000000000000000000000000000000000000000FCFCFC0000000000000000000000000000000000000000000000000000000000FCFCFC0000000000000000000000000000000000000000000000000000000000FC
1004
FCFC000000000000000000000000000000000000000000000000000000000000000000000000000000000000000000000000000000000000
  0
BLOCK_RECORD
  5
7A86
330
7715
100
AcDbSymbolTableRecord
100
AcDbBlockTableRecord
  2
GRAPHBASE
1001
ACAD
1000
DesignCenter Data
1002
{
1070
     1
1070
     4
1002
}
  0
ENDTAB
  0
ENDSEC
  0
SECTION
  2
BLOCKS
  0
BLOCK
  5
7733
330
7732
100
AcDbEntity
  8
0
100
AcDbBlockBegin
  2
*MODEL_SPACE
 70
     0
 10
0.0
 20
0.0
 30
0.0
  3
*MODEL_SPACE
  1

  0
ENDBLK
  5
7734
330
7732
100
AcDbEntity
  8
0
100
AcDbBlockEnd
  0
BLOCK
  5
772F
330
772E
100
AcDbEntity
 67
     1
  8
0
100
AcDbBlockBegin
  2
*PAPER_SPACE
 70
     0
 10
0.0
 20
0.0
 30
0.0
  3
*PAPER_SPACE
  1

  0
ENDBLK
  5
7730
330
772E
100
AcDbEntity
 67
     1
  8
0
100
AcDbBlockEnd
  0
BLOCK
  5
773C
330
773B
100
AcDbEntity
  8
0
100
AcDbBlockBegin
  2
$MODEL_SPACE
 70
     0
 10
0.0
 20
0.0
 30
0.0
  3
$MODEL_SPACE
  1

  0
ENDBLK
  5
773D
330
773B
100
AcDbEntity
  8
0
100
AcDbBlockEnd
  0
BLOCK
  5
773F
330
773E
100
AcDbEntity
  8
0
100
AcDbBlockBegin
  2
$PAPER_SPACE
 70
     0
 10
0.0
 20
0.0
 30
0.0
  3
$PAPER_SPACE
  1

  0
ENDBLK
  5
7740
330
773E
100
AcDbEntity
  8
0
100
AcDbBlockEnd
  0
BLOCK
  5
7795
330
778B
100
AcDbEntity
  8
0
100
AcDbBlockBegin
  2
BASELINE
 70
     0
 10
0.0
 20
0.0
 30
0.0
  3
BASELINE
  1

  0
MTEXT
  5
778C
330
778B
100
AcDbEntity
  8
基準
 62
     7
100
AcDbMText
 10
-1.444082999999974
 20
-17.18482499999999
 30
0.0
 40
2.444193999999999
 41
0.0
 71
     1
 72
     2
  1
\F;440V
  7
STD
 11
0.0
 21
1.0
 31
0.0
1001
ACAD
1000
MTEXTBEGIN
1070
    73
1070
     1
1070
    44
1040
1.0
1070
    74
1070
     0
1000
MTEXTEND
1000
MTEXTBEGIN
1070
    73
1070
     1
1070
    44
1040
1.0
1070
    74
1070
     0
1000
MTEXTEND
1000
MTEXTBEGIN
1070
    73
1070
     1
1070
    44
1040
1.0
1070
    74
1070
     0
1000
MTEXTEND
1000
MTEXTBEGIN
1070
    73
1070
     1
1070
    44
1040
1.0
1070
    74
1070
     0
1000
MTEXTEND
1000
MTEXTBEGIN
1070
    73
1070
     1
1070
    44
1040
1.0
1070
    74
1070
     0
1000
MTEXTEND
1000
MTEXTBEGIN
1070
    73
1070
     1
1070
    44
1040
1.0
1070
    74
1070
     0
1000
MTEXTEND
1000
MTEXTBEGIN
1070
    73
1070
     1
1070
    44
1040
1.0
1070
    74
1070
     0
1000
MTEXTEND
  0
MTEXT
  5
778D
330
778B
100
AcDbEntity
  8
基準
 62
     7
100
AcDbMText
 10
11.65589299999999
 20
-17.18482499999999
 30
0.0
 40
2.444193999999999
 41
0.0
 71
     1
 72
     2
  1
\F;220V
  7
STD
 11
0.0
 21
1.0
 31
0.0
1001
ACAD
1000
MTEXTBEGIN
1070
    73
1070
     1
1070
    44
1040
1.0
1070
    74
1070
     0
1000
MTEXTEND
1000
MTEXTBEGIN
1070
    73
1070
     1
1070
    44
1040
1.0
1070
    74
1070
     0
1000
MTEXTEND
1000
MTEXTBEGIN
1070
    73
1070
     1
1070
    44
1040
1.0
1070
    74
1070
     0
1000
MTEXTEND
1000
MTEXTBEGIN
1070
    73
1070
     1
1070
    44
1040
1.0
1070
    74
1070
     0
1000
MTEXTEND
1000
MTEXTBEGIN
1070
    73
1070
     1
1070
    44
1040
1.0
1070
    74
1070
     0
1000
MTEXTEND
1000
MTEXTBEGIN
1070
    73
1070
     1
1070
    44
1040
1.0
1070
    74
1070
     0
1000
MTEXTEND
1000
MTEXTBEGIN
1070
    73
1070
     1
1070
    44
1040
1.0
1070
    74
1070
     0
1000
MTEXTEND
  0
MTEXT
  5
778E
330
778B
100
AcDbEntity
  8
基準
 62
     7
100
AcDbMText
 10
25.237837
 20
-17.18482499999999
 30
0.0
 40
2.444193999999999
 41
0.0
 71
     1
 72
     2
  1
\F;110V
  7
STD
 11
0.0
 21
1.0
 31
0.0
1001
ACAD
1000
MTEXTBEGIN
1070
    73
1070
     1
1070
    44
1040
1.0
1070
    74
1070
     0
1000
MTEXTEND
1000
MTEXTBEGIN
1070
    73
1070
     1
1070
    44
1040
1.0
1070
    74
1070
     0
1000
MTEXTEND
1000
MTEXTBEGIN
1070
    73
1070
     1
1070
    44
1040
1.0
1070
    74
1070
     0
1000
MTEXTEND
1000
MTEXTBEGIN
1070
    73
1070
     1
1070
    44
1040
1.0
1070
    74
1070
     0
1000
MTEXTEND
1000
MTEXTBEGIN
1070
    73
1070
     1
1070
    44
1040
1.0
1070
    74
1070
     0
1000
MTEXTEND
1000
MTEXTBEGIN
1070
    73
1070
     1
1070
    44
1040
1.0
1070
    74
1070
     0
1000
MTEXTEND
1000
MTEXTBEGIN
1070
    73
1070
     1
1070
    44
1040
1.0
1070
    74
1070
     0
1000
MTEXTEND
  0
LINE
  5
778F
330
778B
100
AcDbEntity
  8
基準
100
AcDbLine
 10
194.342487
 20
0.0
 30
0.0
 11
0.0
 21
0.0
 31
0.0
  0
LINE
  5
7790
330
778B
100
AcDbEntity
  8
基準
100
AcDbLine
 10
0.0
 20
260.400299
 30
0.0
 11
0.0
 21
0.0
 31
0.0
  0
LINE
  5
7791
330
778B
100
AcDbEntity
  8
基準
100
AcDbLine
 10
13.09997500000003
 20
260.400299
 30
0.0
 11
13.09997500000003
 21
0.0
 31
0.0
  0
MTEXT
  5
7792
330
778B
100
AcDbEntity
  8
基準
 62
     7
100
AcDbMText
 10
-21.45484899999999
 20
1.440292999999995
 30
0.0
 40
2.444193999999999
 41
0.0
 71
     1
 72
     2
  1
\W1.02;\F;0.01S
  7
STD
1001
ACAD
1000
MTEXTBEGIN
1070
    73
1070
     1
1070
    44
1040
1.0
1070
    74
1070
     0
1000
MTEXTEND
1000
MTEXTBEGIN
1070
    73
1070
     1
1070
    44
1040
1.0
1070
    74
1070
     0
1000
MTEXTEND
1000
MTEXTBEGIN
1070
    73
1070
     1
1070
    44
1040
1.0
1070
    74
1070
     0
1000
MTEXTEND
1000
MTEXTBEGIN
1070
    73
1070
     1
1070
    44
1040
1.0
1070
    74
1070
     0
1000
MTEXTEND
1000
MTEXTBEGIN
1070
    73
1070
     1
1070
    44
1040
1.0
1070
    74
1070
     0
1000
MTEXTEND
1000
MTEXTBEGIN
1070
    73
1070
     1
1070
    44
1040
1.0
1070
    74
1070
     0
1000
MTEXTEND
1000
MTEXTBEGIN
1070
    73
1070
     1
1070
    44
1040
1.0
1070
    74
1070
     0
1000
MTEXTEND
  0
LINE
  5
7793
330
778B
100
AcDbEntity
  8
7
  6
CONTINUOUS
100
AcDbLine
 10
0.0
 20
0.0
 30
0.0
 11
0.0
 21
0.0
 31
0.0
  0
LINE
  5
7794
330
778B
100
AcDbEntity
  8
基準
100
AcDbLine
 10
26.199951
 20
260.400299
 30
0.0
 11
26.199951
 21
0.0
 31
0.0
  0
ENDBLK
  5
7796
330
778B
100
AcDbEntity
  8
0
100
AcDbBlockEnd
  0
BLOCK
  5
7B0B
330
7A86
100
AcDbEntity
  8
0
100
AcDbBlockBegin
  2
GRAPHBASE
 70
     0
 10
0.0
 20
0.0
 30
0.0
  3
GRAPHBASE
  1

  0
MTEXT
  5
7A87
330
7A86
100
AcDbEntity
  8
L0_
 62
     7
100
AcDbMText
 10
78.42846001519101
 20
-35.53907349729348
 30
0.0
 40
3.910714914164845
 41
0.0
 71
     1
 72
     2
  1
\W1.14;\fOsaka|b0|i0|c128;TERASAKI ELECTRIC CO.,LTD.
  7
STD
1001
ACAD
1000
MTEXTBEGIN
1070
    73
1070
     1
1070
    44
1040
1.0
1070
    74
1070
     0
1000
MTEXTEND
1000
MTEXTBEGIN
1070
    73
1070
     1
1070
    44
1040
1.0
1070
    74
1070
     0
1000
MTEXTEND
1000
MTEXTBEGIN
1070
    73
1070
     1
1070
    44
1040
1.0
1070
    74
1070
     0
1000
MTEXTEND
1000
MTEXTBEGIN
1070
    73
1070
     1
1070
    44
1040
1.0
1070
    74
1070
     0
1000
MTEXTEND
  0
MTEXT
  5
7A88
330
7A86
100
AcDbEntity
  8
L0_
 62
     7
100
AcDbMText
 10
43.39993489583347
 20
279.3113035643385
 30
0.0
 40
3.910714914164845
 41
0.0
 71
     1
 72
     2
  1
\W0.97;\fOsaka|b0|i0|c128;Time/Current characteristic curves
  7
STD
1001
ACAD
1000
MTEXTBEGIN
1070
    73
1070
     1
1070
    44
1040
1.0
1070
    74
1070
     0
1000
MTEXTEND
1000
MTEXTBEGIN
1070
    73
1070
     1
1070
    44
1040
1.0
1070
    74
1070
     0
1000
MTEXTEND
1000
MTEXTBEGIN
1070
    73
1070
     1
1070
    44
1040
1.0
1070
    74
1070
     0
1000
MTEXTEND
1000
MTEXTBEGIN
1070
    73
1070
     1
1070
    44
1040
1.0
1070
    74
1070
     0
1000
MTEXTEND
  0
MTEXT
  5
7A89
330
7A86
100
AcDbEntity
  8
L0_
 62
     7
100
AcDbMText
 10
0.0
 20
279.3113035643385
 30
0.0
 40
3.910714914164845
 41
0.0
 71
     1
 72
     2
  1
\W1.12;\fOsaka|b0|i0|c128;TemBreak2
  7
STD
1001
ACAD
1000
MTEXTBEGIN
1070
    73
1070
     1
1070
    44
1040
1.0
1070
    74
1070
     0
1000
MTEXTEND
1000
MTEXTBEGIN
1070
    73
1070
     1
1070
    44
1040
1.0
1070
    74
1070
     0
1000
MTEXTEND
1000
MTEXTBEGIN
1070
    73
1070
     1
1070
    44
1040
1.0
1070
    74
1070
     0
1000
MTEXTEND
1000
MTEXTBEGIN
1070
    73
1070
     1
1070
    44
1040
1.0
1070
    74
1070
     0
1000
MTEXTEND
  0
MTEXT
  5
7A8A
330
7A86
100
AcDbEntity
  8
L200_
 62
     7
100
AcDbMText
 10
91.78991834852439
 20
-22.24611679400732
 30
0.0
 40
2.444193535853943
 41
0.0
 71
     1
 72
     2
  1
\W1.09;\fOsaka|b0|i0|c128;secondary == 110,220,440V
  7
STD
1001
ACAD
1000
MTEXTBEGIN
1070
    73
1070
     1
1070
    44
1040
1.0
1070
    74
1070
     0
1000
MTEXTEND
1000
MTEXTBEGIN
1070
    73
1070
     1
1070
    44
1040
1.0
1070
    74
1070
     0
1000
MTEXTEND
1000
MTEXTBEGIN
1070
    73
1070
     1
1070
    44
1040
1.0
1070
    74
1070
     0
1000
MTEXTEND
1000
MTEXTBEGIN
1070
    73
1070
     1
1070
    44
1040
1.0
1070
    74
1070
     0
1000
MTEXTEND
  0
MTEXT
  5
7A8B
330
7A86
100
AcDbEntity
  8
L200_
 62
     7
100
AcDbMText
 10
91.78991834852439
 20
-18.38898788775708
 30
0.0
 40
2.444193535853943
 41
0.0
 71
     1
 72
     2
  1
\W1.08;\fOsaka|b0|i0|c128;primary ==== 6.6kV
  7
STD
1001
ACAD
1000
MTEXTBEGIN
1070
    73
1070
     1
1070
    44
1040
1.0
1070
    74
1070
     0
1000
MTEXTEND
1000
MTEXTBEGIN
1070
    73
1070
     1
1070
    44
1040
1.0
1070
    74
1070
     0
1000
MTEXTEND
1000
MTEXTBEGIN
1070
    73
1070
     1
1070
    44
1040
1.0
1070
    74
1070
     0
1000
MTEXTEND
1000
MTEXTBEGIN
1070
    73
1070
     1
1070
    44
1040
1.0
1070
    74
1070
     0
1000
MTEXTEND
  0
MTEXT
  5
7A8C
330
7A86
100
AcDbEntity
  8
L200_
 62
     7
100
AcDbMText
 10
179.7980848387119
 20
-10.78314887152791
 30
0.0
 40
2.444193535853943
 41
0.0
 71
     1
 72
     2
  1
\fOsaka|b0|i0|c128;30000
  7
STD
 11
0.0
 21
1.0
 31
0.0
1001
ACAD
1000
MTEXTBEGIN
1070
    73
1070
     1
1070
    44
1040
1.0
1070
    74
1070
     0
1000
MTEXTEND
1000
MTEXTBEGIN
1070
    73
1070
     1
1070
    44
1040
1.0
1070
    74
1070
     0
1000
MTEXTEND
1000
MTEXTBEGIN
1070
    73
1070
     1
1070
    44
1040
1.0
1070
    74
1070
     0
1000
MTEXTEND
1000
MTEXTBEGIN
1070
    73
1070
     1
1070
    44
1040
1.0
1070
    74
1070
     0
1000
MTEXTEND
  0
MTEXT
  5
7A8D
330
7A86
100
AcDbEntity
  8
L200_
 62
     7
100
AcDbMText
 10
172.1554850123232
 20
-10.78314887152791
 30
0.0
 40
2.444193535853943
 41
0.0
 71
     1
 72
     2
  1
\fOsaka|b0|i0|c128;20000
  7
STD
 11
0.0
 21
1.0
 31
0.0
1001
ACAD
1000
MTEXTBEGIN
1070
    73
1070
     1
1070
    44
1040
1.0
1070
    74
1070
     0
1000
MTEXTEND
1000
MTEXTBEGIN
1070
    73
1070
     1
1070
    44
1040
1.0
1070
    74
1070
     0
1000
MTEXTEND
1000
MTEXTBEGIN
1070
    73
1070
     1
1070
    44
1040
1.0
1070
    74
1070
     0
1000
MTEXTEND
1000
MTEXTBEGIN
1070
    73
1070
     1
1070
    44
1040
1.0
1070
    74
1070
     0
1000
MTEXTEND
  0
MTEXT
  5
7A8E
330
7A86
100
AcDbEntity
  8
L200_
 62
     7
100
AcDbMText
 10
159.0909939098924
 20
-10.78314887152791
 30
0.0
 40
2.444193535853943
 41
0.0
 71
     1
 72
     2
  1
\fOsaka|b0|i0|c128;10000
  7
STD
 11
0.0
 21
1.0
 31
0.0
1001
ACAD
1000
MTEXTBEGIN
1070
    73
1070
     1
1070
    44
1040
1.0
1070
    74
1070
     0
1000
MTEXTEND
1000
MTEXTBEGIN
1070
    73
1070
     1
1070
    44
1040
1.0
1070
    74
1070
     0
1000
MTEXTEND
1000
MTEXTBEGIN
1070
    73
1070
     1
1070
    44
1040
1.0
1070
    74
1070
     0
1000
MTEXTEND
1000
MTEXTBEGIN
1070
    73
1070
     1
1070
    44
1040
1.0
1070
    74
1070
     0
1000
MTEXTEND
  0
MTEXT
  5
7A8F
330
7A86
100
AcDbEntity
  8
L200_
 62
     7
100
AcDbMText
 10
154.8852213404479
 20
-9.140871853298591
 30
0.0
 40
2.444193535853943
 41
0.0
 71
     1
 72
     2
  1
\fOsaka|b0|i0|c128;8000
  7
STD
 11
0.0
 21
1.0
 31
0.0
1001
ACAD
1000
MTEXTBEGIN
1070
    73
1070
     1
1070
    44
1040
1.0
1070
    74
1070
     0
1000
MTEXTEND
1000
MTEXTBEGIN
1070
    73
1070
     1
1070
    44
1040
1.0
1070
    74
1070
     0
1000
MTEXTEND
1000
MTEXTBEGIN
1070
    73
1070
     1
1070
    44
1040
1.0
1070
    74
1070
     0
1000
MTEXTEND
1000
MTEXTBEGIN
1070
    73
1070
     1
1070
    44
1040
1.0
1070
    74
1070
     0
1000
MTEXTEND
  0
MTEXT
  5
7A90
330
7A86
100
AcDbEntity
  8
L200_
 62
     7
100
AcDbMText
 10
146.026502807462
 20
-9.140871853298591
 30
0.0
 40
2.444193535853943
 41
0.0
 71
     1
 72
     2
  1
\fOsaka|b0|i0|c128;5000
  7
STD
 11
0.0
 21
1.0
 31
0.0
1001
ACAD
1000
MTEXTBEGIN
1070
    73
1070
     1
1070
    44
1040
1.0
1070
    74
1070
     0
1000
MTEXTEND
1000
MTEXTBEGIN
1070
    73
1070
     1
1070
    44
1040
1.0
1070
    74
1070
     0
1000
MTEXTEND
1000
MTEXTBEGIN
1070
    73
1070
     1
1070
    44
1040
1.0
1070
    74
1070
     0
1000
MTEXTEND
1000
MTEXTBEGIN
1070
    73
1070
     1
1070
    44
1040
1.0
1070
    74
1070
     0
1000
MTEXTEND
  0
MTEXT
  5
7A91
330
7A86
100
AcDbEntity
  8
L200_
 62
     7
100
AcDbMText
 10
136.3981499428787
 20
-9.140871853298591
 30
0.0
 40
2.444193535853943
 41
0.0
 71
     1
 72
     2
  1
\fOsaka|b0|i0|c128;3000
  7
STD
 11
0.0
 21
1.0
 31
0.0
1001
ACAD
1000
MTEXTBEGIN
1070
    73
1070
     1
1070
    44
1040
1.0
1070
    74
1070
     0
1000
MTEXTEND
1000
MTEXTBEGIN
1070
    73
1070
     1
1070
    44
1040
1.0
1070
    74
1070
     0
1000
MTEXTEND
1000
MTEXTBEGIN
1070
    73
1070
     1
1070
    44
1040
1.0
1070
    74
1070
     0
1000
MTEXTEND
1000
MTEXTBEGIN
1070
    73
1070
     1
1070
    44
1040
1.0
1070
    74
1070
     0
1000
MTEXTEND
  0
MTEXT
  5
7A92
330
7A86
100
AcDbEntity
  8
L200_
 62
     7
100
AcDbMText
 10
128.7555501164897
 20
-9.140871853298591
 30
0.0
 40
2.444193535853943
 41
0.0
 71
     1
 72
     2
  1
\fOsaka|b0|i0|c128;2000
  7
STD
 11
0.0
 21
1.0
 31
0.0
1001
ACAD
1000
MTEXTBEGIN
1070
    73
1070
     1
1070
    44
1040
1.0
1070
    74
1070
     0
1000
MTEXTEND
1000
MTEXTBEGIN
1070
    73
1070
     1
1070
    44
1040
1.0
1070
    74
1070
     0
1000
MTEXTEND
1000
MTEXTBEGIN
1070
    73
1070
     1
1070
    44
1040
1.0
1070
    74
1070
     0
1000
MTEXTEND
1000
MTEXTBEGIN
1070
    73
1070
     1
1070
    44
1040
1.0
1070
    74
1070
     0
1000
MTEXTEND
  0
MTEXT
  5
7A93
330
7A86
100
AcDbEntity
  8
L200_
 62
     7
100
AcDbMText
 10
115.6910590140592
 20
-9.140871853298591
 30
0.0
 40
2.444193535853943
 41
0.0
 71
     1
 72
     2
  1
\fOsaka|b0|i0|c128;1000
  7
STD
 11
0.0
 21
1.0
 31
0.0
1001
ACAD
1000
MTEXTBEGIN
1070
    73
1070
     1
1070
    44
1040
1.0
1070
    74
1070
     0
1000
MTEXTEND
1000
MTEXTBEGIN
1070
    73
1070
     1
1070
    44
1040
1.0
1070
    74
1070
     0
1000
MTEXTEND
1000
MTEXTBEGIN
1070
    73
1070
     1
1070
    44
1040
1.0
1070
    74
1070
     0
1000
MTEXTEND
1000
MTEXTBEGIN
1070
    73
1070
     1
1070
    44
1040
1.0
1070
    74
1070
     0
1000
MTEXTEND
  0
MTEXT
  5
7A94
330
7A86
100
AcDbEntity
  8
L200_
 62
     7
100
AcDbMText
 10
111.4852864446149
 20
-7.498250325520896
 30
0.0
 40
2.444193535853943
 41
0.0
 71
     1
 72
     2
  1
\fOsaka|b0|i0|c128;800
  7
STD
 11
0.0
 21
1.0
 31
0.0
1001
ACAD
1000
MTEXTBEGIN
1070
    73
1070
     1
1070
    44
1040
1.0
1070
    74
1070
     0
1000
MTEXTEND
1000
MTEXTBEGIN
1070
    73
1070
     1
1070
    44
1040
1.0
1070
    74
1070
     0
1000
MTEXTEND
1000
MTEXTBEGIN
1070
    73
1070
     1
1070
    44
1040
1.0
1070
    74
1070
     0
1000
MTEXTEND
1000
MTEXTBEGIN
1070
    73
1070
     1
1070
    44
1040
1.0
1070
    74
1070
     0
1000
MTEXTEND
  0
MTEXT
  5
7A95
330
7A86
100
AcDbEntity
  8
L200_
 62
     7
100
AcDbMText
 10
102.6265679116288
 20
-7.498250325520896
 30
0.0
 40
2.444193535853943
 41
0.0
 71
     1
 72
     2
  1
\fOsaka|b0|i0|c128;500
  7
STD
 11
0.0
 21
1.0
 31
0.0
1001
ACAD
1000
MTEXTBEGIN
1070
    73
1070
     1
1070
    44
1040
1.0
1070
    74
1070
     0
1000
MTEXTEND
1000
MTEXTBEGIN
1070
    73
1070
     1
1070
    44
1040
1.0
1070
    74
1070
     0
1000
MTEXTEND
1000
MTEXTBEGIN
1070
    73
1070
     1
1070
    44
1040
1.0
1070
    74
1070
     0
1000
MTEXTEND
1000
MTEXTBEGIN
1070
    73
1070
     1
1070
    44
1040
1.0
1070
    74
1070
     0
1000
MTEXTEND
  0
MTEXT
  5
7A96
330
7A86
100
AcDbEntity
  8
L200_
 62
     7
100
AcDbMText
 10
92.9982150470454
 20
-7.498250325520896
 30
0.0
 40
2.444193535853943
 41
0.0
 71
     1
 72
     2
  1
\fOsaka|b0|i0|c128;300
  7
STD
 11
0.0
 21
1.0
 31
0.0
1001
ACAD
1000
MTEXTBEGIN
1070
    73
1070
     1
1070
    44
1040
1.0
1070
    74
1070
     0
1000
MTEXTEND
1000
MTEXTBEGIN
1070
    73
1070
     1
1070
    44
1040
1.0
1070
    74
1070
     0
1000
MTEXTEND
1000
MTEXTBEGIN
1070
    73
1070
     1
1070
    44
1040
1.0
1070
    74
1070
     0
1000
MTEXTEND
1000
MTEXTBEGIN
1070
    73
1070
     1
1070
    44
1040
1.0
1070
    74
1070
     0
1000
MTEXTEND
  0
MTEXT
  5
7A97
330
7A86
100
AcDbEntity
  8
L200_
 62
     7
100
AcDbMText
 10
85.35561522065652
 20
-7.498250325520896
 30
0.0
 40
2.444193535853943
 41
0.0
 71
     1
 72
     2
  1
\fOsaka|b0|i0|c128;200
  7
STD
 11
0.0
 21
1.0
 31
0.0
1001
ACAD
1000
MTEXTBEGIN
1070
    73
1070
     1
1070
    44
1040
1.0
1070
    74
1070
     0
1000
MTEXTEND
1000
MTEXTBEGIN
1070
    73
1070
     1
1070
    44
1040
1.0
1070
    74
1070
     0
1000
MTEXTEND
1000
MTEXTBEGIN
1070
    73
1070
     1
1070
    44
1040
1.0
1070
    74
1070
     0
1000
MTEXTEND
1000
MTEXTBEGIN
1070
    73
1070
     1
1070
    44
1040
1.0
1070
    74
1070
     0
1000
MTEXTEND
  0
MTEXT
  5
7A98
330
7A86
100
AcDbEntity
  8
L200_
 62
     7
100
AcDbMText
 10
72.2911241182259
 20
-7.498250325520896
 30
0.0
 40
2.444193535853943
 41
0.0
 71
     1
 72
     2
  1
\fOsaka|b0|i0|c128;100
  7
STD
 11
0.0
 21
1.0
 31
0.0
1001
ACAD
1000
MTEXTBEGIN
1070
    73
1070
     1
1070
    44
1040
1.0
1070
    74
1070
     0
1000
MTEXTEND
1000
MTEXTBEGIN
1070
    73
1070
     1
1070
    44
1040
1.0
1070
    74
1070
     0
1000
MTEXTEND
1000
MTEXTBEGIN
1070
    73
1070
     1
1070
    44
1040
1.0
1070
    74
1070
     0
1000
MTEXTEND
1000
MTEXTBEGIN
1070
    73
1070
     1
1070
    44
1040
1.0
1070
    74
1070
     0
1000
MTEXTEND
  0
MTEXT
  5
7A99
330
7A86
100
AcDbEntity
  8
L200_
 62
     7
100
AcDbMText
 10
68.0851792940073
 20
-5.855628797743205
 30
0.0
 40
2.444193535853943
 41
0.0
 71
     1
 72
     2
  1
\fOsaka|b0|i0|c128;80
  7
STD
 11
0.0
 21
1.0
 31
0.0
1001
ACAD
1000
MTEXTBEGIN
1070
    73
1070
     1
1070
    44
1040
1.0
1070
    74
1070
     0
1000
MTEXTEND
1000
MTEXTBEGIN
1070
    73
1070
     1
1070
    44
1040
1.0
1070
    74
1070
     0
1000
MTEXTEND
1000
MTEXTBEGIN
1070
    73
1070
     1
1070
    44
1040
1.0
1070
    74
1070
     0
1000
MTEXTEND
1000
MTEXTBEGIN
1070
    73
1070
     1
1070
    44
1040
1.0
1070
    74
1070
     0
1000
MTEXTEND
  0
MTEXT
  5
7A9A
330
7A86
100
AcDbEntity
  8
L200_
 62
     7
100
AcDbMText
 10
59.2264607610212
 20
-5.855628797743205
 30
0.0
 40
2.444193535853943
 41
0.0
 71
     1
 72
     2
  1
\fOsaka|b0|i0|c128;50
  7
STD
 11
0.0
 21
1.0
 31
0.0
1001
ACAD
1000
MTEXTBEGIN
1070
    73
1070
     1
1070
    44
1040
1.0
1070
    74
1070
     0
1000
MTEXTEND
1000
MTEXTBEGIN
1070
    73
1070
     1
1070
    44
1040
1.0
1070
    74
1070
     0
1000
MTEXTEND
1000
MTEXTBEGIN
1070
    73
1070
     1
1070
    44
1040
1.0
1070
    74
1070
     0
1000
MTEXTEND
1000
MTEXTBEGIN
1070
    73
1070
     1
1070
    44
1040
1.0
1070
    74
1070
     0
1000
MTEXTEND
  0
MTEXT
  5
7A9B
330
7A86
100
AcDbEntity
  8
L200_
 62
     7
100
AcDbMText
 10
49.59810789643778
 20
-5.855628797743205
 30
0.0
 40
2.444193535853943
 41
0.0
 71
     1
 72
     2
  1
\fOsaka|b0|i0|c128;30
  7
STD
 11
0.0
 21
1.0
 31
0.0
1001
ACAD
1000
MTEXTBEGIN
1070
    73
1070
     1
1070
    44
1040
1.0
1070
    74
1070
     0
1000
MTEXTEND
1000
MTEXTBEGIN
1070
    73
1070
     1
1070
    44
1040
1.0
1070
    74
1070
     0
1000
MTEXTEND
1000
MTEXTBEGIN
1070
    73
1070
     1
1070
    44
1040
1.0
1070
    74
1070
     0
1000
MTEXTEND
1000
MTEXTBEGIN
1070
    73
1070
     1
1070
    44
1040
1.0
1070
    74
1070
     0
1000
MTEXTEND
  0
MTEXT
  5
7A9C
330
7A86
100
AcDbEntity
  8
L200_
 62
     7
100
AcDbMText
 10
41.9558525795975
 20
-5.855628797743205
 30
0.0
 40
2.444193535853943
 41
0.0
 71
     1
 72
     2
  1
\fOsaka|b0|i0|c128;20
  7
STD
 11
0.0
 21
1.0
 31
0.0
1001
ACAD
1000
MTEXTBEGIN
1070
    73
1070
     1
1070
    44
1040
1.0
1070
    74
1070
     0
1000
MTEXTEND
1000
MTEXTBEGIN
1070
    73
1070
     1
1070
    44
1040
1.0
1070
    74
1070
     0
1000
MTEXTEND
1000
MTEXTBEGIN
1070
    73
1070
     1
1070
    44
1040
1.0
1070
    74
1070
     0
1000
MTEXTEND
1000
MTEXTBEGIN
1070
    73
1070
     1
1070
    44
1040
1.0
1070
    74
1070
     0
1000
MTEXTEND
  0
MTEXT
  5
7A9D
330
7A86
100
AcDbEntity
  8
L200_
 62
     7
100
AcDbMText
 10
28.89101696761841
 20
-5.855628797743205
 30
0.0
 40
2.444193535853943
 41
0.0
 71
     1
 72
     2
  1
\fOsaka|b0|i0|c128;10
  7
STD
 11
0.0
 21
1.0
 31
0.0
1001
ACAD
1000
MTEXTBEGIN
1070
    73
1070
     1
1070
    44
1040
1.0
1070
    74
1070
     0
1000
MTEXTEND
1000
MTEXTBEGIN
1070
    73
1070
     1
1070
    44
1040
1.0
1070
    74
1070
     0
1000
MTEXTEND
1000
MTEXTBEGIN
1070
    73
1070
     1
1070
    44
1040
1.0
1070
    74
1070
     0
1000
MTEXTEND
1000
MTEXTBEGIN
1070
    73
1070
     1
1070
    44
1040
1.0
1070
    74
1070
     0
1000
MTEXTEND
  0
MTEXT
  5
7A9E
330
7A86
100
AcDbEntity
  8
L200_
 62
     7
100
AcDbMText
 10
24.68524439817389
 20
-4.213351779513912
 30
0.0
 40
2.444193535853943
 41
0.0
 71
     1
 72
     2
  1
\fOsaka|b0|i0|c128;8
  7
STD
 11
0.0
 21
1.0
 31
0.0
1001
ACAD
1000
MTEXTBEGIN
1070
    73
1070
     1
1070
    44
1040
1.0
1070
    74
1070
     0
1000
MTEXTEND
1000
MTEXTBEGIN
1070
    73
1070
     1
1070
    44
1040
1.0
1070
    74
1070
     0
1000
MTEXTEND
1000
MTEXTBEGIN
1070
    73
1070
     1
1070
    44
1040
1.0
1070
    74
1070
     0
1000
MTEXTEND
1000
MTEXTBEGIN
1070
    73
1070
     1
1070
    44
1040
1.0
1070
    74
1070
     0
1000
MTEXTEND
  0
MTEXT
  5
7A9F
330
7A86
100
AcDbEntity
  8
L200_
 62
     7
100
AcDbMText
 10
15.82652586518777
 20
-4.213351779513912
 30
0.0
 40
2.444193535853943
 41
0.0
 71
     1
 72
     2
  1
\fOsaka|b0|i0|c128;5
  7
STD
 11
0.0
 21
1.0
 31
0.0
1001
ACAD
1000
MTEXTBEGIN
1070
    73
1070
     1
1070
    44
1040
1.0
1070
    74
1070
     0
1000
MTEXTEND
1000
MTEXTBEGIN
1070
    73
1070
     1
1070
    44
1040
1.0
1070
    74
1070
     0
1000
MTEXTEND
1000
MTEXTBEGIN
1070
    73
1070
     1
1070
    44
1040
1.0
1070
    74
1070
     0
1000
MTEXTEND
1000
MTEXTBEGIN
1070
    73
1070
     1
1070
    44
1040
1.0
1070
    74
1070
     0
1000
MTEXTEND
  0
MTEXT
  5
7AA0
330
7A86
100
AcDbEntity
  8
L200_
 62
     7
100
AcDbMText
 10
6.198173000604382
 20
-4.213351779513912
 30
0.0
 40
2.444193535853943
 41
0.0
 71
     1
 72
     2
  1
\fOsaka|b0|i0|c128;3
  7
STD
 11
0.0
 21
1.0
 31
0.0
1001
ACAD
1000
MTEXTBEGIN
1070
    73
1070
     1
1070
    44
1040
1.0
1070
    74
1070
     0
1000
MTEXTEND
1000
MTEXTBEGIN
1070
    73
1070
     1
1070
    44
1040
1.0
1070
    74
1070
     0
1000
MTEXTEND
1000
MTEXTBEGIN
1070
    73
1070
     1
1070
    44
1040
1.0
1070
    74
1070
     0
1000
MTEXTEND
1000
MTEXTBEGIN
1070
    73
1070
     1
1070
    44
1040
1.0
1070
    74
1070
     0
1000
MTEXTEND
  0
MTEXT
  5
7AA1
330
7A86
100
AcDbEntity
  8
L200_
 62
     7
100
AcDbMText
 10
-1.332977986808797
 20
-4.213351779513912
 30
0.0
 40
2.444193535853943
 41
0.0
 71
     1
 72
     2
  1
\fOsaka|b0|i0|c128;2
  7
STD
 11
0.0
 21
1.0
 31
0.0
1001
ACAD
1000
MTEXTBEGIN
1070
    73
1070
     1
1070
    44
1040
1.0
1070
    74
1070
     0
1000
MTEXTEND
1000
MTEXTBEGIN
1070
    73
1070
     1
1070
    44
1040
1.0
1070
    74
1070
     0
1000
MTEXTEND
1000
MTEXTBEGIN
1070
    73
1070
     1
1070
    44
1040
1.0
1070
    74
1070
     0
1000
MTEXTEND
1000
MTEXTBEGIN
1070
    73
1070
     1
1070
    44
1040
1.0
1070
    74
1070
     0
1000
MTEXTEND
  0
MTEXT
  5
7AA2
330
7A86
100
AcDbEntity
  8
L200_
 62
     7
100
AcDbMText
 10
-8.931582302517282
 20
1.440292711201209
 30
0.0
 40
2.444193535853943
 41
0.0
 71
     1
 72
     2
  1
\W1.02;\fOsaka|b0|i0|c128;0.01
  7
STD
1001
ACAD
1000
MTEXTBEGIN
1070
    73
1070
     1
1070
    44
1040
1.0
1070
    74
1070
     0
1000
MTEXTEND
1000
MTEXTBEGIN
1070
    73
1070
     1
1070
    44
1040
1.0
1070
    74
1070
     0
1000
MTEXTEND
1000
MTEXTBEGIN
1070
    73
1070
     1
1070
    44
1040
1.0
1070
    74
1070
     0
1000
MTEXTEND
1000
MTEXTBEGIN
1070
    73
1070
     1
1070
    44
1040
1.0
1070
    74
1070
     0
1000
MTEXTEND
  0
MTEXT
  5
7AA3
330
7A86
100
AcDbEntity
  8
L200_
 62
     7
100
AcDbMText
 10
-9.508635796440898
 20
14.51167400460391
 30
0.0
 40
2.444193535853943
 41
0.0
 71
     1
 72
     2
  1
\W1.11;\fOsaka|b0|i0|c128;0.02
  7
STD
1001
ACAD
1000
MTEXTBEGIN
1070
    73
1070
     1
1070
    44
1040
1.0
1070
    74
1070
     0
1000
MTEXTEND
1000
MTEXTBEGIN
1070
    73
1070
     1
1070
    44
1040
1.0
1070
    74
1070
     0
1000
MTEXTEND
1000
MTEXTBEGIN
1070
    73
1070
     1
1070
    44
1040
1.0
1070
    74
1070
     0
1000
MTEXTEND
1000
MTEXTBEGIN
1070
    73
1070
     1
1070
    44
1040
1.0
1070
    74
1070
     0
1000
MTEXTEND
  0
MTEXT
  5
7AA4
330
7A86
100
AcDbEntity
  8
L200_
 62
     7
100
AcDbMText
 10
-9.700872124565904
 20
22.15151775460378
 30
0.0
 40
2.444193535853943
 41
0.0
 71
     1
 72
     2
  1
\W1.14;\fOsaka|b0|i0|c128;0.03
  7
STD
1001
ACAD
1000
MTEXTBEGIN
1070
    73
1070
     1
1070
    44
1040
1.0
1070
    74
1070
     0
1000
MTEXTEND
1000
MTEXTBEGIN
1070
    73
1070
     1
1070
    44
1040
1.0
1070
    74
1070
     0
1000
MTEXTEND
1000
MTEXTBEGIN
1070
    73
1070
     1
1070
    44
1040
1.0
1070
    74
1070
     0
1000
MTEXTEND
1000
MTEXTBEGIN
1070
    73
1070
     1
1070
    44
1040
1.0
1070
    74
1070
     0
1000
MTEXTEND
  0
MTEXT
  5
7AA5
330
7A86
100
AcDbEntity
  8
L200_
 62
     7
100
AcDbMText
 10
-9.700872124565904
 20
27.57409804974281
 30
0.0
 40
2.444193535853943
 41
0.0
 71
     1
 72
     2
  1
\W1.14;\fOsaka|b0|i0|c128;0.04
  7
STD
1001
ACAD
1000
MTEXTBEGIN
1070
    73
1070
     1
1070
    44
1040
1.0
1070
    74
1070
     0
1000
MTEXTEND
1000
MTEXTBEGIN
1070
    73
1070
     1
1070
    44
1040
1.0
1070
    74
1070
     0
1000
MTEXTEND
1000
MTEXTBEGIN
1070
    73
1070
     1
1070
    44
1040
1.0
1070
    74
1070
     0
1000
MTEXTEND
1000
MTEXTBEGIN
1070
    73
1070
     1
1070
    44
1040
1.0
1070
    74
1070
     0
1000
MTEXTEND
  0
MTEXT
  5
7AA6
330
7A86
100
AcDbEntity
  8
L200_
 62
     7
100
AcDbMText
 10
-9.700872124565904
 20
31.7826266955762
 30
0.0
 40
2.444193535853943
 41
0.0
 71
     1
 72
     2
  1
\W1.14;\fOsaka|b0|i0|c128;0.05
  7
STD
1001
ACAD
1000
MTEXTBEGIN
1070
    73
1070
     1
1070
    44
1040
1.0
1070
    74
1070
     0
1000
MTEXTEND
1000
MTEXTBEGIN
1070
    73
1070
     1
1070
    44
1040
1.0
1070
    74
1070
     0
1000
MTEXTEND
1000
MTEXTBEGIN
1070
    73
1070
     1
1070
    44
1040
1.0
1070
    74
1070
     0
1000
MTEXTEND
1000
MTEXTBEGIN
1070
    73
1070
     1
1070
    44
1040
1.0
1070
    74
1070
     0
1000
MTEXTEND
  0
MTEXT
  5
7AA7
330
7A86
100
AcDbEntity
  8
L200_
 62
     7
100
AcDbMText
 10
-6.816293674044999
 20
44.84918485529839
 30
0.0
 40
2.444193535853943
 41
0.0
 71
     1
 72
     2
  1
\W0.94;\fOsaka|b0|i0|c128;0.1
  7
STD
1001
ACAD
1000
MTEXTBEGIN
1070
    73
1070
     1
1070
    44
1040
1.0
1070
    74
1070
     0
1000
MTEXTEND
1000
MTEXTBEGIN
1070
    73
1070
     1
1070
    44
1040
1.0
1070
    74
1070
     0
1000
MTEXTEND
1000
MTEXTBEGIN
1070
    73
1070
     1
1070
    44
1040
1.0
1070
    74
1070
     0
1000
MTEXTEND
1000
MTEXTBEGIN
1070
    73
1070
     1
1070
    44
1040
1.0
1070
    74
1070
     0
1000
MTEXTEND
  0
MTEXT
  5
7AA8
330
7A86
100
AcDbEntity
  8
L200_
 62
     7
100
AcDbMText
 10
-7.393174913194285
 20
57.90885282404833
 30
0.0
 40
2.444193535853943
 41
0.0
 71
     1
 72
     2
  1
\W1.05;\fOsaka|b0|i0|c128;0.2
  7
STD
1001
ACAD
1000
MTEXTBEGIN
1070
    73
1070
     1
1070
    44
1040
1.0
1070
    74
1070
     0
1000
MTEXTEND
1000
MTEXTBEGIN
1070
    73
1070
     1
1070
    44
1040
1.0
1070
    74
1070
     0
1000
MTEXTEND
1000
MTEXTBEGIN
1070
    73
1070
     1
1070
    44
1040
1.0
1070
    74
1070
     0
1000
MTEXTEND
1000
MTEXTBEGIN
1070
    73
1070
     1
1070
    44
1040
1.0
1070
    74
1070
     0
1000
MTEXTEND
  0
MTEXT
  5
7AA9
330
7A86
100
AcDbEntity
  8
L200_
 62
     7
100
AcDbMText
 10
-7.585583496093589
 20
65.55145265043711
 30
0.0
 40
2.444193535853943
 41
0.0
 71
     1
 72
     2
  1
\W1.09;\fOsaka|b0|i0|c128;0.3
  7
STD
1001
ACAD
1000
MTEXTBEGIN
1070
    73
1070
     1
1070
    44
1040
1.0
1070
    74
1070
     0
1000
MTEXTEND
1000
MTEXTBEGIN
1070
    73
1070
     1
1070
    44
1040
1.0
1070
    74
1070
     0
1000
MTEXTEND
1000
MTEXTBEGIN
1070
    73
1070
     1
1070
    44
1040
1.0
1070
    74
1070
     0
1000
MTEXTEND
1000
MTEXTBEGIN
1070
    73
1070
     1
1070
    44
1040
1.0
1070
    74
1070
     0
1000
MTEXTEND
  0
MTEXT
  5
7AAA
330
7A86
100
AcDbEntity
  8
L200_
 62
     7
100
AcDbMText
 10
-7.585583496093589
 20
70.97403294557614
 30
0.0
 40
2.444193535853943
 41
0.0
 71
     1
 72
     2
  1
\W1.09;\fOsaka|b0|i0|c128;0.4
  7
STD
1001
ACAD
1000
MTEXTBEGIN
1070
    73
1070
     1
1070
    44
1040
1.0
1070
    74
1070
     0
1000
MTEXTEND
1000
MTEXTBEGIN
1070
    73
1070
     1
1070
    44
1040
1.0
1070
    74
1070
     0
1000
MTEXTEND
1000
MTEXTBEGIN
1070
    73
1070
     1
1070
    44
1040
1.0
1070
    74
1070
     0
1000
MTEXTEND
1000
MTEXTBEGIN
1070
    73
1070
     1
1070
    44
1040
1.0
1070
    74
1070
     0
1000
MTEXTEND
  0
MTEXT
  5
7AAB
330
7A86
100
AcDbEntity
  8
L200_
 62
     7
100
AcDbMText
 10
-7.585583496093589
 20
75.16258003759003
 30
0.0
 40
2.444193535853943
 41
0.0
 71
     1
 72
     2
  1
\W1.09;\fOsaka|b0|i0|c128;0.5
  7
STD
1001
ACAD
1000
MTEXTBEGIN
1070
    73
1070
     1
1070
    44
1040
1.0
1070
    74
1070
     0
1000
MTEXTEND
1000
MTEXTBEGIN
1070
    73
1070
     1
1070
    44
1040
1.0
1070
    74
1070
     0
1000
MTEXTEND
1000
MTEXTBEGIN
1070
    73
1070
     1
1070
    44
1040
1.0
1070
    74
1070
     0
1000
MTEXTEND
1000
MTEXTBEGIN
1070
    73
1070
     1
1070
    44
1040
1.0
1070
    74
1070
     0
1000
MTEXTEND
  0
MTEXT
  5
7AAC
330
7A86
100
AcDbEntity
  8
L200_
 62
     7
100
AcDbMText
 10
-3.547070312499896
 20
88.23671740738173
 30
0.0
 40
2.444193535853943
 41
0.0
 71
     1
 72
     2
  1
\W0.82;\fOsaka|b0|i0|c128;1
  7
STD
1001
ACAD
1000
MTEXTBEGIN
1070
    73
1070
     1
1070
    44
1040
1.0
1070
    74
1070
     0
1000
MTEXTEND
1000
MTEXTBEGIN
1070
    73
1070
     1
1070
    44
1040
1.0
1070
    74
1070
     0
1000
MTEXTEND
1000
MTEXTBEGIN
1070
    73
1070
     1
1070
    44
1040
1.0
1070
    74
1070
     0
1000
MTEXTEND
1000
MTEXTBEGIN
1070
    73
1070
     1
1070
    44
1040
1.0
1070
    74
1070
     0
1000
MTEXTEND
  0
MTEXT
  5
7AAD
330
7A86
100
AcDbEntity
  8
L200_
 62
     7
100
AcDbMText
 10
-4.123951551649184
 20
101.272958726826
 30
0.0
 40
2.444193535853943
 41
0.0
 71
     1
 72
     2
  1
\W1.17;\fOsaka|b0|i0|c128;2
  7
STD
1001
ACAD
1000
MTEXTBEGIN
1070
    73
1070
     1
1070
    44
1040
1.0
1070
    74
1070
     0
1000
MTEXTEND
1000
MTEXTBEGIN
1070
    73
1070
     1
1070
    44
1040
1.0
1070
    74
1070
     0
1000
MTEXTEND
1000
MTEXTBEGIN
1070
    73
1070
     1
1070
    44
1040
1.0
1070
    74
1070
     0
1000
MTEXTEND
1000
MTEXTBEGIN
1070
    73
1070
     1
1070
    44
1040
1.0
1070
    74
1070
     0
1000
MTEXTEND
  0
MTEXT
  5
7AAE
330
7A86
100
AcDbEntity
  8
L200_
 62
     7
100
AcDbMText
 10
-4.316360134548514
 20
108.9517320558192
 30
0.0
 40
2.444193535853943
 41
0.0
 71
     1
 72
     2
  1
\W1.29;\fOsaka|b0|i0|c128;3
  7
STD
1001
ACAD
1000
MTEXTBEGIN
1070
    73
1070
     1
1070
    44
1040
1.0
1070
    74
1070
     0
1000
MTEXTEND
1000
MTEXTBEGIN
1070
    73
1070
     1
1070
    44
1040
1.0
1070
    74
1070
     0
1000
MTEXTEND
1000
MTEXTBEGIN
1070
    73
1070
     1
1070
    44
1040
1.0
1070
    74
1070
     0
1000
MTEXTEND
1000
MTEXTBEGIN
1070
    73
1070
     1
1070
    44
1040
1.0
1070
    74
1070
     0
1000
MTEXTEND
  0
MTEXT
  5
7AAF
330
7A86
100
AcDbEntity
  8
L200_
 62
     7
100
AcDbMText
 10
-4.316360134548514
 20
114.374312350958
 30
0.0
 40
2.444193535853943
 41
0.0
 71
     1
 72
     2
  1
\W1.29;\fOsaka|b0|i0|c128;4
  7
STD
1001
ACAD
1000
MTEXTBEGIN
1070
    73
1070
     1
1070
    44
1040
1.0
1070
    74
1070
     0
1000
MTEXTEND
1000
MTEXTBEGIN
1070
    73
1070
     1
1070
    44
1040
1.0
1070
    74
1070
     0
1000
MTEXTEND
1000
MTEXTBEGIN
1070
    73
1070
     1
1070
    44
1040
1.0
1070
    74
1070
     0
1000
MTEXTEND
1000
MTEXTBEGIN
1070
    73
1070
     1
1070
    44
1040
1.0
1070
    74
1070
     0
1000
MTEXTEND
  0
MTEXT
  5
7AB0
330
7A86
100
AcDbEntity
  8
L200_
 62
     7
100
AcDbMText
 10
-4.316360134548514
 20
118.5787068822081
 30
0.0
 40
2.444193535853943
 41
0.0
 71
     1
 72
     2
  1
\W1.29;\fOsaka|b0|i0|c128;5
  7
STD
1001
ACAD
1000
MTEXTBEGIN
1070
    73
1070
     1
1070
    44
1040
1.0
1070
    74
1070
     0
1000
MTEXTEND
1000
MTEXTBEGIN
1070
    73
1070
     1
1070
    44
1040
1.0
1070
    74
1070
     0
1000
MTEXTEND
1000
MTEXTBEGIN
1070
    73
1070
     1
1070
    44
1040
1.0
1070
    74
1070
     0
1000
MTEXTEND
1000
MTEXTBEGIN
1070
    73
1070
     1
1070
    44
1040
1.0
1070
    74
1070
     0
1000
MTEXTEND
  0
MTEXT
  5
7AB1
330
7A86
100
AcDbEntity
  8
L200_
 62
     7
100
AcDbMText
 10
-5.662358940972097
 20
131.6445760228331
 30
0.0
 40
2.444193535853943
 41
0.0
 71
     1
 72
     2
  1
\W1.05;\fOsaka|b0|i0|c128;10
  7
STD
1001
ACAD
1000
MTEXTBEGIN
1070
    73
1070
     1
1070
    44
1040
1.0
1070
    74
1070
     0
1000
MTEXTEND
1000
MTEXTBEGIN
1070
    73
1070
     1
1070
    44
1040
1.0
1070
    74
1070
     0
1000
MTEXTEND
1000
MTEXTBEGIN
1070
    73
1070
     1
1070
    44
1040
1.0
1070
    74
1070
     0
1000
MTEXTEND
1000
MTEXTBEGIN
1070
    73
1070
     1
1070
    44
1040
1.0
1070
    74
1070
     0
1000
MTEXTEND
  0
MTEXT
  5
7AB2
330
7A86
100
AcDbEntity
  8
L200_
 62
     7
100
AcDbMText
 10
-6.239412434895682
 20
144.7011434056455
 30
0.0
 40
2.444193535853943
 41
0.0
 71
     1
 72
     2
  1
\W1.23;\fOsaka|b0|i0|c128;20
  7
STD
1001
ACAD
1000
MTEXTBEGIN
1070
    73
1070
     1
1070
    44
1040
1.0
1070
    74
1070
     0
1000
MTEXTEND
1000
MTEXTBEGIN
1070
    73
1070
     1
1070
    44
1040
1.0
1070
    74
1070
     0
1000
MTEXTEND
1000
MTEXTBEGIN
1070
    73
1070
     1
1070
    44
1040
1.0
1070
    74
1070
     0
1000
MTEXTEND
1000
MTEXTBEGIN
1070
    73
1070
     1
1070
    44
1040
1.0
1070
    74
1070
     0
1000
MTEXTEND
  0
MTEXT
  5
7AB3
330
7A86
100
AcDbEntity
  8
L200_
 62
     7
100
AcDbMText
 10
-6.431648763020686
 20
152.3516669516524
 30
0.0
 40
2.444193535853943
 41
0.0
 71
     1
 72
     2
  1
\W1.29;\fOsaka|b0|i0|c128;30
  7
STD
1001
ACAD
1000
MTEXTBEGIN
1070
    73
1070
     1
1070
    44
1040
1.0
1070
    74
1070
     0
1000
MTEXTEND
1000
MTEXTBEGIN
1070
    73
1070
     1
1070
    44
1040
1.0
1070
    74
1070
     0
1000
MTEXTEND
1000
MTEXTBEGIN
1070
    73
1070
     1
1070
    44
1040
1.0
1070
    74
1070
     0
1000
MTEXTEND
1000
MTEXTBEGIN
1070
    73
1070
     1
1070
    44
1040
1.0
1070
    74
1070
     0
1000
MTEXTEND
  0
MTEXT
  5
7AB4
330
7A86
100
AcDbEntity
  8
L200_
 62
     7
100
AcDbMText
 10
-6.431648763020686
 20
157.774074992017
 30
0.0
 40
2.444193535853943
 41
0.0
 71
     1
 72
     2
  1
\W1.29;\fOsaka|b0|i0|c128;40
  7
STD
1001
ACAD
1000
MTEXTBEGIN
1070
    73
1070
     1
1070
    44
1040
1.0
1070
    74
1070
     0
1000
MTEXTEND
1000
MTEXTBEGIN
1070
    73
1070
     1
1070
    44
1040
1.0
1070
    74
1070
     0
1000
MTEXTEND
1000
MTEXTBEGIN
1070
    73
1070
     1
1070
    44
1040
1.0
1070
    74
1070
     0
1000
MTEXTEND
1000
MTEXTBEGIN
1070
    73
1070
     1
1070
    44
1040
1.0
1070
    74
1070
     0
1000
MTEXTEND
  0
MTEXT
  5
7AB5
330
7A86
100
AcDbEntity
  8
L200_
 62
     7
100
AcDbMText
 10
-6.431648763020686
 20
161.9800198162358
 30
0.0
 40
2.444193535853943
 41
0.0
 71
     1
 72
     2
  1
\W1.29;\fOsaka|b0|i0|c128;50
  7
STD
1001
ACAD
1000
MTEXTBEGIN
1070
    73
1070
     1
1070
    44
1040
1.0
1070
    74
1070
     0
1000
MTEXTEND
1000
MTEXTBEGIN
1070
    73
1070
     1
1070
    44
1040
1.0
1070
    74
1070
     0
1000
MTEXTEND
1000
MTEXTBEGIN
1070
    73
1070
     1
1070
    44
1040
1.0
1070
    74
1070
     0
1000
MTEXTEND
1000
MTEXTBEGIN
1070
    73
1070
     1
1070
    44
1040
1.0
1070
    74
1070
     0
1000
MTEXTEND
  0
MTEXT
  5
7AB6
330
7A86
100
AcDbEntity
  8
L200_
 62
     7
100
AcDbMText
 10
-6.431648763020686
 20
165.4070285510448
 30
0.0
 40
2.444193535853943
 41
0.0
 71
     1
 72
     2
  1
\W1.29;\fOsaka|b0|i0|c128;60
  7
STD
1001
ACAD
1000
MTEXTBEGIN
1070
    73
1070
     1
1070
    44
1040
1.0
1070
    74
1070
     0
1000
MTEXTEND
1000
MTEXTBEGIN
1070
    73
1070
     1
1070
    44
1040
1.0
1070
    74
1070
     0
1000
MTEXTEND
1000
MTEXTBEGIN
1070
    73
1070
     1
1070
    44
1040
1.0
1070
    74
1070
     0
1000
MTEXTEND
1000
MTEXTBEGIN
1070
    73
1070
     1
1070
    44
1040
1.0
1070
    74
1070
     0
1000
MTEXTEND
  0
MTEXT
  5
7AB7
330
7A86
100
AcDbEntity
  8
L200_
 62
     7
100
AcDbMText
 10
-7.777819824218596
 20
175.0166056452289
 30
0.0
 40
2.444193535853943
 41
0.0
 71
     1
 72
     2
  1
\W1.13;\fOsaka|b0|i0|c128;100
  7
STD
1001
ACAD
1000
MTEXTBEGIN
1070
    73
1070
     1
1070
    44
1040
1.0
1070
    74
1070
     0
1000
MTEXTEND
1000
MTEXTBEGIN
1070
    73
1070
     1
1070
    44
1040
1.0
1070
    74
1070
     0
1000
MTEXTEND
1000
MTEXTBEGIN
1070
    73
1070
     1
1070
    44
1040
1.0
1070
    74
1070
     0
1000
MTEXTEND
1000
MTEXTBEGIN
1070
    73
1070
     1
1070
    44
1040
1.0
1070
    74
1070
     0
1000
MTEXTEND
  0
MTEXT
  5
7AB8
330
7A86
100
AcDbEntity
  8
L200_
 62
     7
100
AcDbMText
 10
-8.354701063368111
 20
188.0997002632841
 30
0.0
 40
2.444193535853943
 41
0.0
 71
     1
 72
     2
  1
\W1.25;\fOsaka|b0|i0|c128;200
  7
STD
1001
ACAD
1000
MTEXTBEGIN
1070
    73
1070
     1
1070
    44
1040
1.0
1070
    74
1070
     0
1000
MTEXTEND
1000
MTEXTBEGIN
1070
    73
1070
     1
1070
    44
1040
1.0
1070
    74
1070
     0
1000
MTEXTEND
1000
MTEXTBEGIN
1070
    73
1070
     1
1070
    44
1040
1.0
1070
    74
1070
     0
1000
MTEXTEND
1000
MTEXTBEGIN
1070
    73
1070
     1
1070
    44
1040
1.0
1070
    74
1070
     0
1000
MTEXTEND
  0
MTEXT
  5
7AB9
330
7A86
100
AcDbEntity
  8
L200_
 62
     7
100
AcDbMText
 10
-8.547109646267271
 20
195.75177410226
 30
0.0
 40
2.444193535853943
 41
0.0
 71
     1
 72
     2
  1
\W1.29;\fOsaka|b0|i0|c128;300
  7
STD
1001
ACAD
1000
MTEXTBEGIN
1070
    73
1070
     1
1070
    44
1040
1.0
1070
    74
1070
     0
1000
MTEXTEND
1000
MTEXTBEGIN
1070
    73
1070
     1
1070
    44
1040
1.0
1070
    74
1070
     0
1000
MTEXTEND
1000
MTEXTBEGIN
1070
    73
1070
     1
1070
    44
1040
1.0
1070
    74
1070
     0
1000
MTEXTEND
1000
MTEXTBEGIN
1070
    73
1070
     1
1070
    44
1040
1.0
1070
    74
1070
     0
1000
MTEXTEND
  0
MTEXT
  5
7ABA
330
7A86
100
AcDbEntity
  8
L200_
 62
     7
100
AcDbMText
 10
-8.547109646267271
 20
201.1740098878505
 30
0.0
 40
2.444193535853943
 41
0.0
 71
     1
 72
     2
  1
\W1.29;\fOsaka|b0|i0|c128;400
  7
STD
1001
ACAD
1000
MTEXTBEGIN
1070
    73
1070
     1
1070
    44
1040
1.0
1070
    74
1070
     0
1000
MTEXTEND
1000
MTEXTBEGIN
1070
    73
1070
     1
1070
    44
1040
1.0
1070
    74
1070
     0
1000
MTEXTEND
1000
MTEXTBEGIN
1070
    73
1070
     1
1070
    44
1040
1.0
1070
    74
1070
     0
1000
MTEXTEND
1000
MTEXTBEGIN
1070
    73
1070
     1
1070
    44
1040
1.0
1070
    74
1070
     0
1000
MTEXTEND
  0
MTEXT
  5
7ABB
330
7A86
100
AcDbEntity
  8
L200_
 62
     7
100
AcDbMText
 10
-8.547109646267271
 20
205.3885674507844
 30
0.0
 40
2.444193535853943
 41
0.0
 71
     1
 72
     2
  1
\W1.29;\fOsaka|b0|i0|c128;500
  7
STD
1001
ACAD
1000
MTEXTBEGIN
1070
    73
1070
     1
1070
    44
1040
1.0
1070
    74
1070
     0
1000
MTEXTEND
1000
MTEXTBEGIN
1070
    73
1070
     1
1070
    44
1040
1.0
1070
    74
1070
     0
1000
MTEXTEND
1000
MTEXTBEGIN
1070
    73
1070
     1
1070
    44
1040
1.0
1070
    74
1070
     0
1000
MTEXTEND
1000
MTEXTBEGIN
1070
    73
1070
     1
1070
    44
1040
1.0
1070
    74
1070
     0
1000
MTEXTEND
  0
MTEXT
  5
7ABC
330
7A86
100
AcDbEntity
  8
L200_
 62
     7
100
AcDbMText
 10
-9.89328070746518
 20
218.4428955215309
 30
0.0
 40
2.444193535853943
 41
0.0
 71
     1
 72
     2
  1
\W1.17;\fOsaka|b0|i0|c128;1000
  7
STD
1001
ACAD
1000
MTEXTBEGIN
1070
    73
1070
     1
1070
    44
1040
1.0
1070
    74
1070
     0
1000
MTEXTEND
1000
MTEXTBEGIN
1070
    73
1070
     1
1070
    44
1040
1.0
1070
    74
1070
     0
1000
MTEXTEND
1000
MTEXTBEGIN
1070
    73
1070
     1
1070
    44
1040
1.0
1070
    74
1070
     0
1000
MTEXTEND
1000
MTEXTBEGIN
1070
    73
1070
     1
1070
    44
1040
1.0
1070
    74
1070
     0
1000
MTEXTEND
  0
MTEXT
  5
7ABD
330
7A86
100
AcDbEntity
  8
L200_
 62
     7
100
AcDbMText
 10
-10.47016194661461
 20
231.509281426479
 30
0.0
 40
2.444193535853943
 41
0.0
 71
     1
 72
     2
  1
\W1.26;\fOsaka|b0|i0|c128;2000
  7
STD
1001
ACAD
1000
MTEXTBEGIN
1070
    73
1070
     1
1070
    44
1040
1.0
1070
    74
1070
     0
1000
MTEXTEND
1000
MTEXTBEGIN
1070
    73
1070
     1
1070
    44
1040
1.0
1070
    74
1070
     0
1000
MTEXTEND
1000
MTEXTBEGIN
1070
    73
1070
     1
1070
    44
1040
1.0
1070
    74
1070
     0
1000
MTEXTEND
1000
MTEXTBEGIN
1070
    73
1070
     1
1070
    44
1040
1.0
1070
    74
1070
     0
1000
MTEXTEND
  0
MTEXT
  5
7ABE
330
7A86
100
AcDbEntity
  8
L200_
 62
     7
100
AcDbMText
 10
-10.66239827473961
 20
239.1517089980935
 30
0.0
 40
2.444193535853943
 41
0.0
 71
     1
 72
     2
  1
\W1.29;\fOsaka|b0|i0|c128;3000
  7
STD
1001
ACAD
1000
MTEXTBEGIN
1070
    73
1070
     1
1070
    44
1040
1.0
1070
    74
1070
     0
1000
MTEXTEND
1000
MTEXTBEGIN
1070
    73
1070
     1
1070
    44
1040
1.0
1070
    74
1070
     0
1000
MTEXTEND
1000
MTEXTBEGIN
1070
    73
1070
     1
1070
    44
1040
1.0
1070
    74
1070
     0
1000
MTEXTEND
1000
MTEXTBEGIN
1070
    73
1070
     1
1070
    44
1040
1.0
1070
    74
1070
     0
1000
MTEXTEND
  0
MTEXT
  5
7ABF
330
7A86
100
AcDbEntity
  8
L200_
 62
     7
100
AcDbMText
 10
-10.66239827473961
 20
244.5741170384581
 30
0.0
 40
2.444193535853943
 41
0.0
 71
     1
 72
     2
  1
\W1.29;\fOsaka|b0|i0|c128;4000
  7
STD
1001
ACAD
1000
MTEXTBEGIN
1070
    73
1070
     1
1070
    44
1040
1.0
1070
    74
1070
     0
1000
MTEXTEND
1000
MTEXTBEGIN
1070
    73
1070
     1
1070
    44
1040
1.0
1070
    74
1070
     0
1000
MTEXTEND
1000
MTEXTBEGIN
1070
    73
1070
     1
1070
    44
1040
1.0
1070
    74
1070
     0
1000
MTEXTEND
1000
MTEXTBEGIN
1070
    73
1070
     1
1070
    44
1040
1.0
1070
    74
1070
     0
1000
MTEXTEND
  0
MTEXT
  5
7AC0
330
7A86
100
AcDbEntity
  8
L200_
 62
     7
100
AcDbMText
 10
-10.66239827473961
 20
248.7800618626768
 30
0.0
 40
2.444193535853943
 41
0.0
 71
     1
 72
     2
  1
\W1.29;\fOsaka|b0|i0|c128;5000
  7
STD
1001
ACAD
1000
MTEXTBEGIN
1070
    73
1070
     1
1070
    44
1040
1.0
1070
    74
1070
     0
1000
MTEXTEND
1000
MTEXTBEGIN
1070
    73
1070
     1
1070
    44
1040
1.0
1070
    74
1070
     0
1000
MTEXTEND
1000
MTEXTBEGIN
1070
    73
1070
     1
1070
    44
1040
1.0
1070
    74
1070
     0
1000
MTEXTEND
1000
MTEXTBEGIN
1070
    73
1070
     1
1070
    44
1040
1.0
1070
    74
1070
     0
1000
MTEXTEND
  0
MTEXT
  5
7AC1
330
7A86
100
AcDbEntity
  8
L200_
 62
     7
100
AcDbMText
 10
-12.00856933593749
 20
261.8447252198815
 30
0.0
 40
2.444193535853943
 41
0.0
 71
     1
 72
     2
  1
\W1.19;\fOsaka|b0|i0|c128;10000
  7
STD
1001
ACAD
1000
MTEXTBEGIN
1070
    73
1070
     1
1070
    44
1040
1.0
1070
    74
1070
     0
1000
MTEXTEND
1000
MTEXTBEGIN
1070
    73
1070
     1
1070
    44
1040
1.0
1070
    74
1070
     0
1000
MTEXTEND
1000
MTEXTBEGIN
1070
    73
1070
     1
1070
    44
1040
1.0
1070
    74
1070
     0
1000
MTEXTEND
1000
MTEXTBEGIN
1070
    73
1070
     1
1070
    44
1040
1.0
1070
    74
1070
     0
1000
MTEXTEND
  0
MTEXT
  5
7AC2
330
7A86
100
AcDbEntity
  8
L200_
 62
     7
100
AcDbMText
 10
-15.88897723853578
 20
88.3928819444443
 30
0.0
 40
3.421865693396991
 41
0.0
 71
     1
 72
     2
  1
\fOsaka|b0|i0|c128;Operating time (sec)
  7
STD
 11
0.0
 21
1.0
 31
0.0
1001
ACAD
1000
MTEXTBEGIN
1070
    73
1070
     1
1070
    44
1040
1.0
1070
    74
1070
     0
1000
MTEXTEND
1000
MTEXTBEGIN
1070
    73
1070
     1
1070
    44
1040
1.0
1070
    74
1070
     0
1000
MTEXTEND
1000
MTEXTBEGIN
1070
    73
1070
     1
1070
    44
1040
1.0
1070
    74
1070
     0
1000
MTEXTEND
1000
MTEXTBEGIN
1070
    73
1070
     1
1070
    44
1040
1.0
1070
    74
1070
     0
1000
MTEXTEND
  0
MTEXT
  5
7AC3
330
7A86
100
AcDbEntity
  8
L200_
 62
     7
100
AcDbMText
 10
32.42523871527776
 20
-17.48572979271409
 30
0.0
 40
3.421865693396991
 41
0.0
 71
     1
 72
     2
  1
\W0.96;\fOsaka|b0|i0|c128;Current (A)
  7
STD
1001
ACAD
1000
MTEXTBEGIN
1070
    73
1070
     1
1070
    44
1040
1.0
1070
    74
1070
     0
1000
MTEXTEND
1000
MTEXTBEGIN
1070
    73
1070
     1
1070
    44
1040
1.0
1070
    74
1070
     0
1000
MTEXTEND
1000
MTEXTBEGIN
1070
    73
1070
     1
1070
    44
1040
1.0
1070
    74
1070
     0
1000
MTEXTEND
1000
MTEXTBEGIN
1070
    73
1070
     1
1070
    44
1040
1.0
1070
    74
1070
     0
1000
MTEXTEND
  0
LINE
  5
7AC4
330
7A86
100
AcDbEntity
  8
L200_
 62
     4
100
AcDbLine
 10
173.5999118381077
 20
230.0651991102431
 30
0.0
 11
173.5999118381077
 21
0.0
 31
0.0
  0
LINE
  5
7AC5
330
7A86
100
AcDbEntity
  8
L200_
 62
     4
100
AcDbLine
 10
160.5354207356771
 20
230.0651991102431
 30
0.0
 11
160.5354207356771
 21
0.0
 31
0.0
  0
LINE
  5
7AC6
330
7A86
100
AcDbEntity
  8
L200_
 62
     4
100
AcDbLine
 10
156.3296481662324
 20
230.0651991102431
 30
0.0
 11
156.3296481662324
 21
0.0
 31
0.0
  0
LINE
  5
7AC7
330
7A86
100
AcDbEntity
  8
L200_
 62
     4
100
AcDbLine
 10
147.4709296332465
 20
230.0651991102431
 30
0.0
 11
147.4709296332465
 21
0.0
 31
0.0
  0
LINE
  5
7AC8
330
7A86
100
AcDbEntity
  8
L200_
 62
     4
100
AcDbLine
 10
137.8425767686632
 20
230.0651991102431
 30
0.0
 11
137.8425767686632
 21
0.0
 31
0.0
  0
LINE
  5
7AC9
330
7A86
100
AcDbEntity
  8
L200_
 62
     4
100
AcDbLine
 10
130.1999769422742
 20
230.0651991102431
 30
0.0
 11
130.1999769422742
 21
0.0
 31
0.0
  0
LINE
  5
7ACA
330
7A86
100
AcDbEntity
  8
L200_
 62
     4
100
AcDbLine
 10
117.1354858398437
 20
237.7076266818576
 30
0.0
 11
0.0
 21
237.7076266818576
 31
0.0
  0
LINE
  5
7ACB
330
7A86
100
AcDbEntity
  8
L200_
 62
     4
100
AcDbLine
 10
117.1354858398437
 20
243.1298624674476
 30
0.0
 11
0.0
 21
243.1298624674476
 31
0.0
  0
LINE
  5
7ACC
330
7A86
100
AcDbEntity
  8
L200_
 62
     4
100
AcDbLine
 10
117.1354858398437
 20
247.3358072916666
 30
0.0
 11
0.0
 21
247.3358072916666
 31
0.0
  0
LINE
  5
7ACD
330
7A86
100
AcDbEntity
  8
L200_
 62
     4
100
AcDbLine
 10
117.1354858398437
 20
250.7722900390624
 30
0.0
 11
0.0
 21
250.7722900390624
 31
0.0
  0
LINE
  5
7ACE
330
7A86
100
AcDbEntity
  8
L200_
 62
     4
100
AcDbLine
 10
181.2425116644966
 20
260.4004706488714
 30
0.0
 11
0.0
 21
260.4004706488714
 31
0.0
  0
LINE
  5
7ACF
330
7A86
100
AcDbEntity
  8
L200_
 62
     4
100
AcDbLine
 10
181.2425116644966
 20
256.1945258246526
 30
0.0
 11
0.0
 21
256.1945258246526
 31
0.0
  0
LINE
  5
7AD0
330
7A86
100
AcDbEntity
  8
L200_
 62
     4
100
AcDbLine
 10
181.2425116644966
 20
230.0651991102431
 30
0.0
 11
0.0
 21
230.0651991102431
 31
0.0
  0
LINE
  5
7AD1
330
7A86
100
AcDbEntity
  8
L200_
 62
     4
100
AcDbLine
 10
181.2425116644966
 20
217.0005357530381
 30
0.0
 11
0.0
 21
217.0005357530381
 31
0.0
  0
LINE
  5
7AD2
330
7A86
100
AcDbEntity
  8
L200_
 62
     4
100
AcDbLine
 10
181.2425116644966
 20
212.7945909288194
 30
0.0
 11
0.0
 21
212.7945909288194
 31
0.0
  0
LINE
  5
7AD3
330
7A86
100
AcDbEntity
  8
L200_
 62
     4
100
AcDbLine
 10
181.2425116644966
 20
207.3721828884548
 30
0.0
 11
0.0
 21
207.3721828884548
 31
0.0
  0
LINE
  5
7AD4
330
7A86
100
AcDbEntity
  8
L200_
 62
     4
100
AcDbLine
 10
181.2425116644966
 20
203.9357001410589
 30
0.0
 11
0.0
 21
203.9357001410589
 31
0.0
  0
LINE
  5
7AD5
330
7A86
100
AcDbEntity
  8
L200_
 62
     4
100
AcDbLine
 10
181.2425116644966
 20
199.7299275716146
 30
0.0
 11
0.0
 21
199.7299275716146
 31
0.0
  0
LINE
  5
7AD6
330
7A86
100
AcDbEntity
  8
L200_
 62
     4
100
AcDbLine
 10
181.2425116644966
 20
194.30751953125
 30
0.0
 11
0.0
 21
194.30751953125
 31
0.0
  0
LINE
  5
7AD7
330
7A86
100
AcDbEntity
  8
L200_
 62
     4
100
AcDbLine
 10
181.2425116644966
 20
186.6652642144096
 30
0.0
 11
0.0
 21
186.6652642144096
 31
0.0
  0
LINE
  5
7AD8
330
7A86
100
AcDbEntity
  8
L200_
 62
     4
100
AcDbLine
 10
181.2425116644966
 20
173.6004286024305
 30
0.0
 11
0.0
 21
173.6004286024305
 31
0.0
  0
LINE
  5
7AD9
330
7A86
100
AcDbEntity
  8
L200_
 62
     4
100
AcDbLine
 10
181.2425116644966
 20
169.394656032986
 30
0.0
 11
0.0
 21
169.394656032986
 31
0.0
  0
LINE
  5
7ADA
330
7A86
100
AcDbEntity
  8
L200_
 62
     4
100
AcDbLine
 10
181.2425116644966
 20
163.9722479926216
 30
0.0
 11
0.0
 21
163.9722479926216
 31
0.0
  0
LINE
  5
7ADB
330
7A86
100
AcDbEntity
  8
L200_
 62
     4
100
AcDbLine
 10
181.2425116644966
 20
160.5357652452257
 30
0.0
 11
0.0
 21
160.5357652452257
 31
0.0
  0
LINE
  5
7ADC
330
7A86
100
AcDbEntity
  8
L200_
 62
     4
100
AcDbLine
 10
181.2425116644966
 20
156.329820421007
 30
0.0
 11
0.0
 21
156.329820421007
 31
0.0
  0
LINE
  5
7ADD
330
7A86
100
AcDbEntity
  8
L200_
 62
     4
100
AcDbLine
 10
181.2425116644966
 20
150.9075846354164
 30
0.0
 11
0.0
 21
150.9075846354164
 31
0.0
  0
LINE
  5
7ADE
330
7A86
100
AcDbEntity
  8
L200_
 62
     4
100
AcDbLine
 10
181.2425116644966
 20
143.265157063802
 30
0.0
 11
0.0
 21
143.265157063802
 31
0.0
  0
LINE
  5
7ADF
330
7A86
100
AcDbEntity
  8
L200_
 62
     4
100
AcDbLine
 10
181.2425116644966
 20
130.200493706597
 30
0.0
 11
0.0
 21
130.200493706597
 31
0.0
  0
LINE
  5
7AE0
330
7A86
100
AcDbEntity
  8
L200_
 62
     4
100
AcDbLine
 10
181.2425116644966
 20
125.9945488823783
 30
0.0
 11
0.0
 21
125.9945488823783
 31
0.0
  0
LINE
  5
7AE1
330
7A86
100
AcDbEntity
  8
L200_
 62
     4
100
AcDbLine
 10
181.2425116644966
 20
120.5723130967881
 30
0.0
 11
0.0
 21
120.5723130967881
 31
0.0
  0
LINE
  5
7AE2
330
7A86
100
AcDbEntity
  8
L200_
 62
     4
100
AcDbLine
 10
181.2425116644966
 20
117.1356580946181
 30
0.0
 11
0.0
 21
117.1356580946181
 31
0.0
  0
LINE
  5
7AE3
330
7A86
100
AcDbEntity
  8
L200_
 62
     4
100
AcDbLine
 10
181.2425116644966
 20
112.9298855251734
 30
0.0
 11
0.0
 21
112.9298855251734
 31
0.0
  0
LINE
  5
7AE4
330
7A86
100
AcDbEntity
  8
L200_
 62
     4
100
AcDbLine
 10
181.2425116644966
 20
107.5073052300345
 30
0.0
 11
0.0
 21
107.5073052300345
 31
0.0
  0
LINE
  5
7AE5
330
7A86
100
AcDbEntity
  8
L200_
 62
     4
100
AcDbLine
 10
181.2425116644966
 20
99.86539442274313
 30
0.0
 11
0.0
 21
99.86539442274313
 31
0.0
  0
LINE
  5
7AE6
330
7A86
100
AcDbEntity
  8
L200_
 62
     4
100
AcDbLine
 10
181.2425116644966
 20
86.80055881076389
 30
0.0
 11
0.0
 21
86.80055881076389
 31
0.0
  0
LINE
  5
7AE7
330
7A86
100
AcDbEntity
  8
L200_
 62
     4
100
AcDbLine
 10
181.2425116644966
 20
82.59409722222221
 30
0.0
 11
0.0
 21
82.59409722222221
 31
0.0
  0
LINE
  5
7AE8
330
7A86
100
AcDbEntity
  8
L200_
 62
     4
100
AcDbLine
 10
181.2425116644966
 20
77.17220594618066
 30
0.0
 11
0.0
 21
77.17220594618066
 31
0.0
  0
LINE
  5
7AE9
330
7A86
100
AcDbEntity
  8
L200_
 62
     4
100
AcDbLine
 10
181.2425116644966
 20
73.73537868923614
 30
0.0
 11
0.0
 21
73.73537868923614
 31
0.0
  0
LINE
  5
7AEA
330
7A86
100
AcDbEntity
  8
L200_
 62
     4
100
AcDbLine
 10
181.2425116644966
 20
69.52960611979165
 30
0.0
 11
0.0
 21
69.52960611979165
 31
0.0
  0
LINE
  5
7AEB
330
7A86
100
AcDbEntity
  8
L200_
 62
     4
100
AcDbLine
 10
181.2425116644966
 20
64.1070258246528
 30
0.0
 11
0.0
 21
64.1070258246528
 31
0.0
  0
LINE
  5
7AEC
330
7A86
100
AcDbEntity
  8
L200_
 62
     4
100
AcDbLine
 10
181.2425116644966
 20
56.46511501736114
 30
0.0
 11
0.0
 21
56.46511501736114
 31
0.0
  0
LINE
  5
7AED
330
7A86
100
AcDbEntity
  8
L200_
 62
     4
100
AcDbLine
 10
181.2425116644966
 20
43.40062391493041
 30
0.0
 11
0.0
 21
43.40062391493041
 31
0.0
  0
LINE
  5
7AEE
330
7A86
100
AcDbEntity
  8
L200_
 62
     4
100
AcDbLine
 10
181.2425116644966
 20
39.19416232638893
 30
0.0
 11
0.0
 21
39.19416232638893
 31
0.0
  0
LINE
  5
7AEF
330
7A86
100
AcDbEntity
  8
L200_
 62
     4
100
AcDbLine
 10
181.2425116644966
 20
33.77227105034723
 30
0.0
 11
0.0
 21
33.77227105034723
 31
0.0
  0
LINE
  5
7AF0
330
7A86
100
AcDbEntity
  8
L200_
 62
     4
100
AcDbLine
 10
181.2425116644966
 20
30.3354437934028
 30
0.0
 11
0.0
 21
30.3354437934028
 31
0.0
  0
LINE
  5
7AF1
330
7A86
100
AcDbEntity
  8
L200_
 62
     4
100
AcDbLine
 10
181.2425116644966
 20
26.12967122395832
 30
0.0
 11
0.0
 21
26.12967122395832
 31
0.0
  0
LINE
  5
7AF2
330
7A86
100
AcDbEntity
  8
L200_
 62
     4
100
AcDbLine
 10
181.2425116644966
 20
20.7070909288193
 30
0.0
 11
0.0
 21
20.7070909288193
 31
0.0
  0
LINE
  5
7AF3
330
7A86
100
AcDbEntity
  8
L200_
 62
     4
100
AcDbLine
 10
181.2425116644966
 20
13.06518012152781
 30
0.0
 11
0.0
 21
13.06518012152781
 31
0.0
  0
LINE
  5
7AF4
330
7A86
100
AcDbEntity
  8
L200_
 62
     7
100
AcDbLine
 10
181.2425116644966
 20
0.0
 30
0.0
 11
0.0
 21
0.0
 31
0.0
  0
LINE
  5
7AF5
330
7A86
100
AcDbEntity
  8
L200_
 62
     4
100
AcDbLine
 10
181.2425116644966
 20
260.4004706488714
 30
0.0
 11
181.2425116644966
 21
0.0
 31
0.0
  0
LINE
  5
7AF6
330
7A86
100
AcDbEntity
  8
L200_
 62
     4
100
AcDbLine
 10
173.5999118381077
 20
260.4004706488714
 30
0.0
 11
173.5999118381077
 21
256.1945258246526
 31
0.0
  0
LINE
  5
7AF7
330
7A86
100
AcDbEntity
  8
L200_
 62
     4
100
AcDbLine
 10
160.5354207356771
 20
260.4004706488714
 30
0.0
 11
160.5354207356771
 21
256.1945258246526
 31
0.0
  0
LINE
  5
7AF8
330
7A86
100
AcDbEntity
  8
L200_
 62
     4
100
AcDbLine
 10
156.3296481662324
 20
260.4004706488714
 30
0.0
 11
156.3296481662324
 21
256.1945258246526
 31
0.0
  0
LINE
  5
7AF9
330
7A86
100
AcDbEntity
  8
L200_
 62
     4
100
AcDbLine
 10
147.4709296332465
 20
260.4004706488714
 30
0.0
 11
147.4709296332465
 21
256.1945258246526
 31
0.0
  0
LINE
  5
7AFA
330
7A86
100
AcDbEntity
  8
L200_
 62
     4
100
AcDbLine
 10
137.8425767686632
 20
260.4004706488714
 30
0.0
 11
137.8425767686632
 21
256.1945258246526
 31
0.0
  0
LINE
  5
7AFB
330
7A86
100
AcDbEntity
  8
L200_
 62
     4
100
AcDbLine
 10
130.1999769422742
 20
260.4004706488714
 30
0.0
 11
130.1999769422742
 21
256.1945258246526
 31
0.0
  0
LINE
  5
7AFC
330
7A86
100
AcDbEntity
  8
L200_
 62
     4
100
AcDbLine
 10
117.1354858398437
 20
260.4004706488714
 30
0.0
 11
117.1354858398437
 21
0.0
 31
0.0
  0
LINE
  5
7AFD
330
7A86
100
AcDbEntity
  8
L200_
 62
     4
100
AcDbLine
 10
112.9297132703994
 20
260.4004706488714
 30
0.0
 11
112.9297132703994
 21
0.0
 31
0.0
  0
LINE
  5
7AFE
330
7A86
100
AcDbEntity
  8
L200_
 62
     4
100
AcDbLine
 10
104.0703057183161
 20
260.4004706488714
 30
0.0
 11
104.0703057183161
 21
0.0
 31
0.0
  0
LINE
  5
7AFF
330
7A86
100
AcDbEntity
  8
L200_
 62
     4
100
AcDbLine
 10
94.44264187283001
 20
260.4004706488714
 30
0.0
 11
94.44264187283001
 21
0.0
 31
0.0
  0
LINE
  5
7B00
330
7A86
100
AcDbEntity
  8
L200_
 62
     4
100
AcDbLine
 10
86.80004204644102
 20
260.4004706488714
 30
0.0
 11
86.80004204644102
 21
0.0
 31
0.0
  0
LINE
  5
7B01
330
7A86
100
AcDbEntity
  8
L200_
 62
     4
100
AcDbLine
 10
73.73555094401059
 20
260.4004706488714
 30
0.0
 11
73.73555094401059
 21
0.0
 31
0.0
  0
LINE
  5
7B02
330
7A86
100
AcDbEntity
  8
L200_
 62
     4
100
AcDbLine
 10
69.52960611979179
 20
260.4004706488714
 30
0.0
 11
69.52960611979179
 21
0.0
 31
0.0
  0
LINE
  5
7B03
330
7A86
100
AcDbEntity
  8
L200_
 62
     4
100
AcDbLine
 10
60.670543077257
 20
260.4004706488714
 30
0.0
 11
60.670543077257
 21
0.0
 31
0.0
  0
LINE
  5
7B04
330
7A86
100
AcDbEntity
  8
L200_
 62
     4
100
AcDbLine
 10
51.04253472222229
 20
260.4004706488714
 30
0.0
 11
51.04253472222229
 21
0.0
 31
0.0
  0
LINE
  5
7B05
330
7A86
100
AcDbEntity
  8
L200_
 62
     4
100
AcDbLine
 10
43.39993489583347
 20
260.4004706488714
 30
0.0
 11
43.39993489583347
 21
0.0
 31
0.0
  0
LINE
  5
7B06
330
7A86
100
AcDbEntity
  8
L200_
 62
     4
100
AcDbLine
 10
30.3354437934029
 20
260.4004706488714
 30
0.0
 11
30.3354437934029
 21
0.0
 31
0.0
  0
LINE
  5
7B07
330
7A86
100
AcDbEntity
  8
L200_
 62
     4
100
AcDbLine
 10
26.1293267144097
 20
260.4004706488714
 30
0.0
 11
26.1293267144097
 21
0.0
 31
0.0
  0
LINE
  5
7B08
330
7A86
100
AcDbEntity
  8
L200_
 62
     4
100
AcDbLine
 10
17.27060818142371
 20
260.4004706488714
 30
0.0
 11
17.27060818142371
 21
0.0
 31
0.0
  0
LINE
  5
7B09
330
7A86
100
AcDbEntity
  8
L200_
 62
     4
100
AcDbLine
 10
7.642599826388987
 20
260.4004706488714
 30
0.0
 11
7.642599826388987
 21
0.0
 31
0.0
  0
LINE
  5
7B0A
330
7A86
100
AcDbEntity
  8
L200_
 62
     7
100
AcDbLine
 10
0.0
 20
260.4004706488714
 30
0.0
 11
0.0
 21
0.0
 31
0.0
  0
ENDBLK
  5
7B0C
330
7A86
100
AcDbEntity
  8
0
100
AcDbBlockEnd
  0
ENDSEC
  0
SECTION
  2
ENTITIES
  0
INSERT
  5
77A0
330
7732
100
AcDbEntity
  8
基準
  6
CONTINUOUS
 62
     7
100
AcDbBlockReference
  2
BASELINE
 10
26.90002499999996
 20
120.0
 30
0.0
  0
MTEXT
  5
77A1
330
7732
100
AcDbEntity
  8
7
100
AcDbMText
 10
160.5907814695664
 20
376.1945258246526
 30
0.0
 40
2.0
 41
60.65173019492993
 71
     1
 72
     5
  1
50A\PZAE50-NF
1001
ACAD
1000
MTEXTBEGIN
1070
    73
1070
     1
1070
    44
1040
1.0
1070
    74
1070
     0
1000
MTEXTEND
1000
MTEXTBEGIN
1070
    73
1070
     1
1070
    44
1040
1.0
1070
    74
1070
     0
1000
MTEXTEND
1000
MTEXTBEGIN
1070
    73
1070
     1
1070
    44
1040
1.0
1070
    74
1070
     0
1000
MTEXTEND
1000
MTEXTBEGIN
1070
    73
1070
     1
1070
    44
1040
1.0
1070
    74
1070
     0
1000
MTEXTEND
1000
MTEXTBEGIN
1070
    73
1070
     1
1070
    44
1040
1.0
1070
    74
1070
     0
1000
MTEXTEND
1000
MTEXTBEGIN
1070
    73
1070
     1
1070
    44
1040
1.0
1070
    74
1070
     0
1000
MTEXTEND
1000
MTEXTBEGIN
1070
    73
1070
     1
1070
    44
1040
1.0
1070
    74
1070
     0
1000
MTEXTEND
  0
POINT
  5
77AA
330
7732
100
AcDbEntity
  8
0
  6
CONTINUOUS
100
AcDbPoint
 10
40.0
 20
120.0
 30
0.0
  0
LINE
  5
77D3
330
7732
100
AcDbEntity
  8
M
  6
CONTINUOUS
100
AcDbLine
 10
38.71999999999992
 20
380.3999999999998
 30
0.0
 11
38.72240056483872
 21
360.0
 31
0.0
  0
POLYLINE
  5
79A2
330
7732
100
AcDbEntity
  8
M
  6
CONTINUOUS
 62
     7
100
AcDb2dPolyline
 66
     1
 10
0.0
 20
0.0
 30
0.0
 70
     4
  0
VERTEX
  5
7BDC
330
79A2
100
AcDbEntity
  8
M
  6
CONTINUOUS
 62
     7
100
AcDbVertex
100
AcDb2dVertex
 10
38.71999999999992
 20
380.3999999999998
 30
0.0
 70
    16
  0
VERTEX
  5
7BF7
330
79A2
100
AcDbEntity
  8
M
  6
CONTINUOUS
 62
     7
100
AcDbVertex
100
AcDb2dVertex
 10
38.71999999999992
 20
380.3999999999998
 30
0.0
 70
     8
  0
VERTEX
  5
7C0E
330
79A2
100
AcDbEntity
  8
M
  6
CONTINUOUS
 62
     7
100
AcDbVertex
100
AcDb2dVertex
 10
38.77525862753902
 20
362.6565726248448
 30
0.0
 70
     8
  0
VERTEX
  5
7C0F
330
79A2
100
AcDbEntity
  8
M
  6
CONTINUOUS
 62
     7
100
AcDbVertex
100
AcDb2dVertex
 10
38.85329037901474
 20
348.9779221894598
 30
0.0
 70
     8
  0
VERTEX
  5
7C10
330
79A2
100
AcDbEntity
  8
M
  6
CONTINUOUS
 62
     7
100
AcDbVertex
100
AcDb2dVertex
 10
38.95465713886096
 20
338.7698726914218
 30
0.0
 70
     8
  0
VERTEX
  5
7C11
330
79A2
100
AcDbEntity
  8
M
  6
CONTINUOUS
 62
     7
100
AcDbVertex
100
AcDb2dVertex
 10
39.07992079151159
 20
331.4382481283083
 30
0.0
 70
     8
  0
VERTEX
  5
7C12
330
79A2
100
AcDbEntity
  8
M
  6
CONTINUOUS
 62
     7
100
AcDbVertex
100
AcDb2dVertex
 10
39.22964322140047
 20
326.388872497696
 30
0.0
 70
     8
  0
VERTEX
  5
7C13
330
79A2
100
AcDbEntity
  8
M
  6
CONTINUOUS
 62
     7
100
AcDbVertex
100
AcDb2dVertex
 10
39.40438631296153
 20
323.0275697971622
 30
0.0
 70
     8
  0
VERTEX
  5
7C14
330
79A2
100
AcDbEntity
  8
M
  6
CONTINUOUS
 62
     7
100
AcDbVertex
100
AcDb2dVertex
 10
39.60471195062861
 20
320.760164024284
 30
0.0
 70
     8
  0
VERTEX
  5
7C15
330
79A2
100
AcDbEntity
  8
M
  6
CONTINUOUS
 62
     7
100
AcDbVertex
100
AcDb2dVertex
 10
39.83118201883565
 20
318.9924791766386
 30
0.0
 70
     8
  0
VERTEX
  5
7C16
330
79A2
100
AcDbEntity
  8
M
  6
CONTINUOUS
 62
     7
100
AcDbVertex
100
AcDb2dVertex
 10
40.08302848430168
 20
317.2357306879883
 30
0.0
 70
     8
  0
VERTEX
  5
7C17
330
79A2
100
AcDbEntity
  8
M
  6
CONTINUOUS
 62
     7
100
AcDbVertex
100
AcDb2dVertex
 10
40.35416364288656
 20
315.4226997368361
 30
0.0
 70
     8
  0
VERTEX
  5
7C18
330
79A2
100
AcDbEntity
  8
M
  6
CONTINUOUS
 62
     7
100
AcDbVertex
100
AcDb2dVertex
 10
40.63716987273535
 20
313.5915589378703
 30
0.0
 70
     8
  0
VERTEX
  5
7C19
330
79A2
100
AcDbEntity
  8
M
  6
CONTINUOUS
 62
     7
100
AcDbVertex
100
AcDb2dVertex
 10
40.9246295519931
 20
311.7804809057791
 30
0.0
 70
     8
  0
VERTEX
  5
7C1A
330
79A2
100
AcDbEntity
  8
M
  6
CONTINUOUS
 62
     7
100
AcDbVertex
100
AcDb2dVertex
 10
41.20912505880485
 20
310.0276382552509
 30
0.0
 70
     8
  0
VERTEX
  5
7C1B
330
79A2
100
AcDbEntity
  8
M
  6
CONTINUOUS
 62
     7
100
AcDbVertex
100
AcDb2dVertex
 10
41.48323877131566
 20
308.3712036009738
 30
0.0
 70
     8
  0
VERTEX
  5
7C1C
330
79A2
100
AcDbEntity
  8
M
  6
CONTINUOUS
 62
     7
100
AcDbVertex
100
AcDb2dVertex
 10
41.7395530676706
 20
306.8493495576361
 30
0.0
 70
     8
  0
VERTEX
  5
7C1D
330
79A2
100
AcDbEntity
  8
M
  6
CONTINUOUS
 62
     7
100
AcDbVertex
100
AcDb2dVertex
 10
41.97065032601471
 20
305.5002487399261
 30
0.0
 70
     8
  0
VERTEX
  5
7C1E
330
79A2
100
AcDbEntity
  8
M
  6
CONTINUOUS
 62
     7
100
AcDbVertex
100
AcDb2dVertex
 10
42.17186535174928
 20
304.3485188049686
 30
0.0
 70
     8
  0
VERTEX
  5
7C1F
330
79A2
100
AcDbEntity
  8
M
  6
CONTINUOUS
 62
     7
100
AcDbVertex
100
AcDb2dVertex
 10
42.3495426593007
 20
303.3645575796333
 30
0.0
 70
     8
  0
VERTEX
  5
7C20
330
79A2
100
AcDbEntity
  8
M
  6
CONTINUOUS
 62
     7
100
AcDbVertex
100
AcDb2dVertex
 10
42.51277919035165
 20
302.5052079332271
 30
0.0
 70
     8
  0
VERTEX
  5
7C21
330
79A2
100
AcDbEntity
  8
M
  6
CONTINUOUS
 62
     7
100
AcDbVertex
100
AcDb2dVertex
 10
42.67067188658471
 20
301.7273127350561
 30
0.0
 70
     8
  0
VERTEX
  5
7C22
330
79A2
100
AcDbEntity
  8
M
  6
CONTINUOUS
 62
     7
100
AcDbVertex
100
AcDb2dVertex
 10
42.83231768968256
 20
300.987714854427
 30
0.0
 70
     8
  0
VERTEX
  5
7C23
330
79A2
100
AcDbEntity
  8
M
  6
CONTINUOUS
 62
     7
100
AcDbVertex
100
AcDb2dVertex
 10
43.00681354132783
 20
300.2432571606461
 30
0.0
 70
     8
  0
VERTEX
  5
7C24
330
79A2
100
AcDbEntity
  8
M
  6
CONTINUOUS
 62
     7
100
AcDbVertex
100
AcDb2dVertex
 10
43.20325638320315
 20
299.45078252302
 30
0.0
 70
     8
  0
VERTEX
  5
7C25
330
79A2
100
AcDbEntity
  8
M
  6
CONTINUOUS
 62
     7
100
AcDbVertex
100
AcDb2dVertex
 10
43.4307431569912
 20
298.5671338108551
 30
0.0
 70
     8
  0
VERTEX
  5
7C26
330
79A2
100
AcDbEntity
  8
M
  6
CONTINUOUS
 62
     7
100
AcDbVertex
100
AcDb2dVertex
 10
43.69585986803949
 20
297.5603481605604
 30
0.0
 70
     8
  0
VERTEX
  5
7C27
330
79A2
100
AcDbEntity
  8
M
  6
CONTINUOUS
 62
     7
100
AcDbVertex
100
AcDb2dVertex
 10
43.99514877635527
 20
296.4432397769563
 30
0.0
 70
     8
  0
VERTEX
  5
7C28
330
79A2
100
AcDbEntity
  8
M
  6
CONTINUOUS
 62
     7
100
AcDbVertex
100
AcDb2dVertex
 10
44.32264120561067
 20
295.2398171319648
 30
0.0
 70
     8
  0
VERTEX
  5
7C29
330
79A2
100
AcDbEntity
  8
M
  6
CONTINUOUS
 62
     7
100
AcDbVertex
100
AcDb2dVertex
 10
44.67236847947786
 20
293.9740886975091
 30
0.0
 70
     8
  0
VERTEX
  5
7C2A
330
79A2
100
AcDbEntity
  8
M
  6
CONTINUOUS
 62
     7
100
AcDbVertex
100
AcDb2dVertex
 10
45.03836192162895
 20
292.6700629455115
 30
0.0
 70
     8
  0
VERTEX
  5
7C2B
330
79A2
100
AcDbEntity
  8
M
  6
CONTINUOUS
 62
     7
100
AcDbVertex
100
AcDb2dVertex
 10
45.41465285573613
 20
291.3517483478946
 30
0.0
 70
     8
  0
VERTEX
  5
7C2C
330
79A2
100
AcDbEntity
  8
M
  6
CONTINUOUS
 62
     7
100
AcDbVertex
100
AcDb2dVertex
 10
45.79527260547149
 20
290.0431533765813
 30
0.0
 70
     8
  0
VERTEX
  5
7C2D
330
79A2
100
AcDbEntity
  8
M
  6
CONTINUOUS
 62
     7
100
AcDbVertex
100
AcDb2dVertex
 10
46.17425249450721
 20
288.7682865034942
 30
0.0
 70
     8
  0
VERTEX
  5
7C2E
330
79A2
100
AcDbEntity
  8
M
  6
CONTINUOUS
 62
     7
100
AcDbVertex
100
AcDb2dVertex
 10
46.54744314721215
 20
287.54456159014
 30
0.0
 70
     8
  0
VERTEX
  5
7C2F
330
79A2
100
AcDbEntity
  8
M
  6
CONTINUOUS
 62
     7
100
AcDbVertex
100
AcDb2dVertex
 10
46.91797239074202
 20
286.3630140563636
 30
0.0
 70
     8
  0
VERTEX
  5
7C30
330
79A2
100
AcDbEntity
  8
M
  6
CONTINUOUS
 62
     7
100
AcDbVertex
100
AcDb2dVertex
 10
47.29078735294924
 20
285.2080847115938
 30
0.0
 70
     8
  0
VERTEX
  5
7C31
330
79A2
100
AcDbEntity
  8
M
  6
CONTINUOUS
 62
     7
100
AcDbVertex
100
AcDb2dVertex
 10
47.67083516168628
 20
284.0642143652597
 30
0.0
 70
     8
  0
VERTEX
  5
7C32
330
79A2
100
AcDbEntity
  8
M
  6
CONTINUOUS
 62
     7
100
AcDbVertex
100
AcDb2dVertex
 10
48.06306294480553
 20
282.9158438267903
 30
0.0
 70
     8
  0
VERTEX
  5
7C33
330
79A2
100
AcDbEntity
  8
M
  6
CONTINUOUS
 62
     7
100
AcDbVertex
100
AcDb2dVertex
 10
48.47241783015943
 20
281.7474139056146
 30
0.0
 70
     8
  0
VERTEX
  5
7C34
330
79A2
100
AcDbEntity
  8
M
  6
CONTINUOUS
 62
     7
100
AcDbVertex
100
AcDb2dVertex
 10
48.90384694560045
 20
280.5433654111613
 30
0.0
 70
     8
  0
VERTEX
  5
7C35
330
79A2
100
AcDbEntity
  8
M
  6
CONTINUOUS
 62
     7
100
AcDbVertex
100
AcDb2dVertex
 10
49.36229741898099
 20
279.2881391528599
 30
0.0
 70
     8
  0
VERTEX
  5
7C36
330
79A2
100
AcDbEntity
  8
M
  6
CONTINUOUS
 62
     7
100
AcDbVertex
100
AcDb2dVertex
 10
49.85098695126453
 20
277.9712493505592
 30
0.0
 70
     8
  0
VERTEX
  5
7C37
330
79A2
100
AcDbEntity
  8
M
  6
CONTINUOUS
 62
     7
100
AcDbVertex
100
AcDb2dVertex
 10
50.36621553585857
 20
276.6025038657886
 30
0.0
 70
     8
  0
VERTEX
  5
7C38
330
79A2
100
AcDbEntity
  8
M
  6
CONTINUOUS
 62
     7
100
AcDbVertex
100
AcDb2dVertex
 10
50.90255373928175
 20
275.1967839704978
 30
0.0
 70
     8
  0
VERTEX
  5
7C39
330
79A2
100
AcDbEntity
  8
M
  6
CONTINUOUS
 62
     7
100
AcDbVertex
100
AcDb2dVertex
 10
51.4545721280526
 20
273.7689709366363
 30
0.0
 70
     8
  0
VERTEX
  5
7C3A
330
79A2
100
AcDbEntity
  8
M
  6
CONTINUOUS
 62
     7
100
AcDbVertex
100
AcDb2dVertex
 10
52.01684126868968
 20
272.3339460361537
 30
0.0
 70
     8
  0
VERTEX
  5
7C3B
330
79A2
100
AcDbEntity
  8
M
  6
CONTINUOUS
 62
     7
100
AcDbVertex
100
AcDb2dVertex
 10
52.5839317277116
 20
270.9065905409996
 30
0.0
 70
     8
  0
VERTEX
  5
7C3C
330
79A2
100
AcDbEntity
  8
M
  6
CONTINUOUS
 62
     7
100
AcDbVertex
100
AcDb2dVertex
 10
53.1504140716369
 20
269.5017857231234
 30
0.0
 70
     8
  0
VERTEX
  5
7C3D
330
79A2
100
AcDbEntity
  8
M
  6
CONTINUOUS
 62
     7
100
AcDbVertex
100
AcDb2dVertex
 10
53.71085886698417
 20
268.1344128544747
 30
0.0
 70
     8
  0
VERTEX
  5
7C3E
330
79A2
100
AcDbEntity
  8
M
  6
CONTINUOUS
 62
     7
100
AcDbVertex
100
AcDb2dVertex
 10
54.26059022431053
 20
266.816213513625
 30
0.0
 70
     8
  0
VERTEX
  5
7C3F
330
79A2
100
AcDbEntity
  8
M
  6
CONTINUOUS
 62
     7
100
AcDbVertex
100
AcDb2dVertex
 10
54.79794643032732
 20
265.5463705056333
 30
0.0
 70
     8
  0
VERTEX
  5
7C40
330
79A2
100
AcDbEntity
  8
M
  6
CONTINUOUS
 62
     7
100
AcDbVertex
100
AcDb2dVertex
 10
55.32201931578442
 20
264.3209269421806
 30
0.0
 70
     8
  0
VERTEX
  5
7C41
330
79A2
100
AcDbEntity
  8
M
  6
CONTINUOUS
 62
     7
100
AcDbVertex
100
AcDb2dVertex
 10
55.83190071143175
 20
263.1359259349474
 30
0.0
 70
     8
  0
VERTEX
  5
7C42
330
79A2
100
AcDbEntity
  8
M
  6
CONTINUOUS
 62
     7
100
AcDbVertex
100
AcDb2dVertex
 10
56.32668244801919
 20
261.9874105956146
 30
0.0
 70
     8
  0
VERTEX
  5
7C43
330
79A2
100
AcDbEntity
  8
M
  6
CONTINUOUS
 62
     7
100
AcDbVertex
100
AcDb2dVertex
 10
56.80545635629663
 20
260.8714240358632
 30
0.0
 70
     8
  0
VERTEX
  5
7C44
330
79A2
100
AcDbEntity
  8
M
  6
CONTINUOUS
 62
     7
100
AcDbVertex
100
AcDb2dVertex
 10
57.26731426701395
 20
259.784009367374
 30
0.0
 70
     8
  0
VERTEX
  5
7C45
330
79A2
100
AcDbEntity
  8
M
  6
CONTINUOUS
 62
     7
100
AcDbVertex
100
AcDb2dVertex
 10
57.71134801092106
 20
258.721209701828
 30
0.0
 70
     8
  0
VERTEX
  5
7C46
330
79A2
100
AcDbEntity
  8
M
  6
CONTINUOUS
 62
     7
100
AcDbVertex
100
AcDb2dVertex
 10
58.13769788386171
 20
257.6785763837246
 30
0.0
 70
     8
  0
VERTEX
  5
7C47
330
79A2
100
AcDbEntity
  8
M
  6
CONTINUOUS
 62
     7
100
AcDbVertex
100
AcDb2dVertex
 10
58.55069804205507
 20
256.6496936888398
 30
0.0
 70
     8
  0
VERTEX
  5
7C48
330
79A2
100
AcDbEntity
  8
M
  6
CONTINUOUS
 62
     7
100
AcDbVertex
100
AcDb2dVertex
 10
58.95573110681415
 20
255.6276541257682
 30
0.0
 70
     8
  0
VERTEX
  5
7C49
330
79A2
100
AcDbEntity
  8
M
  6
CONTINUOUS
 62
     7
100
AcDbVertex
100
AcDb2dVertex
 10
59.35817969945198
 20
254.6055502031045
 30
0.0
 70
     8
  0
VERTEX
  5
7C4A
330
79A2
100
AcDbEntity
  8
M
  6
CONTINUOUS
 62
     7
100
AcDbVertex
100
AcDb2dVertex
 10
59.7634264412816
 20
253.5764744294433
 30
0.0
 70
     8
  0
VERTEX
  5
7C4B
330
79A2
100
AcDbEntity
  8
M
  6
CONTINUOUS
 62
     7
100
AcDbVertex
100
AcDb2dVertex
 10
60.17685395361599
 20
252.5335193133793
 30
0.0
 70
     8
  0
VERTEX
  5
7C4C
330
79A2
100
AcDbEntity
  8
M
  6
CONTINUOUS
 62
     7
100
AcDbVertex
100
AcDb2dVertex
 10
60.60384485776822
 20
251.4697773635073
 30
0.0
 70
     8
  0
VERTEX
  5
7C4D
330
79A2
100
AcDbEntity
  8
M
  6
CONTINUOUS
 62
     7
100
AcDbVertex
100
AcDb2dVertex
 10
61.04978177505127
 20
250.3783410884216
 30
0.0
 70
     8
  0
VERTEX
  5
7C4E
330
79A2
100
AcDbEntity
  8
M
  6
CONTINUOUS
 62
     7
100
AcDbVertex
100
AcDb2dVertex
 10
61.5189442228123
 20
249.2533038340257
 30
0.0
 70
     8
  0
VERTEX
  5
7C4F
330
79A2
100
AcDbEntity
  8
M
  6
CONTINUOUS
 62
     7
100
AcDbVertex
100
AcDb2dVertex
 10
62.01119930253465
 20
248.092762295455
 30
0.0
 70
     8
  0
VERTEX
  5
7C50
330
79A2
100
AcDbEntity
  8
M
  6
CONTINUOUS
 62
     7
100
AcDbVertex
100
AcDb2dVertex
 10
62.52531101173585
 20
246.8958140051539
 30
0.0
 70
     8
  0
VERTEX
  5
7C51
330
79A2
100
AcDbEntity
  8
M
  6
CONTINUOUS
 62
     7
100
AcDbVertex
100
AcDb2dVertex
 10
63.06004334793336
 20
245.6615564955668
 30
0.0
 70
     8
  0
VERTEX
  5
7C52
330
79A2
100
AcDbEntity
  8
M
  6
CONTINUOUS
 62
     7
100
AcDbVertex
100
AcDb2dVertex
 10
63.61416030864472
 20
244.3890872991374
 30
0.0
 70
     8
  0
VERTEX
  5
7C53
330
79A2
100
AcDbEntity
  8
M
  6
CONTINUOUS
 62
     7
100
AcDbVertex
100
AcDb2dVertex
 10
64.18642589138733
 20
243.0775039483103
 30
0.0
 70
     8
  0
VERTEX
  5
7C54
330
79A2
100
AcDbEntity
  8
M
  6
CONTINUOUS
 62
     7
100
AcDbVertex
100
AcDb2dVertex
 10
64.77560409367872
 20
241.7259039755295
 30
0.0
 70
     8
  0
VERTEX
  5
7C55
330
79A2
100
AcDbEntity
  8
M
  6
CONTINUOUS
 62
     7
100
AcDbVertex
100
AcDb2dVertex
 10
65.38045891303639
 20
240.3333849132391
 30
0.0
 70
     8
  0
VERTEX
  5
7C56
330
79A2
100
AcDbEntity
  8
M
  6
CONTINUOUS
 62
     7
100
AcDbVertex
100
AcDb2dVertex
 10
65.99878704895798
 20
238.9021991267524
 30
0.0
 70
     8
  0
VERTEX
  5
7C57
330
79A2
100
AcDbEntity
  8
M
  6
CONTINUOUS
 62
     7
100
AcDbVertex
100
AcDb2dVertex
 10
66.62451600886171
 20
237.4472183128578
 30
0.0
 70
     8
  0
VERTEX
  5
7C58
330
79A2
100
AcDbEntity
  8
M
  6
CONTINUOUS
 62
     7
100
AcDbVertex
100
AcDb2dVertex
 10
67.25060600214603
 20
235.9864690012131
 30
0.0
 70
     8
  0
VERTEX
  5
7C59
330
79A2
100
AcDbEntity
  8
M
  6
CONTINUOUS
 62
     7
100
AcDbVertex
100
AcDb2dVertex
 10
67.87001723820934
 20
234.5379777214758
 30
0.0
 70
     8
  0
VERTEX
  5
7C5A
330
79A2
100
AcDbEntity
  8
M
  6
CONTINUOUS
 62
     7
100
AcDbVertex
100
AcDb2dVertex
 10
68.47570992645003
 20
233.1197710033031
 30
0.0
 70
     8
  0
VERTEX
  5
7C5B
330
79A2
100
AcDbEntity
  8
M
  6
CONTINUOUS
 62
     7
100
AcDbVertex
100
AcDb2dVertex
 10
69.0606442762666
 20
231.7498753763531
 30
0.0
 70
     8
  0
VERTEX
  5
7C5C
330
79A2
100
AcDbEntity
  8
M
  6
CONTINUOUS
 62
     7
100
AcDbVertex
100
AcDb2dVertex
 10
69.61778049705734
 20
230.446317370283
 30
0.0
 70
     8
  0
VERTEX
  5
7C5D
330
79A2
100
AcDbEntity
  8
M
  6
CONTINUOUS
 62
     7
100
AcDbVertex
100
AcDb2dVertex
 10
70.14007879822073
 20
229.2271235147504
 30
0.0
 70
     8
  0
VERTEX
  5
7C5E
330
79A2
100
AcDbEntity
  8
M
  6
CONTINUOUS
 62
     7
100
AcDbVertex
100
AcDb2dVertex
 10
70.62344605512588
 20
228.1023649535555
 30
0.0
 70
     8
  0
VERTEX
  5
7C5F
330
79A2
100
AcDbEntity
  8
M
  6
CONTINUOUS
 62
     7
100
AcDbVertex
100
AcDb2dVertex
 10
71.07557580702466
 20
227.0502912870697
 30
0.0
 70
     8
  0
VERTEX
  5
7C60
330
79A2
100
AcDbEntity
  8
M
  6
CONTINUOUS
 62
     7
100
AcDbVertex
100
AcDb2dVertex
 10
71.50710825913968
 20
226.0411967298064
 30
0.0
 70
     8
  0
VERTEX
  5
7C61
330
79A2
100
AcDbEntity
  8
M
  6
CONTINUOUS
 62
     7
100
AcDbVertex
100
AcDb2dVertex
 10
71.92868361669352
 20
225.0453754962796
 30
0.0
 70
     8
  0
VERTEX
  5
7C62
330
79A2
100
AcDbEntity
  8
M
  6
CONTINUOUS
 62
     7
100
AcDbVertex
100
AcDb2dVertex
 10
72.35094208490874
 20
224.0331218010031
 30
0.0
 70
     8
  0
VERTEX
  5
7C63
330
79A2
100
AcDbEntity
  8
M
  6
CONTINUOUS
 62
     7
100
AcDbVertex
100
AcDb2dVertex
 10
72.78452386900794
 20
222.9747298584909
 30
0.0
 70
     8
  0
VERTEX
  5
7C64
330
79A2
100
AcDbEntity
  8
M
  6
CONTINUOUS
 62
     7
100
AcDbVertex
100
AcDb2dVertex
 10
73.24006917421373
 20
221.8404938832565
 30
0.0
 70
     8
  0
VERTEX
  5
7C65
330
79A2
100
AcDbEntity
  8
M
  6
CONTINUOUS
 62
     7
100
AcDbVertex
100
AcDb2dVertex
 10
73.72821820574865
 20
220.6007080898138
 30
0.0
 70
     8
  0
VERTEX
  5
7C66
330
79A2
100
AcDbEntity
  8
M
  6
CONTINUOUS
 62
     7
100
AcDbVertex
100
AcDb2dVertex
 10
74.25516351794304
 20
219.2382362243082
 30
0.0
 70
     8
  0
VERTEX
  5
7C67
330
79A2
100
AcDbEntity
  8
M
  6
CONTINUOUS
 62
     7
100
AcDbVertex
100
AcDb2dVertex
 10
74.80930706155802
 20
217.7862201594108
 30
0.0
 70
     8
  0
VERTEX
  5
7C68
330
79A2
100
AcDbEntity
  8
M
  6
CONTINUOUS
 62
     7
100
AcDbVertex
100
AcDb2dVertex
 10
75.37460313646239
 20
216.2903712994245
 30
0.0
 70
     8
  0
VERTEX
  5
7C69
330
79A2
100
AcDbEntity
  8
M
  6
CONTINUOUS
 62
     7
100
AcDbVertex
100
AcDb2dVertex
 10
75.93500604252501
 20
214.796401048652
 30
0.0
 70
     8
  0
VERTEX
  5
7C6A
330
79A2
100
AcDbEntity
  8
M
  6
CONTINUOUS
 62
     7
100
AcDbVertex
100
AcDb2dVertex
 10
76.47447007961472
 20
213.350020811396
 30
0.0
 70
     8
  0
VERTEX
  5
7C6B
330
79A2
100
AcDbEntity
  8
M
  6
CONTINUOUS
 62
     7
100
AcDbVertex
100
AcDb2dVertex
 10
76.97694954760033
 20
211.9969419919592
 30
0.0
 70
     8
  0
VERTEX
  5
7C6C
330
79A2
100
AcDbEntity
  8
M
  6
CONTINUOUS
 62
     7
100
AcDbVertex
100
AcDb2dVertex
 10
77.42639874635068
 20
210.7828759946445
 30
0.0
 70
     8
  0
VERTEX
  5
7C6D
330
79A2
100
AcDbEntity
  8
M
  6
CONTINUOUS
 62
     7
100
AcDbVertex
100
AcDb2dVertex
 10
77.80677197573464
 20
209.7535342237545
 30
0.0
 70
     8
  0
VERTEX
  5
7C6E
330
79A2
100
AcDbEntity
  8
M
  6
CONTINUOUS
 62
     7
100
AcDbVertex
100
AcDb2dVertex
 10
78.10695254067919
 20
208.9406464752545
 30
0.0
 70
     8
  0
VERTEX
  5
7C6F
330
79A2
100
AcDbEntity
  8
M
  6
CONTINUOUS
 62
     7
100
AcDbVertex
100
AcDb2dVertex
 10
78.33553976634428
 20
208.3200161117589
 30
0.0
 70
     8
  0
VERTEX
  5
7C70
330
79A2
100
AcDbEntity
  8
M
  6
CONTINUOUS
 62
     7
100
AcDbVertex
100
AcDb2dVertex
 10
78.50606198294798
 20
207.853464887545
 30
0.0
 70
     8
  0
VERTEX
  5
7C71
330
79A2
100
AcDbEntity
  8
M
  6
CONTINUOUS
 62
     7
100
AcDbVertex
100
AcDb2dVertex
 10
78.63204752070841
 20
207.5028145568897
 30
0.0
 70
     8
  0
VERTEX
  5
7C72
330
79A2
100
AcDbEntity
  8
M
  6
CONTINUOUS
 62
     7
100
AcDbVertex
100
AcDb2dVertex
 10
78.72702470984369
 20
207.2298868740702
 30
0.0
 70
     8
  0
VERTEX
  5
7C73
330
79A2
100
AcDbEntity
  8
M
  6
CONTINUOUS
 62
     7
100
AcDbVertex
100
AcDb2dVertex
 10
78.80452188057187
 20
206.9965035933634
 30
0.0
 70
     8
  0
VERTEX
  5
7C74
330
79A2
100
AcDbEntity
  8
M
  6
CONTINUOUS
 62
     7
100
AcDbVertex
100
AcDb2dVertex
 10
78.8780673631111
 20
206.7644864690465
 30
0.0
 70
     8
  0
VERTEX
  5
7C75
330
79A2
100
AcDbEntity
  8
M
  6
CONTINUOUS
 62
     7
100
AcDbVertex
100
AcDb2dVertex
 10
78.96118948767945
 20
206.4956572553962
 30
0.0
 70
     8
  0
VERTEX
  5
7C76
330
79A2
100
AcDbEntity
  8
M
  6
CONTINUOUS
 62
     7
100
AcDbVertex
100
AcDb2dVertex
 10
79.06443608991058
 20
206.1553392945166
 30
0.0
 70
     8
  0
VERTEX
  5
7C77
330
79A2
100
AcDbEntity
  8
M
  6
CONTINUOUS
 62
     7
100
AcDbVertex
100
AcDb2dVertex
 10
79.18643302710029
 20
205.7228622798167
 30
0.0
 70
     8
  0
VERTEX
  5
7C78
330
79A2
100
AcDbEntity
  8
M
  6
CONTINUOUS
 62
     7
100
AcDbVertex
100
AcDb2dVertex
 10
79.32282566195985
 20
205.1810574925323
 30
0.0
 70
     8
  0
VERTEX
  5
7C79
330
79A2
100
AcDbEntity
  8
M
  6
CONTINUOUS
 62
     7
100
AcDbVertex
100
AcDb2dVertex
 10
79.46925935720051
 20
204.5127562138996
 30
0.0
 70
     8
  0
VERTEX
  5
7C7A
330
79A2
100
AcDbEntity
  8
M
  6
CONTINUOUS
 62
     7
100
AcDbVertex
100
AcDb2dVertex
 10
79.62137947553369
 20
203.700789725154
 30
0.0
 70
     8
  0
VERTEX
  5
7C7B
330
79A2
100
AcDbEntity
  8
M
  6
CONTINUOUS
 62
     7
100
AcDbVertex
100
AcDb2dVertex
 10
79.77483137967059
 20
202.7279893075318
 30
0.0
 70
     8
  0
VERTEX
  5
7C7C
330
79A2
100
AcDbEntity
  8
M
  6
CONTINUOUS
 62
     7
100
AcDbVertex
100
AcDb2dVertex
 10
79.9252604323226
 20
201.5771862422687
 30
0.0
 70
     8
  0
VERTEX
  5
7C7D
330
79A2
100
AcDbEntity
  8
M
  6
CONTINUOUS
 62
     7
100
AcDbVertex
100
AcDb2dVertex
 10
80.06831199620092
 20
200.2312118106003
 30
0.0
 70
     8
  0
VERTEX
  5
7C7E
330
79A2
100
AcDbEntity
  8
M
  6
CONTINUOUS
 62
     7
100
AcDbVertex
100
AcDb2dVertex
 10
80.20052066644089
 20
198.6836809479116
 30
0.0
 70
     8
  0
VERTEX
  5
7C7F
330
79A2
100
AcDbEntity
  8
M
  6
CONTINUOUS
 62
     7
100
AcDbVertex
100
AcDb2dVertex
 10
80.32197796787322
 20
196.9713432061825
 30
0.0
 70
     8
  0
VERTEX
  5
7C80
330
79A2
100
AcDbEntity
  8
M
  6
CONTINUOUS
 62
     7
100
AcDbVertex
100
AcDb2dVertex
 10
80.43366465775269
 20
195.141731791542
 30
0.0
 70
     8
  0
VERTEX
  5
7C81
330
79A2
100
AcDbEntity
  8
M
  6
CONTINUOUS
 62
     7
100
AcDbVertex
100
AcDb2dVertex
 10
80.53656149333404
 20
193.2423799101185
 30
0.0
 70
     8
  0
VERTEX
  5
7C82
330
79A2
100
AcDbEntity
  8
M
  6
CONTINUOUS
 62
     7
100
AcDbVertex
100
AcDb2dVertex
 10
80.631649231872
 20
191.3208207680413
 30
0.0
 70
     8
  0
VERTEX
  5
7C83
330
79A2
100
AcDbEntity
  8
M
  6
CONTINUOUS
 62
     7
100
AcDbVertex
100
AcDb2dVertex
 10
80.71990863062126
 20
189.4245875714389
 30
0.0
 70
     8
  0
VERTEX
  5
7C84
330
79A2
100
AcDbEntity
  8
M
  6
CONTINUOUS
 62
     7
100
AcDbVertex
100
AcDb2dVertex
 10
80.80232044683659
 20
187.6012135264402
 30
0.0
 70
     8
  0
VERTEX
  5
7C85
330
79A2
100
AcDbEntity
  8
M
  6
CONTINUOUS
 62
     7
100
AcDbVertex
100
AcDb2dVertex
 10
80.87986543777267
 20
185.8982318391739
 30
0.0
 70
     8
  0
VERTEX
  5
7C86
330
79A2
100
AcDbEntity
  8
M
  6
CONTINUOUS
 62
     7
100
AcDbVertex
100
AcDb2dVertex
 10
80.95343536947849
 20
184.3514174454675
 30
0.0
 70
     8
  0
VERTEX
  5
7C87
330
79A2
100
AcDbEntity
  8
M
  6
CONTINUOUS
 62
     7
100
AcDbVertex
100
AcDb2dVertex
 10
81.02356604317943
 20
182.9495121999407
 30
0.0
 70
     8
  0
VERTEX
  5
7C88
330
79A2
100
AcDbEntity
  8
M
  6
CONTINUOUS
 62
     7
100
AcDbVertex
100
AcDb2dVertex
 10
81.09070426889514
 20
181.6694996869124
 30
0.0
 70
     8
  0
VERTEX
  5
7C89
330
79A2
100
AcDbEntity
  8
M
  6
CONTINUOUS
 62
     7
100
AcDbVertex
100
AcDb2dVertex
 10
81.15529685664538
 20
180.4883634907008
 30
0.0
 70
     8
  0
VERTEX
  5
7C8A
330
79A2
100
AcDbEntity
  8
M
  6
CONTINUOUS
 62
     7
100
AcDbVertex
100
AcDb2dVertex
 10
81.21779061644964
 20
179.3830871956243
 30
0.0
 70
     8
  0
VERTEX
  5
7C8B
330
79A2
100
AcDbEntity
  8
M
  6
CONTINUOUS
 62
     7
100
AcDbVertex
100
AcDb2dVertex
 10
81.27863235832768
 20
178.3306543860015
 30
0.0
 70
     8
  0
VERTEX
  5
7C8C
330
79A2
100
AcDbEntity
  8
M
  6
CONTINUOUS
 62
     7
100
AcDbVertex
100
AcDb2dVertex
 10
81.33826889229906
 20
177.3080486461508
 30
0.0
 70
     8
  0
VERTEX
  5
7C8D
330
79A2
100
AcDbEntity
  8
M
  6
CONTINUOUS
 62
     7
100
AcDbVertex
100
AcDb2dVertex
 10
81.39714702838348
 20
176.2922535603905
 30
0.0
 70
     8
  0
VERTEX
  5
7C8E
330
79A2
100
AcDbEntity
  8
M
  6
CONTINUOUS
 62
     7
100
AcDbVertex
100
AcDb2dVertex
 10
81.45549611654677
 20
175.2672516235602
 30
0.0
 70
     8
  0
VERTEX
  5
7C8F
330
79A2
100
AcDbEntity
  8
M
  6
CONTINUOUS
 62
     7
100
AcDbVertex
100
AcDb2dVertex
 10
81.51267566653947
 20
174.2450209725823
 30
0.0
 70
     8
  0
VERTEX
  5
7C90
330
79A2
100
AcDbEntity
  8
M
  6
CONTINUOUS
 62
     7
100
AcDbVertex
100
AcDb2dVertex
 10
81.5678277280584
 20
173.2445386548995
 30
0.0
 70
     8
  0
VERTEX
  5
7C91
330
79A2
100
AcDbEntity
  8
M
  6
CONTINUOUS
 62
     7
100
AcDbVertex
100
AcDb2dVertex
 10
81.62009435080035
 20
172.2847817179558
 30
0.0
 70
     8
  0
VERTEX
  5
7C92
330
79A2
100
AcDbEntity
  8
M
  6
CONTINUOUS
 62
     7
100
AcDbVertex
100
AcDb2dVertex
 10
81.66861758446206
 20
171.3847272091939
 30
0.0
 70
     8
  0
VERTEX
  5
7C93
330
79A2
100
AcDbEntity
  8
M
  6
CONTINUOUS
 62
     7
100
AcDbVertex
100
AcDb2dVertex
 10
81.71253947874033
 20
170.5633521760571
 30
0.0
 70
     8
  0
VERTEX
  5
7C94
330
79A2
100
AcDbEntity
  8
M
  6
CONTINUOUS
 62
     7
100
AcDbVertex
100
AcDb2dVertex
 10
81.75100208333196
 20
169.8396336659889
 30
0.0
 70
     8
  0
VERTEX
  5
7C95
330
79A2
100
AcDbEntity
  8
M
  6
CONTINUOUS
 62
     7
100
AcDbVertex
100
AcDb2dVertex
 10
81.78314744793372
 20
169.2325487264324
 30
0.0
 70
     8
  0
VERTEX
  5
7C96
330
79A2
100
AcDbEntity
  8
M
  6
CONTINUOUS
 62
     7
100
AcDbVertex
100
AcDb2dVertex
 10
81.80862158799159
 20
168.7491010720465
 30
0.0
 70
     8
  0
VERTEX
  5
7C97
330
79A2
100
AcDbEntity
  8
M
  6
CONTINUOUS
 62
     7
100
AcDbVertex
100
AcDb2dVertex
 10
81.82908638194865
 20
168.3484010863542
 30
0.0
 70
     8
  0
VERTEX
  5
7C98
330
79A2
100
AcDbEntity
  8
M
  6
CONTINUOUS
 62
     7
100
AcDbVertex
100
AcDb2dVertex
 10
81.84670767399707
 20
167.9775858200939
 30
0.0
 70
     8
  0
VERTEX
  5
7C99
330
79A2
100
AcDbEntity
  8
M
  6
CONTINUOUS
 62
     7
100
AcDbVertex
100
AcDb2dVertex
 10
81.86365130832914
 20
167.5837923240041
 30
0.0
 70
     8
  0
VERTEX
  5
7C9A
330
79A2
100
AcDbEntity
  8
M
  6
CONTINUOUS
 62
     7
100
AcDbVertex
100
AcDb2dVertex
 10
81.88208312913706
 20
167.1141576488235
 30
0.0
 70
     8
  0
VERTEX
  5
7C9B
330
79A2
100
AcDbEntity
  8
M
  6
CONTINUOUS
 62
     7
100
AcDbVertex
100
AcDb2dVertex
 10
81.9041689806132
 20
166.5158188452906
 30
0.0
 70
     8
  0
VERTEX
  5
7C9C
330
79A2
100
AcDbEntity
  8
M
  6
CONTINUOUS
 62
     7
100
AcDbVertex
100
AcDb2dVertex
 10
81.93207470694964
 20
165.7359129641438
 30
0.0
 70
     8
  0
VERTEX
  5
7C9D
330
79A2
100
AcDbEntity
  8
M
  6
CONTINUOUS
 62
     7
100
AcDbVertex
100
AcDb2dVertex
 10
81.96796615233875
 20
164.7215770561217
 30
0.0
 70
     8
  0
VERTEX
  5
7C9E
330
79A2
100
AcDbEntity
  8
M
  6
CONTINUOUS
 62
     7
100
AcDbVertex
100
AcDb2dVertex
 10
82.01391715056134
 20
163.4388664633708
 30
0.0
 70
     8
  0
VERTEX
  5
7C9F
330
79A2
100
AcDbEntity
  8
M
  6
CONTINUOUS
 62
     7
100
AcDbVertex
100
AcDb2dVertex
 10
82.07163349375289
 20
161.9295096936696
 30
0.0
 70
     8
  0
VERTEX
  5
7CA0
330
79A2
100
AcDbEntity
  8
M
  6
CONTINUOUS
 62
     7
100
AcDbVertex
100
AcDb2dVertex
 10
82.14272896363747
 20
160.2541535462045
 30
0.0
 70
     8
  0
VERTEX
  5
7CA1
330
79A2
100
AcDbEntity
  8
M
  6
CONTINUOUS
 62
     7
100
AcDbVertex
100
AcDb2dVertex
 10
82.22881734193911
 20
158.473444820162
 30
0.0
 70
     8
  0
VERTEX
  5
7CA2
330
79A2
100
AcDbEntity
  8
M
  6
CONTINUOUS
 62
     7
100
AcDbVertex
100
AcDb2dVertex
 10
82.33151241038198
 20
156.6480303147285
 30
0.0
 70
     8
  0
VERTEX
  5
7CA3
330
79A2
100
AcDbEntity
  8
M
  6
CONTINUOUS
 62
     7
100
AcDbVertex
100
AcDb2dVertex
 10
82.45242795069009
 20
154.8385568290903
 30
0.0
 70
     8
  0
VERTEX
  5
7CA4
330
79A2
100
AcDbEntity
  8
M
  6
CONTINUOUS
 62
     7
100
AcDbVertex
100
AcDb2dVertex
 10
82.59317774458752
 20
153.1056711624339
 30
0.0
 70
     8
  0
VERTEX
  5
7CA5
330
79A2
100
AcDbEntity
  8
M
  6
CONTINUOUS
 62
     7
100
AcDbVertex
100
AcDb2dVertex
 10
82.75537557379834
 20
151.5100201139455
 30
0.0
 70
     8
  0
VERTEX
  5
7CA6
330
79A2
100
AcDbEntity
  8
M
  6
CONTINUOUS
 62
     7
100
AcDbVertex
100
AcDb2dVertex
 10
82.94021423039682
 20
150.0978194392638
 30
0.0
 70
     8
  0
VERTEX
  5
7CA7
330
79A2
100
AcDbEntity
  8
M
  6
CONTINUOUS
 62
     7
100
AcDbVertex
100
AcDb2dVertex
 10
83.14720254785774
 20
148.8575607198339
 30
0.0
 70
     8
  0
VERTEX
  5
7CA8
330
79A2
100
AcDbEntity
  8
M
  6
CONTINUOUS
 62
     7
100
AcDbVertex
100
AcDb2dVertex
 10
83.37542837000619
 20
147.7633044935534
 30
0.0
 70
     8
  0
VERTEX
  5
7CA9
330
79A2
100
AcDbEntity
  8
M
  6
CONTINUOUS
 62
     7
100
AcDbVertex
100
AcDb2dVertex
 10
83.62397954066713
 20
146.7891112983194
 30
0.0
 70
     8
  0
VERTEX
  5
7CAA
330
79A2
100
AcDbEntity
  8
M
  6
CONTINUOUS
 62
     7
100
AcDbVertex
100
AcDb2dVertex
 10
83.89194390366554
 20
145.9090416720296
 30
0.0
 70
     8
  0
VERTEX
  5
7CAB
330
79A2
100
AcDbEntity
  8
M
  6
CONTINUOUS
 62
     7
100
AcDbVertex
100
AcDb2dVertex
 10
84.17840930282647
 20
145.0971561525813
 30
0.0
 70
     8
  0
VERTEX
  5
7CAC
330
79A2
100
AcDbEntity
  8
M
  6
CONTINUOUS
 62
     7
100
AcDbVertex
100
AcDb2dVertex
 10
84.48246358197492
 20
144.3275152778717
 30
0.0
 70
     8
  0
VERTEX
  5
7CAD
330
79A2
100
AcDbEntity
  8
M
  6
CONTINUOUS
 62
     7
100
AcDbVertex
100
AcDb2dVertex
 10
84.80319458493585
 20
143.5741795857983
 30
0.0
 70
     8
  0
VERTEX
  5
7CAE
330
79A2
100
AcDbEntity
  8
M
  6
CONTINUOUS
 62
     7
100
AcDbVertex
100
AcDb2dVertex
 10
85.14240150793044
 20
142.816438564332
 30
0.0
 70
     8
  0
VERTEX
  5
7CAF
330
79A2
100
AcDbEntity
  8
M
  6
CONTINUOUS
 62
     7
100
AcDbVertex
100
AcDb2dVertex
 10
85.51272895676454
 20
142.0544975017396
 30
0.0
 70
     8
  0
VERTEX
  5
7CB0
330
79A2
100
AcDbEntity
  8
M
  6
CONTINUOUS
 62
     7
100
AcDbVertex
100
AcDb2dVertex
 10
85.92953288964016
 20
141.2937906363609
 30
0.0
 70
     8
  0
VERTEX
  5
7CB1
330
79A2
100
AcDbEntity
  8
M
  6
CONTINUOUS
 62
     7
100
AcDbVertex
100
AcDb2dVertex
 10
86.40816926475919
 20
140.5397522065362
 30
0.0
 70
     8
  0
VERTEX
  5
7CB2
330
79A2
100
AcDbEntity
  8
M
  6
CONTINUOUS
 62
     7
100
AcDbVertex
100
AcDb2dVertex
 10
86.96399404032375
 20
139.7978164506056
 30
0.0
 70
     8
  0
VERTEX
  5
7CB3
330
79A2
100
AcDbEntity
  8
M
  6
CONTINUOUS
 62
     7
100
AcDbVertex
100
AcDb2dVertex
 10
87.61236317453569
 20
139.0734176069096
 30
0.0
 70
     8
  0
VERTEX
  5
7CB4
330
79A2
100
AcDbEntity
  8
M
  6
CONTINUOUS
 62
     7
100
AcDbVertex
100
AcDb2dVertex
 10
88.3686326255971
 20
138.3719899137878
 30
0.0
 70
     8
  0
VERTEX
  5
7CB5
330
79A2
100
AcDbEntity
  8
M
  6
CONTINUOUS
 62
     7
100
AcDbVertex
100
AcDb2dVertex
 10
89.24815835170994
 20
137.6989676095808
 30
0.0
 70
     8
  0
VERTEX
  5
7CB6
330
79A2
100
AcDbEntity
  8
M
  6
CONTINUOUS
 62
     7
100
AcDbVertex
100
AcDb2dVertex
 10
90.26313382690387
 20
137.0596140307017
 30
0.0
 70
     8
  0
VERTEX
  5
7CB7
330
79A2
100
AcDbEntity
  8
M
  6
CONTINUOUS
 62
     7
100
AcDbVertex
100
AcDb2dVertex
 10
91.4131025885195
 20
136.458508905857
 30
0.0
 70
     8
  0
VERTEX
  5
7CB8
330
79A2
100
AcDbEntity
  8
M
  6
CONTINUOUS
 62
     7
100
AcDbVertex
100
AcDb2dVertex
 10
92.69444568972501
 20
135.9000610618257
 30
0.0
 70
     8
  0
VERTEX
  5
7CB9
330
79A2
100
AcDbEntity
  8
M
  6
CONTINUOUS
 62
     7
100
AcDbVertex
100
AcDb2dVertex
 10
94.10354418368871
 20
135.3886793253876
 30
0.0
 70
     8
  0
VERTEX
  5
7CBA
330
79A2
100
AcDbEntity
  8
M
  6
CONTINUOUS
 62
     7
100
AcDbVertex
100
AcDb2dVertex
 10
95.63677912357887
 20
134.9287725233219
 30
0.0
 70
     8
  0
VERTEX
  5
7CBB
330
79A2
100
AcDbEntity
  8
M
  6
CONTINUOUS
 62
     7
100
AcDbVertex
100
AcDb2dVertex
 10
97.29053156256373
 20
134.5247494824082
 30
0.0
 70
     8
  0
VERTEX
  5
7CBC
330
79A2
100
AcDbEntity
  8
M
  6
CONTINUOUS
 62
     7
100
AcDbVertex
100
AcDb2dVertex
 10
99.0611825538115
 20
134.1810190294256
 30
0.0
 70
     8
  0
VERTEX
  5
7CBD
330
79A2
100
AcDbEntity
  8
M
  6
CONTINUOUS
 62
     7
100
AcDbVertex
100
AcDb2dVertex
 10
100.9451131504905
 20
133.9019899911537
 30
0.0
 70
     8
  0
VERTEX
  5
7CBE
330
79A2
100
AcDbEntity
  8
M
  6
CONTINUOUS
 62
     7
100
AcDbVertex
100
AcDb2dVertex
 10
102.944061370246
 20
133.6893324513769
 30
0.0
 70
     8
  0
VERTEX
  5
7CBF
330
79A2
100
AcDbEntity
  8
M
  6
CONTINUOUS
 62
     7
100
AcDbVertex
100
AcDb2dVertex
 10
105.0811930886325
 20
133.5337615218996
 30
0.0
 70
     8
  0
VERTEX
  5
7CC0
330
79A2
100
AcDbEntity
  8
M
  6
CONTINUOUS
 62
     7
100
AcDbVertex
100
AcDb2dVertex
 10
107.3850311456808
 20
133.4232535715312
 30
0.0
 70
     8
  0
VERTEX
  5
7CC1
330
79A2
100
AcDbEntity
  8
M
  6
CONTINUOUS
 62
     7
100
AcDbVertex
100
AcDb2dVertex
 10
109.8840983814227
 20
133.3457849690812
 30
0.0
 70
     8
  0
VERTEX
  5
7CC2
330
79A2
100
AcDbEntity
  8
M
  6
CONTINUOUS
 62
     7
100
AcDbVertex
100
AcDb2dVertex
 10
112.6069176358891
 20
133.2893320833587
 30
0.0
 70
     8
  0
VERTEX
  5
7CC3
330
79A2
100
AcDbEntity
  8
M
  6
CONTINUOUS
 62
     7
100
AcDbVertex
100
AcDb2dVertex
 10
115.5820117491115
 20
133.2418712831732
 30
0.0
 70
     8
  0
VERTEX
  5
7CC4
330
79A2
100
AcDbEntity
  8
M
  6
CONTINUOUS
 62
     7
100
AcDbVertex
100
AcDb2dVertex
 10
118.837903561121
 20
133.1913789373345
 30
0.0
 70
     8
  0
VERTEX
  5
7CC5
330
79A2
100
AcDbEntity
  8
M
  6
CONTINUOUS
 62
     7
100
AcDbVertex
100
AcDb2dVertex
 10
122.4031159119492
 20
133.1258314146515
 30
0.0
 70
     8
  0
VERTEX
  5
7BDD
330
79A2
100
AcDbEntity
  8
M
  6
CONTINUOUS
 62
     7
100
AcDbVertex
100
AcDb2dVertex
 10
38.83749162768545
 20
327.1363346332951
 30
0.0
 70
    16
  0
VERTEX
  5
7BDE
330
79A2
100
AcDbEntity
  8
M
  6
CONTINUOUS
 62
     7
100
AcDbVertex
100
AcDb2dVertex
 10
39.54631465911506
 20
320.0
 30
0.0
 70
    16
  0
VERTEX
  5
7BDF
330
79A2
100
AcDbEntity
  8
M
  6
CONTINUOUS
 62
     7
100
AcDbVertex
100
AcDb2dVertex
 10
42.31875336458307
 20
303.2503731098894
 30
0.0
 70
    16
  0
VERTEX
  5
7BE0
330
79A2
100
AcDbEntity
  8
M
  6
CONTINUOUS
 62
     7
100
AcDbVertex
100
AcDb2dVertex
 10
43.00257383864088
 20
300.0
 30
0.0
 70
    16
  0
VERTEX
  5
7BE1
330
79A2
100
AcDbEntity
  8
M
  6
CONTINUOUS
 62
     7
100
AcDbVertex
100
AcDb2dVertex
 10
46.25541022280059
 20
288.1524297552413
 30
0.0
 70
    16
  0
VERTEX
  5
7BE2
330
79A2
100
AcDbEntity
  8
M
  6
CONTINUOUS
 62
     7
100
AcDbVertex
100
AcDb2dVertex
 10
49.02130023720005
 20
280.0
 30
0.0
 70
    16
  0
VERTEX
  5
7BE3
330
79A2
100
AcDbEntity
  8
M
  6
CONTINUOUS
 62
     7
100
AcDbVertex
100
AcDb2dVertex
 10
53.83317334228514
 20
267.5764051619188
 30
0.0
 70
    16
  0
VERTEX
  5
7BE4
330
79A2
100
AcDbEntity
  8
M
  6
CONTINUOUS
 62
     7
100
AcDbVertex
100
AcDb2dVertex
 10
57.91115959556447
 20
258.5008564791734
 30
0.0
 70
    16
  0
VERTEX
  5
7BE5
330
79A2
100
AcDbEntity
  8
M
  6
CONTINUOUS
 62
     7
100
AcDbVertex
100
AcDb2dVertex
 10
60.79027634098338
 20
250.7474271323553
 30
0.0
 70
    16
  0
VERTEX
  5
7BE6
330
79A2
100
AcDbEntity
  8
M
  6
CONTINUOUS
 62
     7
100
AcDbVertex
100
AcDb2dVertex
 10
65.22642569080971
 20
240.7794815219357
 30
0.0
 70
    16
  0
VERTEX
  5
7BE7
330
79A2
100
AcDbEntity
  8
M
  6
CONTINUOUS
 62
     7
100
AcDbVertex
100
AcDb2dVertex
 10
70.58677437399615
 20
228.1349562593363
 30
0.0
 70
    16
  0
VERTEX
  5
7BE8
330
79A2
100
AcDbEntity
  8
M
  6
CONTINUOUS
 62
     7
100
AcDbVertex
100
AcDb2dVertex
 10
73.26694960253006
 20
222.0434345292213
 30
0.0
 70
    16
  0
VERTEX
  5
7BE9
330
79A2
100
AcDbEntity
  8
M
  6
CONTINUOUS
 62
     7
100
AcDbVertex
100
AcDb2dVertex
 10
78.71473645037553
 20
207.2955541626611
 30
0.0
 70
    16
  0
VERTEX
  5
7BEA
330
79A2
100
AcDbEntity
  8
M
  6
CONTINUOUS
 62
     7
100
AcDbVertex
100
AcDb2dVertex
 10
78.71473645037553
 20
207.2955541626611
 30
0.0
 70
    16
  0
VERTEX
  5
7BEB
330
79A2
100
AcDbEntity
  8
M
  6
CONTINUOUS
 62
     7
100
AcDbVertex
100
AcDb2dVertex
 10
80.19345467419908
 20
202.496172719072
 30
0.0
 70
    16
  0
VERTEX
  5
7BEC
330
79A2
100
AcDbEntity
  8
M
  6
CONTINUOUS
 62
     7
100
AcDbVertex
100
AcDb2dVertex
 10
80.92131683003385
 20
184.1070258246528
 30
0.0
 70
    16
  0
VERTEX
  5
7BED
330
79A2
100
AcDbEntity
  8
M
  6
CONTINUOUS
 62
     7
100
AcDbVertex
100
AcDb2dVertex
 10
81.40047063230174
 20
176.4651150173611
 30
0.0
 70
    16
  0
VERTEX
  5
7BEE
330
79A2
100
AcDbEntity
  8
M
  6
CONTINUOUS
 62
     7
100
AcDbVertex
100
AcDb2dVertex
 10
81.85968281106012
 20
167.7860354682467
 30
0.0
 70
    16
  0
VERTEX
  5
7BEF
330
79A2
100
AcDbEntity
  8
M
  6
CONTINUOUS
 62
     7
100
AcDbVertex
100
AcDb2dVertex
 10
81.85968281106012
 20
167.7860354682467
 30
0.0
 70
    16
  0
VERTEX
  5
7BF0
330
79A2
100
AcDbEntity
  8
M
  6
CONTINUOUS
 62
     7
100
AcDbVertex
100
AcDb2dVertex
 10
82.50938285873189
 20
149.3992849954965
 30
0.0
 70
    16
  0
VERTEX
  5
7BF1
330
79A2
100
AcDbEntity
  8
M
  6
CONTINUOUS
 62
     7
100
AcDbVertex
100
AcDb2dVertex
 10
84.63503919680238
 20
143.6769452334409
 30
0.0
 70
    16
  0
VERTEX
  5
7BF2
330
79A2
100
AcDbEntity
  8
M
  6
CONTINUOUS
 62
     7
100
AcDbVertex
100
AcDb2dVertex
 10
87.76962786367358
 20
137.3380115855294
 30
0.0
 70
    16
  0
VERTEX
  5
7BF3
330
79A2
100
AcDbEntity
  8
M
  6
CONTINUOUS
 62
     7
100
AcDbVertex
100
AcDb2dVertex
 10
99.77539945876287
 20
133.1648140819263
 30
0.0
 70
    16
  0
VERTEX
  5
7BF4
330
79A2
100
AcDbEntity
  8
M
  6
CONTINUOUS
 62
     7
100
AcDbVertex
100
AcDb2dVertex
 10
112.4581019557328
 20
133.3313860497677
 30
0.0
 70
    16
  0
VERTEX
  5
7BF5
330
79A2
100
AcDbEntity
  8
M
  6
CONTINUOUS
 62
     7
100
AcDbVertex
100
AcDb2dVertex
 10
122.4031159119492
 20
133.1258314146515
 30
0.0
 70
    16
  0
SEQEND
  5
7BF6
330
79A2
100
AcDbEntity
  8
M
  6
CONTINUOUS
 62
     7
  0
ENDSEC
  0
SECTION
  2
OBJECTS
  0
DICTIONARY
  5
7720
330
0
100
AcDbDictionary
  3
ACAD_GROUP
350
7721
  3
ACAD_LAYOUT
350
772D
  3
ACAD_MLINESTYLE
350
772A
  3
ACAD_PLOTSETTINGS
350
772C
  3
ACAD_PLOTSTYLENAME
350
79F9
  3
ACDBHEADERROUNDTRIPXREC
350
7D18
  3
ACDBVARIABLEDICTIONARY
350
7A2F
1001
ACAD
1000
TREAT_AS_HARD
1070
     0
  0
DICTIONARY
  5
79F4
330
7732
100
AcDbDictionary
  3
ACAD_LAYOUTSELFREF
350
7D39
  0
DICTIONARY
  5
79F2
330
772E
100
AcDbDictionary
  3
ACAD_LAYOUTSELFREF
350
7D38
  0
DICTIONARY
  5
7721
102
{ACAD_REACTORS
330
7720
102
}
330
7720
100
AcDbDictionary
1001
ACAD
1000
TREAT_AS_HARD
1070
     0
  0
DICTIONARY
  5
772D
102
{ACAD_REACTORS
330
7720
102
}
330
7720
100
AcDbDictionary
1001
ACAD
1000
TREAT_AS_HARD
1070
     0
  0
DICTIONARY
  5
772A
102
{ACAD_REACTORS
330
7720
102
}
330
7720
100
AcDbDictionary
  3
STANDARD
350
772B
1001
ACAD
1000
TREAT_AS_HARD
1070
     0
  0
DICTIONARY
  5
772C
102
{ACAD_REACTORS
330
7720
102
}
330
7720
100
AcDbDictionary
1001
ACAD
1000
TREAT_AS_HARD
1070
     0
  0
ACDBDICTIONARYWDFLT
  5
79F9
102
{ACAD_REACTORS
330
7720
102
}
330
7720
100
AcDbDictionary
281
     1
  3
Normal
350
79FA
100
AcDbDictionaryWithDefault
340
79FA
  0
DICTIONARY
  5
7D18
102
{ACAD_REACTORS
330
7720
102
}
330
7720
100
AcDbDictionary
  3
CEPSNTYPE
350
7D22
  3
FINGERPRINTGUID
350
7D23
  3
HYPERLINKBASE
350
7D1B
  3
INSUNITS
350
7D21
  3
LAYOUTDICT
350
7D1D
  3
LWETCUNION
350
7D20
  3
PLOTSETDICT
350
7D1E
  3
PLOTSTYLNAMDICT
350
7D1F
  3
PSVPSCALE
350
7D25
  3
PUCSBASE
350
7D28
  3
PUCSORGBACK
350
7D2E
  3
PUCSORGBOTTOM
350
7D2A
  3
PUCSORGFRONT
350
7D2D
  3
PUCSORGLEFT
350
7D2B
  3
PUCSORGRIGHT
350
7D2C
  3
PUCSORGTOP
350
7D29
  3
PUCSORTHOREF
350
7D26
  3
PUCSORTHOVIEW
350
7D27
  3
STYLESHEET
350
7D1C
  3
TSTACKALIGN
350
7D19
  3
TSTACKSIZE
350
7D1A
  3
UCSBASE
350
7D31
  3
UCSORGBACK
350
7D37
  3
UCSORGBOTTOM
350
7D33
  3
UCSORGFRONT
350
7D36
  3
UCSORGLEFT
350
7D34
  3
UCSORGRIGHT
350
7D35
  3
UCSORGTOP
350
7D32
  3
UCSORTHOREF
350
7D2F
  3
UCSORTHOVIEW
350
7D30
  3
VERSIONGUID
350
7D24
  0
DICTIONARY
  5
7A2F
102
{ACAD_REACTORS
330
7720
102
}
330
7720
100
AcDbDictionary
  3
DIMASSOC
350
7A30
  0
XRECORD
  5
7D39
102
{ACAD_REACTORS
330
79F4
102
}
330
79F4
100
AcDbXrecord
340
7732
  0
XRECORD
  5
7D38
102
{ACAD_REACTORS
330
79F2
102
}
330
79F2
100
AcDbXrecord
340
772E
  0
MLINESTYLE
  5
772B
102
{ACAD_REACTORS
330
772A
102
}
330
772A
100
AcDbMlineStyle
  2
STANDARD
 70
     0
  3

 62
   256
 51
90.0
 52
90.0
 71
     2
 49
0.5
 62
   256
  6
BYLAYER
 49
-0.5
 62
   256
  6
BYLAYER
  0
ACDBPLACEHOLDER
  5
79FA
102
{ACAD_REACTORS
330
79F9
102
}
330
79F9
100
AcDbPlaceHolder
280
     0
  0
XRECORD
  5
7D22
102
{ACAD_REACTORS
330
7D18
102
}
330
7D18
100
AcDbXrecord
 90
        0
  0
XRECORD
  5
7D23
102
{ACAD_REACTORS
330
7D18
102
}
330
7D18
100
AcDbXrecord
  1
{3C6CBEE6-C52D-4895-9E3D-67C42254B7E9}
  0
XRECORD
  5
7D1B
102
{ACAD_REACTORS
330
7D18
102
}
330
7D18
100
AcDbXrecord
  1

  0
XRECORD
  5
7D21
102
{ACAD_REACTORS
330
7D18
102
}
330
7D18
100
AcDbXrecord
 90
        0
  0
XRECORD
  5
7D1D
102
{ACAD_REACTORS
330
7D18
102
}
330
7D18
100
AcDbXrecord
340
772D
  0
XRECORD
  5
7D20
102
{ACAD_REACTORS
330
7D18
102
}
330
7D18
100
AcDbXrecord
 90
    10781
  0
XRECORD
  5
7D1E
102
{ACAD_REACTORS
330
7D18
102
}
330
7D18
100
AcDbXrecord
340
772C
  0
XRECORD
  5
7D1F
102
{ACAD_REACTORS
330
7D18
102
}
330
7D18
100
AcDbXrecord
340
79F9
  0
XRECORD
  5
7D25
102
{ACAD_REACTORS
330
7D18
102
}
330
7D18
100
AcDbXrecord
 40
0.0
  0
XRECORD
  5
7D28
102
{ACAD_REACTORS
330
7D18
102
}
330
7D18
100
AcDbXrecord
340
0
  0
XRECORD
  5
7D2E
102
{ACAD_REACTORS
330
7D18
102
}
330
7D18
100
AcDbXrecord
 10
0.0
 20
0.0
 30
0.0
  0
XRECORD
  5
7D2A
102
{ACAD_REACTORS
330
7D18
102
}
330
7D18
100
AcDbXrecord
 10
0.0
 20
0.0
 30
0.0
  0
XRECORD
  5
7D2D
102
{ACAD_REACTORS
330
7D18
102
}
330
7D18
100
AcDbXrecord
 10
0.0
 20
0.0
 30
0.0
  0
XRECORD
  5
7D2B
102
{ACAD_REACTORS
330
7D18
102
}
330
7D18
100
AcDbXrecord
 10
0.0
 20
0.0
 30
0.0
  0
XRECORD
  5
7D2C
102
{ACAD_REACTORS
330
7D18
102
}
330
7D18
100
AcDbXrecord
 10
0.0
 20
0.0
 30
0.0
  0
XRECORD
  5
7D29
102
{ACAD_REACTORS
330
7D18
102
}
330
7D18
100
AcDbXrecord
 10
0.0
 20
0.0
 30
0.0
  0
XRECORD
  5
7D26
102
{ACAD_REACTORS
330
7D18
102
}
330
7D18
100
AcDbXrecord
340
0
  0
XRECORD
  5
7D27
102
{ACAD_REACTORS
330
7D18
102
}
330
7D18
100
AcDbXrecord
 70
     0
  0
XRECORD
  5
7D1C
102
{ACAD_REACTORS
330
7D18
102
}
330
7D18
100
AcDbXrecord
  1

  0
XRECORD
  5
7D19
102
{ACAD_REACTORS
330
7D18
102
}
330
7D18
100
AcDbXrecord
 90
        1
  0
XRECORD
  5
7D1A
102
{ACAD_REACTORS
330
7D18
102
}
330
7D18
100
AcDbXrecord
 90
       70
  0
XRECORD
  5
7D31
102
{ACAD_REACTORS
330
7D18
102
}
330
7D18
100
AcDbXrecord
340
0
  0
XRECORD
  5
7D37
102
{ACAD_REACTORS
330
7D18
102
}
330
7D18
100
AcDbXrecord
 10
0.0
 20
0.0
 30
0.0
  0
XRECORD
  5
7D33
102
{ACAD_REACTORS
330
7D18
102
}
330
7D18
100
AcDbXrecord
 10
0.0
 20
0.0
 30
0.0
  0
XRECORD
  5
7D36
102
{ACAD_REACTORS
330
7D18
102
}
330
7D18
100
AcDbXrecord
 10
0.0
 20
0.0
 30
0.0
  0
XRECORD
  5
7D34
102
{ACAD_REACTORS
330
7D18
102
}
330
7D18
100
AcDbXrecord
 10
0.0
 20
0.0
 30
0.0
  0
XRECORD
  5
7D35
102
{ACAD_REACTORS
330
7D18
102
}
330
7D18
100
AcDbXrecord
 10
0.0
 20
0.0
 30
0.0
  0
XRECORD
  5
7D32
102
{ACAD_REACTORS
330
7D18
102
}
330
7D18
100
AcDbXrecord
 10
0.0
 20
0.0
 30
0.0
  0
XRECORD
  5
7D2F
102
{ACAD_REACTORS
330
7D18
102
}
330
7D18
100
AcDbXrecord
340
0
  0
XRECORD
  5
7D30
102
{ACAD_REACTORS
330
7D18
102
}
330
7D18
100
AcDbXrecord
 70
     0
  0
XRECORD
  5
7D24
102
{ACAD_REACTORS
330
7D18
102
}
330
7D18
100
AcDbXrecord
  1
{9DDDD571-4688-4AC6-A2E7-80DE0DD158CC}
  0
DICTIONARYVAR
  5
7A30
102
{ACAD_REACTORS
330
7A2F
102
}
330
7A2F
100
DictionaryVariables
280
     0
  1
1
  0
ENDSEC
  0
EOF
