  0
SECTION
  2
HEADER
  9
$ACADVER
  1
AC1015
  9
$ACADMAINTVER
 70
    20
  9
$DWGCODEPAGE
  3
ANSI_932
  9
$INSBASE
 10
0.0
 20
0.0
 30
0.0
  9
$EXTMIN
 10
-2.903722553215402
 20
36.19783192476962
 30
-0.0000000000000053
  9
$EXTMAX
 10
202.2507914542328
 20
311.4115862338656
 30
0.0000000000000099
  9
$LIMMIN
 10
0.0
 20
0.0
  9
$LIMMAX
 10
12.0
 20
9.0
  9
$ORTHOMODE
 70
     0
  9
$REGENMODE
 70
     1
  9
$FILLMODE
 70
     1
  9
$QTEXTMODE
 70
     0
  9
$MIRRTEXT
 70
     1
  9
$LTSCALE
 40
1.0
  9
$ATTMODE
 70
     1
  9
$TEXTSIZE
 40
0.2
  9
$TRACEWID
 40
0.05
  9
$TEXTSTYLE
  7
LEROY
  9
$CLAYER
  8
0
  9
$CELTYPE
  6
ByLayer
  9
$CECOLOR
 62
   256
  9
$CELTSCALE
 40
1.0
  9
$DISPSILH
 70
     0
  9
$DIMSCALE
 40
1.0
  9
$DIMASZ
 40
0.18
  9
$DIMEXO
 40
0.0625
  9
$DIMDLI
 40
0.38
  9
$DIMRND
 40
0.0
  9
$DIMDLE
 40
0.0
  9
$DIMEXE
 40
0.18
  9
$DIMTP
 40
0.0
  9
$DIMTM
 40
0.0
  9
$DIMTXT
 40
0.18
  9
$DIMCEN
 40
0.09
  9
$DIMTSZ
 40
0.0
  9
$DIMTOL
 70
     0
  9
$DIMLIM
 70
     0
  9
$DIMTIH
 70
     1
  9
$DIMTOH
 70
     1
  9
$DIMSE1
 70
     0
  9
$DIMSE2
 70
     0
  9
$DIMTAD
 70
     0
  9
$DIMZIN
 70
     0
  9
$DIMBLK
  1

  9
$DIMASO
 70
     1
  9
$DIMSHO
 70
     1
  9
$DIMPOST
  1

  9
$DIMAPOST
  1

  9
$DIMALT
 70
     0
  9
$DIMALTD
 70
     2
  9
$DIMALTF
 40
25.4
  9
$DIMLFAC
 40
1.0
  9
$DIMTOFL
 70
     0
  9
$DIMTVP
 40
0.0
  9
$DIMTIX
 70
     0
  9
$DIMSOXD
 70
     0
  9
$DIMSAH
 70
     0
  9
$DIMBLK1
  1

  9
$DIMBLK2
  1

  9
$DIMSTYLE
  2
Standard
  9
$DIMCLRD
 70
     0
  9
$DIMCLRE
 70
     0
  9
$DIMCLRT
 70
     0
  9
$DIMTFAC
 40
1.0
  9
$DIMGAP
 40
0.09
  9
$DIMJUST
 70
     0
  9
$DIMSD1
 70
     0
  9
$DIMSD2
 70
     0
  9
$DIMTOLJ
 70
     1
  9
$DIMTZIN
 70
     0
  9
$DIMALTZ
 70
     0
  9
$DIMALTTZ
 70
     0
  9
$DIMUPT
 70
     0
  9
$DIMDEC
 70
     4
  9
$DIMTDEC
 70
     4
  9
$DIMALTU
 70
     2
  9
$DIMALTTD
 70
     2
  9
$DIMTXSTY
  7
STANDARD
  9
$DIMAUNIT
 70
     0
  9
$DIMADEC
 70
     0
  9
$DIMALTRND
 40
0.0
  9
$DIMAZIN
 70
     0
  9
$DIMDSEP
 70
    46
  9
$DIMATFIT
 70
     3
  9
$DIMFRAC
 70
     0
  9
$DIMLDRBLK
  1

  9
$DIMLUNIT
 70
     2
  9
$DIMLWD
 70
    -2
  9
$DIMLWE
 70
    -2
  9
$DIMTMOVE
 70
     0
  9
$LUNITS
 70
     2
  9
$LUPREC
 70
     4
  9
$SKETCHINC
 40
0.1
  9
$FILLETRAD
 40
0.0
  9
$AUNITS
 70
     0
  9
$AUPREC
 70
     0
  9
$MENU
  1
acad
  9
$ELEVATION
 40
0.0
  9
$PELEVATION
 40
0.0
  9
$THICKNESS
 40
0.0
  9
$LIMCHECK
 70
     0
  9
$CHAMFERA
 40
0.0
  9
$CHAMFERB
 40
0.0
  9
$CHAMFERC
 40
0.0
  9
$CHAMFERD
 40
0.0
  9
$SKPOLY
 70
     0
  9
$TDCREATE
 40
2448965.564036458
  9
$TDUCREATE
 40
2448965.189036458
  9
$TDUPDATE
 40
2454666.684242801
  9
$TDUUPDATE
 40
2454666.309242801
  9
$TDINDWG
 40
0.0152028819
  9
$TDUSRTIMER
 40
0.0151701505
  9
$USRTIMER
 70
     1
  9
$ANGBASE
 50
0.0
  9
$ANGDIR
 70
     0
  9
$PDMODE
 70
     2
  9
$PDSIZE
 40
-1.0
  9
$PLINEWID
 40
0.0
  9
$SPLFRAME
 70
     0
  9
$SPLINETYPE
 70
     6
  9
$SPLINESEGS
 70
     8
  9
$HANDSEED
  5
4E4
  9
$SURFTAB1
 70
     6
  9
$SURFTAB2
 70
     6
  9
$SURFTYPE
 70
     6
  9
$SURFU
 70
     6
  9
$SURFV
 70
     6
  9
$UCSBASE
  2

  9
$UCSNAME
  2

  9
$UCSORG
 10
0.0
 20
0.0
 30
0.0
  9
$UCSXDIR
 10
1.0
 20
0.0
 30
0.0
  9
$UCSYDIR
 10
0.0
 20
1.0
 30
0.0
  9
$UCSORTHOREF
  2

  9
$UCSORTHOVIEW
 70
     0
  9
$UCSORGTOP
 10
0.0
 20
0.0
 30
0.0
  9
$UCSORGBOTTOM
 10
0.0
 20
0.0
 30
0.0
  9
$UCSORGLEFT
 10
0.0
 20
0.0
 30
0.0
  9
$UCSORGRIGHT
 10
0.0
 20
0.0
 30
0.0
  9
$UCSORGFRONT
 10
0.0
 20
0.0
 30
0.0
  9
$UCSORGBACK
 10
0.0
 20
0.0
 30
0.0
  9
$PUCSBASE
  2

  9
$PUCSNAME
  2

  9
$PUCSORG
 10
0.0
 20
0.0
 30
0.0
  9
$PUCSXDIR
 10
1.0
 20
0.0
 30
0.0
  9
$PUCSYDIR
 10
0.0
 20
1.0
 30
0.0
  9
$PUCSORTHOREF
  2

  9
$PUCSORTHOVIEW
 70
     0
  9
$PUCSORGTOP
 10
0.0
 20
0.0
 30
0.0
  9
$PUCSORGBOTTOM
 10
0.0
 20
0.0
 30
0.0
  9
$PUCSORGLEFT
 10
0.0
 20
0.0
 30
0.0
  9
$PUCSORGRIGHT
 10
0.0
 20
0.0
 30
0.0
  9
$PUCSORGFRONT
 10
0.0
 20
0.0
 30
0.0
  9
$PUCSORGBACK
 10
0.0
 20
0.0
 30
0.0
  9
$USERI1
 70
     0
  9
$USERI2
 70
     0
  9
$USERI3
 70
     0
  9
$USERI4
 70
     0
  9
$USERI5
 70
     0
  9
$USERR1
 40
0.0
  9
$USERR2
 40
0.0
  9
$USERR3
 40
0.0
  9
$USERR4
 40
0.0
  9
$USERR5
 40
0.0
  9
$WORLDVIEW
 70
     1
  9
$SHADEDGE
 70
     3
  9
$SHADEDIF
 70
    70
  9
$TILEMODE
 70
     1
  9
$MAXACTVP
 70
    16
  9
$PINSBASE
 10
0.0
 20
0.0
 30
0.0
  9
$PLIMCHECK
 70
     0
  9
$PEXTMIN
 10
-297.0
 20
-210.0
 30
0.0
  9
$PEXTMAX
 10
297.0
 20
210.0
 30
0.0
  9
$PLIMMIN
 10
0.0
 20
0.0
  9
$PLIMMAX
 10
12.0
 20
9.0
  9
$UNITMODE
 70
     0
  9
$VISRETAIN
 70
     0
  9
$PLINEGEN
 70
     0
  9
$PSLTSCALE
 70
     1
  9
$TREEDEPTH
 70
  3020
  9
$CMLSTYLE
  2
Standard
  9
$CMLJUST
 70
     0
  9
$CMLSCALE
 40
1.0
  9
$PROXYGRAPHICS
 70
     1
  9
$MEASUREMENT
 70
     0
  9
$CELWEIGHT
370
    -1
  9
$ENDCAPS
280
     0
  9
$JOINSTYLE
280
     0
  9
$LWDISPLAY
290
     0
  9
$INSUNITS
 70
     0
  9
$HYPERLINKBASE
  1

  9
$STYLESHEET
  1
monochrome-all0.13mm.ctb
  9
$XEDIT
290
     1
  9
$CEPSNTYPE
380
     0
  9
$PSTYLEMODE
290
     1
  9
$FINGERPRINTGUID
  2
{B575EA6C-912C-4B73-BCDA-28048DCAB120}
  9
$VERSIONGUID
  2
{97B70C41-0D20-4CD2-8A7C-E7AC04FD70D7}
  9
$EXTNAMES
290
     1
  9
$PSVPSCALE
 40
0.0
  9
$OLESTARTUP
290
     0
  0
ENDSEC
  0
SECTION
  2
CLASSES
  0
CLASS
  1
ACDBDICTIONARYWDFLT
  2
AcDbDictionaryWithDefault
  3
ObjectDBX Classes
 90
        0
280
     0
281
     0
  0
CLASS
  1
TABLESTYLE
  2
AcDbTableStyle
  3
ObjectDBX Classes
 90
     2047
280
     0
281
     0
  0
CLASS
  1
DICTIONARYVAR
  2
AcDbDictionaryVar
  3
ObjectDBX Classes
 90
        0
280
     0
281
     0
  0
CLASS
  1
SORTENTSTABLE
  2
AcDbSortentsTable
  3
ObjectDBX Classes
 90
    32768
280
     0
281
     0
  0
CLASS
  1
ACDBPLACEHOLDER
  2
AcDbPlaceHolder
  3
ObjectDBX Classes
 90
        0
280
     0
281
     0
  0
CLASS
  1
LAYOUT
  2
AcDbLayout
  3
ObjectDBX Classes
 90
        0
280
     0
281
     0
  0
ENDSEC
  0
SECTION
  2
TABLES
  0
TABLE
  2
VPORT
  5
8
330
0
100
AcDbSymbolTable
 70
     2
  0
VPORT
  5
4DA
330
8
100
AcDbSymbolTableRecord
100
AcDbViewportTableRecord
  2
*Active
 70
     0
 10
0.0
 20
0.0
 11
1.0
 21
1.0
 12
99.6735344505087
 22
173.8047090793176
 13
0.0
 23
0.0
 14
1.0
 24
1.0
 15
0.0
 25
0.0
 16
0.0
 26
0.0
 36
1.0
 17
0.0
 27
0.0
 37
0.0
 40
277.3307831883967
 41
1.121951219512195
 42
50.0
 43
0.0
 44
0.0
 50
0.0
 51
0.0
 71
     0
 72
   100
 73
     1
 74
     1
 75
     0
 76
     0
 77
     0
 78
     0
281
     0
 65
     0
110
0.0
120
0.0
130
0.0
111
1.0
121
0.0
131
0.0
112
0.0
122
1.0
132
0.0
 79
     0
146
0.0
  0
ENDTAB
  0
TABLE
  2
LTYPE
  5
5
330
0
100
AcDbSymbolTable
 70
     1
  0
LTYPE
  5
13
330
5
100
AcDbSymbolTableRecord
100
AcDbLinetypeTableRecord
  2
ByBlock
 70
     0
  3

 72
    65
 73
     0
 40
0.0
  0
LTYPE
  5
14
330
5
100
AcDbSymbolTableRecord
100
AcDbLinetypeTableRecord
  2
ByLayer
 70
     0
  3

 72
    65
 73
     0
 40
0.0
  0
LTYPE
  5
15
330
5
100
AcDbSymbolTableRecord
100
AcDbLinetypeTableRecord
  2
CONTINUOUS
 70
     0
  3
実線
 72
    65
 73
     0
 40
0.0
  0
ENDTAB
  0
TABLE
  2
LAYER
  5
2
330
0
100
AcDbSymbolTable
 70
    10
  0
LAYER
  5
10
330
2
100
AcDbSymbolTableRecord
100
AcDbLayerTableRecord
  2
0
 70
     0
 62
     7
  6
CONTINUOUS
370
    -3
390
F
  0
LAYER
  5
28
330
2
100
AcDbSymbolTableRecord
100
AcDbLayerTableRecord
  2
L0_
 70
     0
 62
     7
  6
CONTINUOUS
370
    -3
390
F
  0
LAYER
  5
29
330
2
100
AcDbSymbolTableRecord
100
AcDbLayerTableRecord
  2
L220_
 70
     0
 62
     7
  6
CONTINUOUS
370
    -3
390
F
  0
LAYER
  5
2A
330
2
100
AcDbSymbolTableRecord
100
AcDbLayerTableRecord
  2
L200_
 70
     0
 62
     7
  6
CONTINUOUS
370
    -3
390
F
  0
LAYER
  5
2B
330
2
100
AcDbSymbolTableRecord
100
AcDbLayerTableRecord
  2
L210_
 70
     0
 62
     7
  6
CONTINUOUS
370
    -3
390
F
  0
LAYER
  5
2C
330
2
100
AcDbSymbolTableRecord
100
AcDbLayerTableRecord
  2
VPORT-BORDERS
 70
     0
 62
     7
  6
CONTINUOUS
370
    -3
390
F
  0
LAYER
  5
165
330
2
100
AcDbSymbolTableRecord
100
AcDbLayerTableRecord
  2
Defpoints
 70
     0
 62
     7
  6
CONTINUOUS
290
     0
370
    -3
390
F
  0
LAYER
  5
23E
330
2
100
AcDbSymbolTableRecord
100
AcDbLayerTableRecord
  2
レイヤー_5
 70
     0
 62
     2
  6
CONTINUOUS
370
    -3
390
F
  0
LAYER
  5
26B
330
2
100
AcDbSymbolTableRecord
100
AcDbLayerTableRecord
  2
24
 70
     0
 62
     1
  6
CONTINUOUS
370
    -3
390
F
  0
LAYER
  5
26C
330
2
100
AcDbSymbolTableRecord
100
AcDbLayerTableRecord
  2
200
 70
     0
 62
     1
  6
CONTINUOUS
370
    -3
390
F
  0
ENDTAB
  0
TABLE
  2
STYLE
  5
3
330
0
100
AcDbSymbolTable
 70
     3
  0
STYLE
  5
11
330
3
100
AcDbSymbolTableRecord
100
AcDbTextStyleTableRecord
  2
STANDARD
 70
     0
 40
0.0
 41
1.0
 50
0.0
 71
     0
 42
0.2
  3
txt
  4

  0
STYLE
  5
26
330
3
100
AcDbSymbolTableRecord
100
AcDbTextStyleTableRecord
  2
LEROY
 70
     0
 40
0.0
 41
1.0
 50
0.0
 71
     0
 42
0.2
  3
txt
  4

  0
STYLE
  5
23F
330
3
100
AcDbSymbolTableRecord
100
AcDbTextStyleTableRecord
  2
STD
 70
     0
 40
0.0
 41
1.0
 50
0.0
 71
     0
 42
0.0
  3
romans.shx
  4
bigfont.shx
  0
ENDTAB
  0
TABLE
  2
VIEW
  5
6
330
0
100
AcDbSymbolTable
 70
     1
  0
VIEW
  5
2D
330
6
100
AcDbSymbolTableRecord
100
AcDbViewTableRecord
  2
V3
 70
     0
 40
420.0
 10
0.0
 20
0.0
 41
594.0
 11
0.0
 21
0.0
 31
1.0
 12
0.0
 22
0.0
 32
0.0
 42
50.0
 43
0.0
 44
0.0
 50
0.0
 71
     0
281
     0
 72
     1
110
0.0
120
0.0
130
0.0
111
1.0
121
0.0
131
0.0
112
0.0
122
1.0
132
0.0
 79
     0
146
0.0
  0
ENDTAB
  0
TABLE
  2
UCS
  5
7
330
0
100
AcDbSymbolTable
 70
     0
  0
ENDTAB
  0
TABLE
  2
APPID
  5
9
330
0
100
AcDbSymbolTable
 70
     3
  0
APPID
  5
12
330
9
100
AcDbSymbolTableRecord
100
AcDbRegAppTableRecord
  2
ACAD
 70
     0
  0
APPID
  5
154
330
9
100
AcDbSymbolTableRecord
100
AcDbRegAppTableRecord
  2
ACAD_EXEMPT_FROM_CAD_STANDARDS
 70
     0
  0
APPID
  5
1DB
330
9
100
AcDbSymbolTableRecord
100
AcDbRegAppTableRecord
  2
ACAD_PSEXT
 70
     0
  0
ENDTAB
  0
TABLE
  2
DIMSTYLE
  5
A
330
0
100
AcDbSymbolTable
 70
     1
100
AcDbDimStyleTable
 71
     1
340
14F
  0
DIMSTYLE
105
14F
330
A
100
AcDbSymbolTableRecord
100
AcDbDimStyleTableRecord
  2
Standard
 70
     0
340
11
  0
ENDTAB
  0
TABLE
  2
BLOCK_RECORD
  5
1
330
0
100
AcDbSymbolTable
 70
     2
  0
BLOCK_RECORD
  5
22
330
1
100
AcDbSymbolTableRecord
100
AcDbBlockTableRecord
  2
*Model_Space
340
25
  0
BLOCK_RECORD
  5
1E
330
1
100
AcDbSymbolTableRecord
100
AcDbBlockTableRecord
  2
*Paper_Space
340
21
  0
ENDTAB
  0
ENDSEC
  0
SECTION
  2
BLOCKS
  0
BLOCK
  5
23
330
22
100
AcDbEntity
  8
0
100
AcDbBlockBegin
  2
*Model_Space
 70
     0
 10
0.0
 20
0.0
 30
0.0
  3
*Model_Space
  1

  0
ENDBLK
  5
24
330
22
100
AcDbEntity
  8
0
100
AcDbBlockEnd
  0
BLOCK
  5
1F
330
1E
100
AcDbEntity
 67
     1
  8
0
100
AcDbBlockBegin
  2
*Paper_Space
 70
     0
 10
0.0
 20
0.0
 30
0.0
  3
*Paper_Space
  1

  0
ENDBLK
  5
20
330
1E
100
AcDbEntity
 67
     1
  8
0
100
AcDbBlockEnd
  0
ENDSEC
  0
SECTION
  2
ENTITIES
  0
LINE
  5
2F
330
22
100
AcDbEntity
  8
L0_
  6
Continuous
 62
     2
100
AcDbLine
 10
122.081154
 20
190.828232
 30
0.0
 11
122.081154
 21
107.464706
 31
0.0
  0
LINE
  5
30
330
22
100
AcDbEntity
  8
L0_
  6
Continuous
 62
     2
100
AcDbLine
 10
122.081154
 20
107.464706
 30
0.0
 11
139.381154
 21
107.464706
 31
0.0
  0
LINE
  5
31
330
22
100
AcDbEntity
  8
L0_
  6
Continuous
 62
     2
100
AcDbLine
 10
139.381154
 20
107.464706
 30
0.0
 11
139.381154
 21
71.70706199999995
 31
0.0
  0
LINE
  5
32
330
22
100
AcDbEntity
  8
L0_
  6
Continuous
 62
     2
100
AcDbLine
 10
139.381154
 20
71.70706199999995
 30
0.0
 11
202.242371
 21
71.70706199999997
 31
0.0
  0
LINE
  5
33
330
22
100
AcDbEntity
  8
L220_
  6
Continuous
 62
     1
100
AcDbLine
 10
150.200211
 20
168.134995
 30
0.0
 11
150.721146
 21
171.089417
 31
0.0
  0
LINE
  5
34
330
22
100
AcDbEntity
  8
L220_
  6
Continuous
 62
     1
100
AcDbLine
 10
150.200211
 20
168.134995
 30
0.0
 11
149.67926
 21
171.089417
 31
0.0
  0
LINE
  5
35
330
22
100
AcDbEntity
  8
L220_
  6
Continuous
 62
     1
100
AcDbLine
 10
150.200211
 20
201.906784
 30
0.0
 11
149.67926
 21
198.952362
 31
0.0
  0
LINE
  5
36
330
22
100
AcDbEntity
  8
L220_
  6
Continuous
 62
     1
100
AcDbLine
 10
150.200211
 20
168.134995
 30
0.0
 11
149.67926
 21
171.089417
 31
0.0
  0
LINE
  5
37
330
22
100
AcDbEntity
  8
L220_
  6
Continuous
 62
     1
100
AcDbLine
 10
150.200211
 20
201.906784
 30
0.0
 11
150.721146
 21
198.952362
 31
0.0
  0
LINE
  5
38
330
22
100
AcDbEntity
  8
L220_
  6
Continuous
 62
     1
100
AcDbLine
 10
150.200211
 20
201.906784
 30
0.0
 11
150.200211
 21
168.134995
 31
0.0
  0
POINT
  5
39
330
22
100
AcDbEntity
  8
L220_
  6
Continuous
 62
     1
100
AcDbPoint
 10
116.658997
 20
188.839706
 30
0.0
  0
POINT
  5
3A
330
22
100
AcDbEntity
  8
L220_
  6
Continuous
 62
     1
100
AcDbPoint
 10
116.658997
 20
168.134995
 30
0.0
  0
POINT
  5
3B
330
22
100
AcDbEntity
  8
L220_
  6
Continuous
 62
     1
100
AcDbPoint
 10
116.658997
 20
181.199707
 30
0.0
  0
POINT
  5
3C
330
22
100
AcDbEntity
  8
L220_
  6
Continuous
 62
     1
100
AcDbPoint
 10
116.658997
 20
194.26442
 30
0.0
  0
POINT
  5
3D
330
22
100
AcDbEntity
  8
L220_
  6
Continuous
 62
     1
100
AcDbPoint
 10
116.658997
 20
201.906784
 30
0.0
  0
LINE
  5
3E
330
22
100
AcDbEntity
  8
L220_
  6
Continuous
 62
     1
100
AcDbLine
 10
126.286995
 20
133.594116
 30
0.0
 11
123.332573
 21
134.115051
 31
0.0
  0
LINE
  5
3F
330
22
100
AcDbEntity
  8
L220_
  6
Continuous
 62
     1
100
AcDbLine
 10
126.286995
 20
133.594116
 30
0.0
 11
123.332573
 21
133.073166
 31
0.0
  0
LINE
  5
40
330
22
100
AcDbEntity
  8
L220_
  6
Continuous
 62
     1
100
AcDbLine
 10
95.95099600000001
 20
133.594116
 30
0.0
 11
98.90541800000001
 21
134.1150669999999
 31
0.0
  0
LINE
  5
41
330
22
100
AcDbEntity
  8
L220_
  6
Continuous
 62
     1
100
AcDbLine
 10
95.95099600000001
 20
133.594116
 30
0.0
 11
98.90541800000001
 21
133.073181
 31
0.0
  0
LINE
  5
42
330
22
100
AcDbEntity
  8
L220_
  6
Continuous
 62
     1
100
AcDbLine
 10
150.1996
 20
94.40000899999999
 30
0.0
 11
150.720551
 21
97.35443100000001
 31
0.0
  0
LINE
  5
43
330
22
100
AcDbEntity
  8
L220_
  6
Continuous
 62
     1
100
AcDbLine
 10
150.1996
 20
94.40000899999999
 30
0.0
 11
149.678665
 21
97.35443100000001
 31
0.0
  0
LINE
  5
44
330
22
100
AcDbEntity
  8
L220_
  6
Continuous
 62
     1
100
AcDbLine
 10
150.1996
 20
94.40000899999999
 30
0.0
 11
149.678665
 21
97.35443100000001
 31
0.0
  0
LINE
  5
45
330
22
100
AcDbEntity
  8
L220_
  6
Continuous
 62
     1
100
AcDbLine
 10
150.1996
 20
115.107071
 30
0.0
 11
149.678665
 21
112.152649
 31
0.0
  0
LINE
  5
46
330
22
100
AcDbEntity
  8
L220_
  6
Continuous
 62
     1
100
AcDbLine
 10
150.1996
 20
115.107071
 30
0.0
 11
150.720551
 21
112.152649
 31
0.0
  0
LINE
  5
47
330
22
100
AcDbEntity
  8
L220_
  6
Continuous
 62
     1
100
AcDbLine
 10
116.657997
 20
124.735313
 30
0.0
 11
116.657997
 21
133.594116
 31
0.0
  0
LINE
  5
48
330
22
100
AcDbEntity
  8
L220_
  6
Continuous
 62
     1
100
AcDbLine
 10
150.1996
 20
115.107071
 30
0.0
 11
150.1996
 21
94.40000899999999
 31
0.0
  0
LINE
  5
49
330
22
100
AcDbEntity
  8
L220_
  6
Continuous
 62
     1
100
AcDbLine
 10
95.95099600000001
 20
133.594116
 30
0.0
 11
126.286995
 21
133.594116
 31
0.0
  0
LINE
  5
4A
330
22
100
AcDbEntity
  8
L220_
  6
Continuous
 62
     1
100
AcDbLine
 10
126.286995
 20
124.735313
 30
0.0
 11
126.286995
 21
134.594116
 31
0.0
  0
LINE
  5
4B
330
22
100
AcDbEntity
  8
L220_
  6
Continuous
 62
     1
100
AcDbLine
 10
122.081001
 20
124.735313
 30
0.0
 11
122.081001
 21
133.594116
 31
0.0
  0
LINE
  5
4C
330
22
100
AcDbEntity
  8
L220_
  6
Continuous
 62
     1
100
AcDbLine
 10
109.015999
 20
124.735313
 30
0.0
 11
109.015999
 21
133.594116
 31
0.0
  0
LINE
  5
4D
330
22
100
AcDbEntity
  8
L220_
  6
Continuous
 62
     1
100
AcDbLine
 10
95.95099600000001
 20
124.735313
 30
0.0
 11
95.95099600000001
 21
134.594116
 31
0.0
  0
LINE
  5
4E
330
22
100
AcDbEntity
  8
L220_
  6
Continuous
 62
     1
100
AcDbLine
 10
159.059006
 20
181.199249
 30
0.0
 11
150.200211
 21
181.199249
 31
0.0
  0
LINE
  5
4F
330
22
100
AcDbEntity
  8
L220_
  6
Continuous
 62
     1
100
AcDbLine
 10
159.059006
 20
201.907074
 30
0.0
 11
149.200211
 21
201.907074
 31
0.0
  0
LINE
  5
50
330
22
100
AcDbEntity
  8
L220_
  6
Continuous
 62
     1
100
AcDbLine
 10
159.059006
 20
194.264603
 30
0.0
 11
150.200211
 21
194.264603
 31
0.0
  0
LINE
  5
51
330
22
100
AcDbEntity
  8
L220_
  6
Continuous
 62
     1
100
AcDbLine
 10
159.059006
 20
188.839294
 30
0.0
 11
150.200211
 21
188.839294
 31
0.0
  0
LINE
  5
52
330
22
100
AcDbEntity
  8
L220_
  6
Continuous
 62
     1
100
AcDbLine
 10
159.059006
 20
168.134598
 30
0.0
 11
149.200211
 21
168.134598
 31
0.0
  0
LINE
  5
53
330
22
100
AcDbEntity
  8
L220_
  6
Continuous
 62
     1
100
AcDbLine
 10
159.058395
 20
111.669891
 30
0.0
 11
150.1996
 21
111.669891
 31
0.0
  0
LINE
  5
54
330
22
100
AcDbEntity
  8
L220_
  6
Continuous
 62
     1
100
AcDbLine
 10
159.058395
 20
102.040001
 30
0.0
 11
150.1996
 21
102.040001
 31
0.0
  0
LINE
  5
55
330
22
100
AcDbEntity
  8
L220_
  6
Continuous
 62
     1
100
AcDbLine
 10
159.058395
 20
115.1070629999999
 30
0.0
 11
149.1996
 21
115.1070629999999
 31
0.0
  0
LINE
  5
56
330
22
100
AcDbEntity
  8
L220_
  6
Continuous
 62
     1
100
AcDbLine
 10
159.058395
 20
107.464706
 30
0.0
 11
150.1996
 21
107.464706
 31
0.0
  0
LINE
  5
57
330
22
100
AcDbEntity
  8
L220_
  6
Continuous
 62
     1
100
AcDbLine
 10
159.058395
 20
94.400002
 30
0.0
 11
149.1996
 21
94.400002
 31
0.0
  0
LINE
  5
5A
330
22
100
AcDbEntity
  8
L220_
  6
Continuous
 62
     1
100
AcDbLine
 10
139.381154
 20
90.19409899999999
 30
0.0
 11
136.426732
 21
90.715034
 31
0.0
  0
LINE
  5
5B
330
22
100
AcDbEntity
  8
L220_
  6
Continuous
 62
     1
100
AcDbLine
 10
139.381154
 20
90.19409899999999
 30
0.0
 11
136.426732
 21
89.67314899999998
 31
0.0
  0
LINE
  5
5C
330
22
100
AcDbEntity
  8
L220_
  6
Continuous
 62
     1
100
AcDbLine
 10
116.694696
 20
90.19409899999999
 30
0.0
 11
119.649118
 21
90.71505
 31
0.0
  0
LINE
  5
5D
330
22
100
AcDbEntity
  8
L220_
  6
Continuous
 62
     1
100
AcDbLine
 10
116.694696
 20
90.19409899999999
 30
0.0
 11
119.649118
 21
89.67316399999999
 31
0.0
  0
LINE
  5
5E
330
22
100
AcDbEntity
  8
L220_
  6
Continuous
 62
     1
100
AcDbLine
 10
116.694696
 20
90.19409899999999
 30
0.0
 11
139.381154
 21
90.19409899999999
 31
0.0
  0
LINE
  5
60
330
22
100
AcDbEntity
  8
L220_
  6
Continuous
 62
     1
100
AcDbLine
 10
137.401994
 20
81.33528899999998
 30
0.0
 11
137.401994
 21
90.19409899999999
 31
0.0
  0
LINE
  5
61
330
22
100
AcDbEntity
  8
L220_
  6
Continuous
 62
     1
100
AcDbLine
 10
116.694696
 20
81.33528899999998
 30
0.0
 11
116.694696
 21
91.19409899999999
 31
0.0
  0
LINE
  5
62
330
22
100
AcDbEntity
  8
L220_
  6
Continuous
 62
     1
100
AcDbLine
 10
129.758997
 20
81.33528899999998
 30
0.0
 11
129.758997
 21
90.19409899999999
 31
0.0
  0
POLYLINE
  5
63
330
22
100
AcDbEntity
  8
L0_
  6
Continuous
 62
     2
100
AcDb3dPolyline
 66
     1
 10
0.0
 20
0.0
 30
0.0
 70
     8
  0
VERTEX
  5
64
330
63
100
AcDbEntity
  8
L0_
  6
Continuous
 62
     2
100
AcDbVertex
100
AcDb3dPolylineVertex
 10
85.521332
 20
311.400024
 30
0.0
 70
    32
  0
VERTEX
  5
65
330
63
100
AcDbEntity
  8
L0_
  6
Continuous
 62
     2
100
AcDbVertex
100
AcDb3dPolylineVertex
 10
85.521332
 20
256.477661
 30
0.0
 70
    32
  0
VERTEX
  5
66
330
63
100
AcDbEntity
  8
L0_
  6
Continuous
 62
     2
100
AcDbVertex
100
AcDb3dPolylineVertex
 10
86.52133199999999
 20
249.356918
 30
0.0
 70
    32
  0
VERTEX
  5
67
330
63
100
AcDbEntity
  8
L0_
  6
Continuous
 62
     2
100
AcDbVertex
100
AcDb3dPolylineVertex
 10
87.52133200000001
 20
243.702576
 30
0.0
 70
    32
  0
VERTEX
  5
68
330
63
100
AcDbEntity
  8
L0_
  6
Continuous
 62
     2
100
AcDbVertex
100
AcDb3dPolylineVertex
 10
88.521332
 20
238.929474
 30
0.0
 70
    32
  0
VERTEX
  5
69
330
63
100
AcDbEntity
  8
L0_
  6
Continuous
 62
     2
100
AcDbVertex
100
AcDb3dPolylineVertex
 10
89.521332
 20
234.742294
 30
0.0
 70
    32
  0
VERTEX
  5
6A
330
63
100
AcDbEntity
  8
L0_
  6
Continuous
 62
     2
100
AcDbVertex
100
AcDb3dPolylineVertex
 10
90.521332
 20
230.971039
 30
0.0
 70
    32
  0
VERTEX
  5
6B
330
63
100
AcDbEntity
  8
L0_
  6
Continuous
 62
     2
100
AcDbVertex
100
AcDb3dPolylineVertex
 10
91.52133199999999
 20
227.508865
 30
0.0
 70
    32
  0
VERTEX
  5
6C
330
63
100
AcDbEntity
  8
L0_
  6
Continuous
 62
     2
100
AcDbVertex
100
AcDb3dPolylineVertex
 10
92.52133200000001
 20
224.284271
 30
0.0
 70
    32
  0
VERTEX
  5
6D
330
63
100
AcDbEntity
  8
L0_
  6
Continuous
 62
     2
100
AcDbVertex
100
AcDb3dPolylineVertex
 10
93.521332
 20
221.24704
 30
0.0
 70
    32
  0
VERTEX
  5
6E
330
63
100
AcDbEntity
  8
L0_
  6
Continuous
 62
     2
100
AcDbVertex
100
AcDb3dPolylineVertex
 10
94.521332
 20
218.360611
 30
0.0
 70
    32
  0
VERTEX
  5
6F
330
63
100
AcDbEntity
  8
L0_
  6
Continuous
 62
     2
100
AcDbVertex
100
AcDb3dPolylineVertex
 10
95.521332
 20
215.597534
 30
0.0
 70
    32
  0
VERTEX
  5
70
330
63
100
AcDbEntity
  8
L0_
  6
Continuous
 62
     2
100
AcDbVertex
100
AcDb3dPolylineVertex
 10
96.52133200000001
 20
212.936707
 30
0.0
 70
    32
  0
VERTEX
  5
71
330
63
100
AcDbEntity
  8
L0_
  6
Continuous
 62
     2
100
AcDbVertex
100
AcDb3dPolylineVertex
 10
97.52133200000001
 20
210.361572
 30
0.0
 70
    32
  0
VERTEX
  5
72
330
63
100
AcDbEntity
  8
L0_
  6
Continuous
 62
     2
100
AcDbVertex
100
AcDb3dPolylineVertex
 10
98.521332
 20
207.858902
 30
0.0
 70
    32
  0
VERTEX
  5
73
330
63
100
AcDbEntity
  8
L0_
  6
Continuous
 62
     2
100
AcDbVertex
100
AcDb3dPolylineVertex
 10
99.521332
 20
205.418015
 30
0.0
 70
    32
  0
VERTEX
  5
74
330
63
100
AcDbEntity
  8
L0_
  6
Continuous
 62
     2
100
AcDbVertex
100
AcDb3dPolylineVertex
 10
100.521332
 20
203.030136
 30
0.0
 70
    32
  0
VERTEX
  5
75
330
63
100
AcDbEntity
  8
L0_
  6
Continuous
 62
     2
100
AcDbVertex
100
AcDb3dPolylineVertex
 10
101.521332
 20
200.688004
 30
0.0
 70
    32
  0
VERTEX
  5
76
330
63
100
AcDbEntity
  8
L0_
  6
Continuous
 62
     2
100
AcDbVertex
100
AcDb3dPolylineVertex
 10
102.521332
 20
198.385513
 30
0.0
 70
    32
  0
VERTEX
  5
77
330
63
100
AcDbEntity
  8
L0_
  6
Continuous
 62
     2
100
AcDbVertex
100
AcDb3dPolylineVertex
 10
103.521332
 20
196.117569
 30
0.0
 70
    32
  0
VERTEX
  5
78
330
63
100
AcDbEntity
  8
L0_
  6
Continuous
 62
     2
100
AcDbVertex
100
AcDb3dPolylineVertex
 10
104.521332
 20
193.879822
 30
0.0
 70
    32
  0
VERTEX
  5
79
330
63
100
AcDbEntity
  8
L0_
  6
Continuous
 62
     2
100
AcDbVertex
100
AcDb3dPolylineVertex
 10
105.521332
 20
191.668533
 30
0.0
 70
    32
  0
VERTEX
  5
7A
330
63
100
AcDbEntity
  8
L0_
  6
Continuous
 62
     2
100
AcDbVertex
100
AcDb3dPolylineVertex
 10
106.521332
 20
189.480515
 30
0.0
 70
    32
  0
VERTEX
  5
7B
330
63
100
AcDbEntity
  8
L0_
  6
Continuous
 62
     2
100
AcDbVertex
100
AcDb3dPolylineVertex
 10
107.521332
 20
187.313004
 30
0.0
 70
    32
  0
VERTEX
  5
7C
330
63
100
AcDbEntity
  8
L0_
  6
Continuous
 62
     2
100
AcDbVertex
100
AcDb3dPolylineVertex
 10
108.521332
 20
185.163635
 30
0.0
 70
    32
  0
VERTEX
  5
7D
330
63
100
AcDbEntity
  8
L0_
  6
Continuous
 62
     2
100
AcDbVertex
100
AcDb3dPolylineVertex
 10
109.521332
 20
183.030304
 30
0.0
 70
    32
  0
VERTEX
  5
7E
330
63
100
AcDbEntity
  8
L0_
  6
Continuous
 62
     2
100
AcDbVertex
100
AcDb3dPolylineVertex
 10
110.521332
 20
180.911194
 30
0.0
 70
    32
  0
VERTEX
  5
7F
330
63
100
AcDbEntity
  8
L0_
  6
Continuous
 62
     2
100
AcDbVertex
100
AcDb3dPolylineVertex
 10
111.521332
 20
178.804703
 30
0.0
 70
    32
  0
VERTEX
  5
80
330
63
100
AcDbEntity
  8
L0_
  6
Continuous
 62
     2
100
AcDbVertex
100
AcDb3dPolylineVertex
 10
112.521332
 20
176.709457
 30
0.0
 70
    32
  0
VERTEX
  5
81
330
63
100
AcDbEntity
  8
L0_
  6
Continuous
 62
     2
100
AcDbVertex
100
AcDb3dPolylineVertex
 10
113.521332
 20
174.624207
 30
0.0
 70
    32
  0
VERTEX
  5
82
330
63
100
AcDbEntity
  8
L0_
  6
Continuous
 62
     2
100
AcDbVertex
100
AcDb3dPolylineVertex
 10
114.521332
 20
172.547867
 30
0.0
 70
    32
  0
VERTEX
  5
83
330
63
100
AcDbEntity
  8
L0_
  6
Continuous
 62
     2
100
AcDbVertex
100
AcDb3dPolylineVertex
 10
115.521332
 20
170.479462
 30
0.0
 70
    32
  0
VERTEX
  5
84
330
63
100
AcDbEntity
  8
L0_
  6
Continuous
 62
     2
100
AcDbVertex
100
AcDb3dPolylineVertex
 10
116.521332
 20
168.418182
 30
0.0
 70
    32
  0
VERTEX
  5
85
330
63
100
AcDbEntity
  8
L0_
  6
Continuous
 62
     2
100
AcDbVertex
100
AcDb3dPolylineVertex
 10
117.521332
 20
166.36322
 30
0.0
 70
    32
  0
VERTEX
  5
86
330
63
100
AcDbEntity
  8
L0_
  6
Continuous
 62
     2
100
AcDbVertex
100
AcDb3dPolylineVertex
 10
118.521332
 20
164.313934
 30
0.0
 70
    32
  0
VERTEX
  5
87
330
63
100
AcDbEntity
  8
L0_
  6
Continuous
 62
     2
100
AcDbVertex
100
AcDb3dPolylineVertex
 10
119.521332
 20
162.269714
 30
0.0
 70
    32
  0
VERTEX
  5
88
330
63
100
AcDbEntity
  8
L0_
  6
Continuous
 62
     2
100
AcDbVertex
100
AcDb3dPolylineVertex
 10
120.521332
 20
160.230042
 30
0.0
 70
    32
  0
VERTEX
  5
89
330
63
100
AcDbEntity
  8
L0_
  6
Continuous
 62
     2
100
AcDbVertex
100
AcDb3dPolylineVertex
 10
121.521332
 20
158.194427
 30
0.0
 70
    32
  0
VERTEX
  5
8A
330
63
100
AcDbEntity
  8
L0_
  6
Continuous
 62
     2
100
AcDbVertex
100
AcDb3dPolylineVertex
 10
122.081154
 20
157.056473
 30
0.0
 70
    32
  0
SEQEND
  5
8B
330
63
100
AcDbEntity
  8
L0_
  6
Continuous
 62
     2
  0
POLYLINE
  5
8C
330
22
100
AcDbEntity
  8
L0_
  6
Continuous
 62
     2
100
AcDb3dPolyline
 66
     1
 10
0.0
 20
0.0
 30
0.0
 70
     8
  0
VERTEX
  5
8D
330
8C
100
AcDbEntity
  8
L0_
  6
Continuous
 62
     2
100
AcDbVertex
100
AcDb3dPolylineVertex
 10
85.521332
 20
311.400024
 30
0.0
 70
    32
  0
VERTEX
  5
8E
330
8C
100
AcDbEntity
  8
L0_
  6
Continuous
 62
     2
100
AcDbVertex
100
AcDb3dPolylineVertex
 10
85.521332
 20
269.542358
 30
0.0
 70
    32
  0
VERTEX
  5
8F
330
8C
100
AcDbEntity
  8
L0_
  6
Continuous
 62
     2
100
AcDbVertex
100
AcDb3dPolylineVertex
 10
86.52133199999999
 20
262.421631
 30
0.0
 70
    32
  0
VERTEX
  5
90
330
8C
100
AcDbEntity
  8
L0_
  6
Continuous
 62
     2
100
AcDbVertex
100
AcDb3dPolylineVertex
 10
87.52133200000001
 20
256.767273
 30
0.0
 70
    32
  0
VERTEX
  5
91
330
8C
100
AcDbEntity
  8
L0_
  6
Continuous
 62
     2
100
AcDbVertex
100
AcDb3dPolylineVertex
 10
88.521332
 20
251.994171
 30
0.0
 70
    32
  0
VERTEX
  5
92
330
8C
100
AcDbEntity
  8
L0_
  6
Continuous
 62
     2
100
AcDbVertex
100
AcDb3dPolylineVertex
 10
89.521332
 20
247.806992
 30
0.0
 70
    32
  0
VERTEX
  5
93
330
8C
100
AcDbEntity
  8
L0_
  6
Continuous
 62
     2
100
AcDbVertex
100
AcDb3dPolylineVertex
 10
90.521332
 20
244.035736
 30
0.0
 70
    32
  0
VERTEX
  5
94
330
8C
100
AcDbEntity
  8
L0_
  6
Continuous
 62
     2
100
AcDbVertex
100
AcDb3dPolylineVertex
 10
91.52133199999999
 20
240.573578
 30
0.0
 70
    32
  0
VERTEX
  5
95
330
8C
100
AcDbEntity
  8
L0_
  6
Continuous
 62
     2
100
AcDbVertex
100
AcDb3dPolylineVertex
 10
92.52133200000001
 20
237.348969
 30
0.0
 70
    32
  0
VERTEX
  5
96
330
8C
100
AcDbEntity
  8
L0_
  6
Continuous
 62
     2
100
AcDbVertex
100
AcDb3dPolylineVertex
 10
93.521332
 20
234.311737
 30
0.0
 70
    32
  0
VERTEX
  5
97
330
8C
100
AcDbEntity
  8
L0_
  6
Continuous
 62
     2
100
AcDbVertex
100
AcDb3dPolylineVertex
 10
94.521332
 20
231.425308
 30
0.0
 70
    32
  0
VERTEX
  5
98
330
8C
100
AcDbEntity
  8
L0_
  6
Continuous
 62
     2
100
AcDbVertex
100
AcDb3dPolylineVertex
 10
95.521332
 20
228.662231
 30
0.0
 70
    32
  0
VERTEX
  5
99
330
8C
100
AcDbEntity
  8
L0_
  6
Continuous
 62
     2
100
AcDbVertex
100
AcDb3dPolylineVertex
 10
96.52133200000001
 20
226.001404
 30
0.0
 70
    32
  0
VERTEX
  5
9A
330
8C
100
AcDbEntity
  8
L0_
  6
Continuous
 62
     2
100
AcDbVertex
100
AcDb3dPolylineVertex
 10
97.52133200000001
 20
223.42627
 30
0.0
 70
    32
  0
VERTEX
  5
9B
330
8C
100
AcDbEntity
  8
L0_
  6
Continuous
 62
     2
100
AcDbVertex
100
AcDb3dPolylineVertex
 10
98.521332
 20
220.923615
 30
0.0
 70
    32
  0
VERTEX
  5
9C
330
8C
100
AcDbEntity
  8
L0_
  6
Continuous
 62
     2
100
AcDbVertex
100
AcDb3dPolylineVertex
 10
99.521332
 20
218.482727
 30
0.0
 70
    32
  0
VERTEX
  5
9D
330
8C
100
AcDbEntity
  8
L0_
  6
Continuous
 62
     2
100
AcDbVertex
100
AcDb3dPolylineVertex
 10
100.521332
 20
216.094833
 30
0.0
 70
    32
  0
VERTEX
  5
9E
330
8C
100
AcDbEntity
  8
L0_
  6
Continuous
 62
     2
100
AcDbVertex
100
AcDb3dPolylineVertex
 10
101.521332
 20
213.752701
 30
0.0
 70
    32
  0
VERTEX
  5
9F
330
8C
100
AcDbEntity
  8
L0_
  6
Continuous
 62
     2
100
AcDbVertex
100
AcDb3dPolylineVertex
 10
102.521332
 20
211.450226
 30
0.0
 70
    32
  0
VERTEX
  5
A0
330
8C
100
AcDbEntity
  8
L0_
  6
Continuous
 62
     2
100
AcDbVertex
100
AcDb3dPolylineVertex
 10
103.521332
 20
209.182281
 30
0.0
 70
    32
  0
VERTEX
  5
A1
330
8C
100
AcDbEntity
  8
L0_
  6
Continuous
 62
     2
100
AcDbVertex
100
AcDb3dPolylineVertex
 10
104.521332
 20
206.944519
 30
0.0
 70
    32
  0
VERTEX
  5
A2
330
8C
100
AcDbEntity
  8
L0_
  6
Continuous
 62
     2
100
AcDbVertex
100
AcDb3dPolylineVertex
 10
105.521332
 20
204.733231
 30
0.0
 70
    32
  0
VERTEX
  5
A3
330
8C
100
AcDbEntity
  8
L0_
  6
Continuous
 62
     2
100
AcDbVertex
100
AcDb3dPolylineVertex
 10
106.521332
 20
202.545212
 30
0.0
 70
    32
  0
VERTEX
  5
A4
330
8C
100
AcDbEntity
  8
L0_
  6
Continuous
 62
     2
100
AcDbVertex
100
AcDb3dPolylineVertex
 10
107.521332
 20
200.377716
 30
0.0
 70
    32
  0
VERTEX
  5
A5
330
8C
100
AcDbEntity
  8
L0_
  6
Continuous
 62
     2
100
AcDbVertex
100
AcDb3dPolylineVertex
 10
108.521332
 20
198.228333
 30
0.0
 70
    32
  0
VERTEX
  5
A6
330
8C
100
AcDbEntity
  8
L0_
  6
Continuous
 62
     2
100
AcDbVertex
100
AcDb3dPolylineVertex
 10
109.521332
 20
196.095001
 30
0.0
 70
    32
  0
VERTEX
  5
A7
330
8C
100
AcDbEntity
  8
L0_
  6
Continuous
 62
     2
100
AcDbVertex
100
AcDb3dPolylineVertex
 10
110.521332
 20
193.975891
 30
0.0
 70
    32
  0
VERTEX
  5
A8
330
8C
100
AcDbEntity
  8
L0_
  6
Continuous
 62
     2
100
AcDbVertex
100
AcDb3dPolylineVertex
 10
111.521332
 20
191.869415
 30
0.0
 70
    32
  0
VERTEX
  5
A9
330
8C
100
AcDbEntity
  8
L0_
  6
Continuous
 62
     2
100
AcDbVertex
100
AcDb3dPolylineVertex
 10
112.521332
 20
189.774155
 30
0.0
 70
    32
  0
VERTEX
  5
AA
330
8C
100
AcDbEntity
  8
L0_
  6
Continuous
 62
     2
100
AcDbVertex
100
AcDb3dPolylineVertex
 10
113.521332
 20
187.688904
 30
0.0
 70
    32
  0
VERTEX
  5
AB
330
8C
100
AcDbEntity
  8
L0_
  6
Continuous
 62
     2
100
AcDbVertex
100
AcDb3dPolylineVertex
 10
114.521332
 20
185.612564
 30
0.0
 70
    32
  0
VERTEX
  5
AC
330
8C
100
AcDbEntity
  8
L0_
  6
Continuous
 62
     2
100
AcDbVertex
100
AcDb3dPolylineVertex
 10
115.521332
 20
183.544174
 30
0.0
 70
    32
  0
VERTEX
  5
AD
330
8C
100
AcDbEntity
  8
L0_
  6
Continuous
 62
     2
100
AcDbVertex
100
AcDb3dPolylineVertex
 10
116.521332
 20
181.48288
 30
0.0
 70
    32
  0
VERTEX
  5
AE
330
8C
100
AcDbEntity
  8
L0_
  6
Continuous
 62
     2
100
AcDbVertex
100
AcDb3dPolylineVertex
 10
117.521332
 20
179.427917
 30
0.0
 70
    32
  0
VERTEX
  5
AF
330
8C
100
AcDbEntity
  8
L0_
  6
Continuous
 62
     2
100
AcDbVertex
100
AcDb3dPolylineVertex
 10
118.521332
 20
177.378632
 30
0.0
 70
    32
  0
VERTEX
  5
B0
330
8C
100
AcDbEntity
  8
L0_
  6
Continuous
 62
     2
100
AcDbVertex
100
AcDb3dPolylineVertex
 10
119.521332
 20
175.334412
 30
0.0
 70
    32
  0
VERTEX
  5
B1
330
8C
100
AcDbEntity
  8
L0_
  6
Continuous
 62
     2
100
AcDbVertex
100
AcDb3dPolylineVertex
 10
120.521332
 20
173.294739
 30
0.0
 70
    32
  0
VERTEX
  5
B2
330
8C
100
AcDbEntity
  8
L0_
  6
Continuous
 62
     2
100
AcDbVertex
100
AcDb3dPolylineVertex
 10
121.521332
 20
171.25914
 30
0.0
 70
    32
  0
VERTEX
  5
B3
330
8C
100
AcDbEntity
  8
L0_
  6
Continuous
 62
     2
100
AcDbVertex
100
AcDb3dPolylineVertex
 10
122.081154
 20
170.12117
 30
0.0
 70
    32
  0
SEQEND
  5
B4
330
8C
100
AcDbEntity
  8
L0_
  6
Continuous
 62
     2
  0
POLYLINE
  5
B5
330
22
100
AcDbEntity
  8
L0_
  6
Continuous
 62
     2
100
AcDb3dPolyline
 66
     1
 10
0.0
 20
0.0
 30
0.0
 70
     8
  0
VERTEX
  5
B6
330
B5
100
AcDbEntity
  8
L0_
  6
Continuous
 62
     2
100
AcDbVertex
100
AcDb3dPolylineVertex
 10
85.521332
 20
311.400024
 30
0.0
 70
    32
  0
VERTEX
  5
B7
330
B5
100
AcDbEntity
  8
L0_
  6
Continuous
 62
     2
100
AcDbVertex
100
AcDb3dPolylineVertex
 10
85.521332
 20
277.184723
 30
0.0
 70
    32
  0
VERTEX
  5
B8
330
B5
100
AcDbEntity
  8
L0_
  6
Continuous
 62
     2
100
AcDbVertex
100
AcDb3dPolylineVertex
 10
86.52133199999999
 20
270.063965
 30
0.0
 70
    32
  0
VERTEX
  5
B9
330
B5
100
AcDbEntity
  8
L0_
  6
Continuous
 62
     2
100
AcDbVertex
100
AcDb3dPolylineVertex
 10
87.52133200000001
 20
264.409637
 30
0.0
 70
    32
  0
VERTEX
  5
BA
330
B5
100
AcDbEntity
  8
L0_
  6
Continuous
 62
     2
100
AcDbVertex
100
AcDb3dPolylineVertex
 10
88.521332
 20
259.636536
 30
0.0
 70
    32
  0
VERTEX
  5
BB
330
B5
100
AcDbEntity
  8
L0_
  6
Continuous
 62
     2
100
AcDbVertex
100
AcDb3dPolylineVertex
 10
89.521332
 20
255.449356
 30
0.0
 70
    32
  0
VERTEX
  5
BC
330
B5
100
AcDbEntity
  8
L0_
  6
Continuous
 62
     2
100
AcDbVertex
100
AcDb3dPolylineVertex
 10
90.521332
 20
251.678101
 30
0.0
 70
    32
  0
VERTEX
  5
BD
330
B5
100
AcDbEntity
  8
L0_
  6
Continuous
 62
     2
100
AcDbVertex
100
AcDb3dPolylineVertex
 10
91.52133199999999
 20
248.215927
 30
0.0
 70
    32
  0
VERTEX
  5
BE
330
B5
100
AcDbEntity
  8
L0_
  6
Continuous
 62
     2
100
AcDbVertex
100
AcDb3dPolylineVertex
 10
92.52133200000001
 20
244.991333
 30
0.0
 70
    32
  0
VERTEX
  5
BF
330
B5
100
AcDbEntity
  8
L0_
  6
Continuous
 62
     2
100
AcDbVertex
100
AcDb3dPolylineVertex
 10
93.521332
 20
241.954102
 30
0.0
 70
    32
  0
VERTEX
  5
C0
330
B5
100
AcDbEntity
  8
L0_
  6
Continuous
 62
     2
100
AcDbVertex
100
AcDb3dPolylineVertex
 10
94.521332
 20
239.067673
 30
0.0
 70
    32
  0
VERTEX
  5
C1
330
B5
100
AcDbEntity
  8
L0_
  6
Continuous
 62
     2
100
AcDbVertex
100
AcDb3dPolylineVertex
 10
95.521332
 20
236.304596
 30
0.0
 70
    32
  0
VERTEX
  5
C2
330
B5
100
AcDbEntity
  8
L0_
  6
Continuous
 62
     2
100
AcDbVertex
100
AcDb3dPolylineVertex
 10
96.52133200000001
 20
233.643768
 30
0.0
 70
    32
  0
VERTEX
  5
C3
330
B5
100
AcDbEntity
  8
L0_
  6
Continuous
 62
     2
100
AcDbVertex
100
AcDb3dPolylineVertex
 10
97.52133200000001
 20
231.068634
 30
0.0
 70
    32
  0
VERTEX
  5
C4
330
B5
100
AcDbEntity
  8
L0_
  6
Continuous
 62
     2
100
AcDbVertex
100
AcDb3dPolylineVertex
 10
98.521332
 20
228.565964
 30
0.0
 70
    32
  0
VERTEX
  5
C5
330
B5
100
AcDbEntity
  8
L0_
  6
Continuous
 62
     2
100
AcDbVertex
100
AcDb3dPolylineVertex
 10
99.521332
 20
226.125076
 30
0.0
 70
    32
  0
VERTEX
  5
C6
330
B5
100
AcDbEntity
  8
L0_
  6
Continuous
 62
     2
100
AcDbVertex
100
AcDb3dPolylineVertex
 10
100.521332
 20
223.737198
 30
0.0
 70
    32
  0
VERTEX
  5
C7
330
B5
100
AcDbEntity
  8
L0_
  6
Continuous
 62
     2
100
AcDbVertex
100
AcDb3dPolylineVertex
 10
101.521332
 20
221.395065
 30
0.0
 70
    32
  0
VERTEX
  5
C8
330
B5
100
AcDbEntity
  8
L0_
  6
Continuous
 62
     2
100
AcDbVertex
100
AcDb3dPolylineVertex
 10
102.521332
 20
219.092575
 30
0.0
 70
    32
  0
VERTEX
  5
C9
330
B5
100
AcDbEntity
  8
L0_
  6
Continuous
 62
     2
100
AcDbVertex
100
AcDb3dPolylineVertex
 10
103.521332
 20
216.824646
 30
0.0
 70
    32
  0
VERTEX
  5
CA
330
B5
100
AcDbEntity
  8
L0_
  6
Continuous
 62
     2
100
AcDbVertex
100
AcDb3dPolylineVertex
 10
104.521332
 20
214.586884
 30
0.0
 70
    32
  0
VERTEX
  5
CB
330
B5
100
AcDbEntity
  8
L0_
  6
Continuous
 62
     2
100
AcDbVertex
100
AcDb3dPolylineVertex
 10
105.521332
 20
212.375595
 30
0.0
 70
    32
  0
VERTEX
  5
CC
330
B5
100
AcDbEntity
  8
L0_
  6
Continuous
 62
     2
100
AcDbVertex
100
AcDb3dPolylineVertex
 10
106.521332
 20
210.187576
 30
0.0
 70
    32
  0
VERTEX
  5
CD
330
B5
100
AcDbEntity
  8
L0_
  6
Continuous
 62
     2
100
AcDbVertex
100
AcDb3dPolylineVertex
 10
107.521332
 20
208.020081
 30
0.0
 70
    32
  0
VERTEX
  5
CE
330
B5
100
AcDbEntity
  8
L0_
  6
Continuous
 62
     2
100
AcDbVertex
100
AcDb3dPolylineVertex
 10
108.521332
 20
205.870697
 30
0.0
 70
    32
  0
VERTEX
  5
CF
330
B5
100
AcDbEntity
  8
L0_
  6
Continuous
 62
     2
100
AcDbVertex
100
AcDb3dPolylineVertex
 10
109.521332
 20
203.737366
 30
0.0
 70
    32
  0
VERTEX
  5
D0
330
B5
100
AcDbEntity
  8
L0_
  6
Continuous
 62
     2
100
AcDbVertex
100
AcDb3dPolylineVertex
 10
110.521332
 20
201.618256
 30
0.0
 70
    32
  0
VERTEX
  5
D1
330
B5
100
AcDbEntity
  8
L0_
  6
Continuous
 62
     2
100
AcDbVertex
100
AcDb3dPolylineVertex
 10
111.521332
 20
199.511765
 30
0.0
 70
    32
  0
VERTEX
  5
D2
330
B5
100
AcDbEntity
  8
L0_
  6
Continuous
 62
     2
100
AcDbVertex
100
AcDb3dPolylineVertex
 10
112.521332
 20
197.416519
 30
0.0
 70
    32
  0
VERTEX
  5
D3
330
B5
100
AcDbEntity
  8
L0_
  6
Continuous
 62
     2
100
AcDbVertex
100
AcDb3dPolylineVertex
 10
113.521332
 20
195.331268
 30
0.0
 70
    32
  0
VERTEX
  5
D4
330
B5
100
AcDbEntity
  8
L0_
  6
Continuous
 62
     2
100
AcDbVertex
100
AcDb3dPolylineVertex
 10
114.521332
 20
193.254929
 30
0.0
 70
    32
  0
VERTEX
  5
D5
330
B5
100
AcDbEntity
  8
L0_
  6
Continuous
 62
     2
100
AcDbVertex
100
AcDb3dPolylineVertex
 10
115.521332
 20
191.1865389999999
 30
0.0
 70
    32
  0
VERTEX
  5
D6
330
B5
100
AcDbEntity
  8
L0_
  6
Continuous
 62
     2
100
AcDbVertex
100
AcDb3dPolylineVertex
 10
116.521332
 20
189.125244
 30
0.0
 70
    32
  0
VERTEX
  5
D7
330
B5
100
AcDbEntity
  8
L0_
  6
Continuous
 62
     2
100
AcDbVertex
100
AcDb3dPolylineVertex
 10
117.521332
 20
187.070282
 30
0.0
 70
    32
  0
VERTEX
  5
D8
330
B5
100
AcDbEntity
  8
L0_
  6
Continuous
 62
     2
100
AcDbVertex
100
AcDb3dPolylineVertex
 10
118.521332
 20
185.020996
 30
0.0
 70
    32
  0
VERTEX
  5
D9
330
B5
100
AcDbEntity
  8
L0_
  6
Continuous
 62
     2
100
AcDbVertex
100
AcDb3dPolylineVertex
 10
119.521332
 20
182.976791
 30
0.0
 70
    32
  0
VERTEX
  5
DA
330
B5
100
AcDbEntity
  8
L0_
  6
Continuous
 62
     2
100
AcDbVertex
100
AcDb3dPolylineVertex
 10
120.521332
 20
180.937103
 30
0.0
 70
    32
  0
VERTEX
  5
DB
330
B5
100
AcDbEntity
  8
L0_
  6
Continuous
 62
     2
100
AcDbVertex
100
AcDb3dPolylineVertex
 10
121.521332
 20
178.901489
 30
0.0
 70
    32
  0
VERTEX
  5
DC
330
B5
100
AcDbEntity
  8
L0_
  6
Continuous
 62
     2
100
AcDbVertex
100
AcDb3dPolylineVertex
 10
122.081154
 20
177.763535
 30
0.0
 70
    32
  0
SEQEND
  5
DD
330
B5
100
AcDbEntity
  8
L0_
  6
Continuous
 62
     2
  0
POLYLINE
  5
DE
330
22
100
AcDbEntity
  8
L0_
  6
Continuous
 62
     2
100
AcDb3dPolyline
 66
     1
 10
0.0
 20
0.0
 30
0.0
 70
     8
  0
VERTEX
  5
DF
330
DE
100
AcDbEntity
  8
L0_
  6
Continuous
 62
     2
100
AcDbVertex
100
AcDb3dPolylineVertex
 10
85.521332
 20
311.400024
 30
0.0
 70
    32
  0
VERTEX
  5
E0
330
DE
100
AcDbEntity
  8
L0_
  6
Continuous
 62
     2
100
AcDbVertex
100
AcDb3dPolylineVertex
 10
85.521332
 20
282.607056
 30
0.0
 70
    32
  0
VERTEX
  5
E1
330
DE
100
AcDbEntity
  8
L0_
  6
Continuous
 62
     2
100
AcDbVertex
100
AcDb3dPolylineVertex
 10
86.52133199999999
 20
275.4863279999999
 30
0.0
 70
    32
  0
VERTEX
  5
E2
330
DE
100
AcDbEntity
  8
L0_
  6
Continuous
 62
     2
100
AcDbVertex
100
AcDb3dPolylineVertex
 10
87.52133200000001
 20
269.83197
 30
0.0
 70
    32
  0
VERTEX
  5
E3
330
DE
100
AcDbEntity
  8
L0_
  6
Continuous
 62
     2
100
AcDbVertex
100
AcDb3dPolylineVertex
 10
88.521332
 20
265.058899
 30
0.0
 70
    32
  0
VERTEX
  5
E4
330
DE
100
AcDbEntity
  8
L0_
  6
Continuous
 62
     2
100
AcDbVertex
100
AcDb3dPolylineVertex
 10
89.521332
 20
260.871704
 30
0.0
 70
    32
  0
VERTEX
  5
E5
330
DE
100
AcDbEntity
  8
L0_
  6
Continuous
 62
     2
100
AcDbVertex
100
AcDb3dPolylineVertex
 10
90.521332
 20
257.100464
 30
0.0
 70
    32
  0
VERTEX
  5
E6
330
DE
100
AcDbEntity
  8
L0_
  6
Continuous
 62
     2
100
AcDbVertex
100
AcDb3dPolylineVertex
 10
91.52133199999999
 20
253.638275
 30
0.0
 70
    32
  0
VERTEX
  5
E7
330
DE
100
AcDbEntity
  8
L0_
  6
Continuous
 62
     2
100
AcDbVertex
100
AcDb3dPolylineVertex
 10
92.52133200000001
 20
250.413681
 30
0.0
 70
    32
  0
VERTEX
  5
E8
330
DE
100
AcDbEntity
  8
L0_
  6
Continuous
 62
     2
100
AcDbVertex
100
AcDb3dPolylineVertex
 10
93.521332
 20
247.37645
 30
0.0
 70
    32
  0
VERTEX
  5
E9
330
DE
100
AcDbEntity
  8
L0_
  6
Continuous
 62
     2
100
AcDbVertex
100
AcDb3dPolylineVertex
 10
94.521332
 20
244.490021
 30
0.0
 70
    32
  0
VERTEX
  5
EA
330
DE
100
AcDbEntity
  8
L0_
  6
Continuous
 62
     2
100
AcDbVertex
100
AcDb3dPolylineVertex
 10
95.521332
 20
241.726944
 30
0.0
 70
    32
  0
VERTEX
  5
EB
330
DE
100
AcDbEntity
  8
L0_
  6
Continuous
 62
     2
100
AcDbVertex
100
AcDb3dPolylineVertex
 10
96.52133200000001
 20
239.066116
 30
0.0
 70
    32
  0
VERTEX
  5
EC
330
DE
100
AcDbEntity
  8
L0_
  6
Continuous
 62
     2
100
AcDbVertex
100
AcDb3dPolylineVertex
 10
97.52133200000001
 20
236.490967
 30
0.0
 70
    32
  0
VERTEX
  5
ED
330
DE
100
AcDbEntity
  8
L0_
  6
Continuous
 62
     2
100
AcDbVertex
100
AcDb3dPolylineVertex
 10
98.521332
 20
233.988312
 30
0.0
 70
    32
  0
VERTEX
  5
EE
330
DE
100
AcDbEntity
  8
L0_
  6
Continuous
 62
     2
100
AcDbVertex
100
AcDb3dPolylineVertex
 10
99.521332
 20
231.547424
 30
0.0
 70
    32
  0
VERTEX
  5
EF
330
DE
100
AcDbEntity
  8
L0_
  6
Continuous
 62
     2
100
AcDbVertex
100
AcDb3dPolylineVertex
 10
100.521332
 20
229.159546
 30
0.0
 70
    32
  0
VERTEX
  5
F0
330
DE
100
AcDbEntity
  8
L0_
  6
Continuous
 62
     2
100
AcDbVertex
100
AcDb3dPolylineVertex
 10
101.521332
 20
226.817398
 30
0.0
 70
    32
  0
VERTEX
  5
F1
330
DE
100
AcDbEntity
  8
L0_
  6
Continuous
 62
     2
100
AcDbVertex
100
AcDb3dPolylineVertex
 10
102.521332
 20
224.514923
 30
0.0
 70
    32
  0
VERTEX
  5
F2
330
DE
100
AcDbEntity
  8
L0_
  6
Continuous
 62
     2
100
AcDbVertex
100
AcDb3dPolylineVertex
 10
103.521332
 20
222.246979
 30
0.0
 70
    32
  0
VERTEX
  5
F3
330
DE
100
AcDbEntity
  8
L0_
  6
Continuous
 62
     2
100
AcDbVertex
100
AcDb3dPolylineVertex
 10
104.521332
 20
220.009232
 30
0.0
 70
    32
  0
VERTEX
  5
F4
330
DE
100
AcDbEntity
  8
L0_
  6
Continuous
 62
     2
100
AcDbVertex
100
AcDb3dPolylineVertex
 10
105.521332
 20
217.797928
 30
0.0
 70
    32
  0
VERTEX
  5
F5
330
DE
100
AcDbEntity
  8
L0_
  6
Continuous
 62
     2
100
AcDbVertex
100
AcDb3dPolylineVertex
 10
106.521332
 20
215.609924
 30
0.0
 70
    32
  0
VERTEX
  5
F6
330
DE
100
AcDbEntity
  8
L0_
  6
Continuous
 62
     2
100
AcDbVertex
100
AcDb3dPolylineVertex
 10
107.521332
 20
213.442413
 30
0.0
 70
    32
  0
VERTEX
  5
F7
330
DE
100
AcDbEntity
  8
L0_
  6
Continuous
 62
     2
100
AcDbVertex
100
AcDb3dPolylineVertex
 10
108.521332
 20
211.293045
 30
0.0
 70
    32
  0
VERTEX
  5
F8
330
DE
100
AcDbEntity
  8
L0_
  6
Continuous
 62
     2
100
AcDbVertex
100
AcDb3dPolylineVertex
 10
109.521332
 20
209.159698
 30
0.0
 70
    32
  0
VERTEX
  5
F9
330
DE
100
AcDbEntity
  8
L0_
  6
Continuous
 62
     2
100
AcDbVertex
100
AcDb3dPolylineVertex
 10
110.521332
 20
207.040588
 30
0.0
 70
    32
  0
VERTEX
  5
FA
330
DE
100
AcDbEntity
  8
L0_
  6
Continuous
 62
     2
100
AcDbVertex
100
AcDb3dPolylineVertex
 10
111.521332
 20
204.934113
 30
0.0
 70
    32
  0
VERTEX
  5
FB
330
DE
100
AcDbEntity
  8
L0_
  6
Continuous
 62
     2
100
AcDbVertex
100
AcDb3dPolylineVertex
 10
112.521332
 20
202.838867
 30
0.0
 70
    32
  0
VERTEX
  5
FC
330
DE
100
AcDbEntity
  8
L0_
  6
Continuous
 62
     2
100
AcDbVertex
100
AcDb3dPolylineVertex
 10
113.521332
 20
200.753616
 30
0.0
 70
    32
  0
VERTEX
  5
FD
330
DE
100
AcDbEntity
  8
L0_
  6
Continuous
 62
     2
100
AcDbVertex
100
AcDb3dPolylineVertex
 10
114.521332
 20
198.677261
 30
0.0
 70
    32
  0
VERTEX
  5
FE
330
DE
100
AcDbEntity
  8
L0_
  6
Continuous
 62
     2
100
AcDbVertex
100
AcDb3dPolylineVertex
 10
115.521332
 20
196.608871
 30
0.0
 70
    32
  0
VERTEX
  5
FF
330
DE
100
AcDbEntity
  8
L0_
  6
Continuous
 62
     2
100
AcDbVertex
100
AcDb3dPolylineVertex
 10
116.521332
 20
194.547577
 30
0.0
 70
    32
  0
VERTEX
  5
100
330
DE
100
AcDbEntity
  8
L0_
  6
Continuous
 62
     2
100
AcDbVertex
100
AcDb3dPolylineVertex
 10
117.521332
 20
192.49263
 30
0.0
 70
    32
  0
VERTEX
  5
101
330
DE
100
AcDbEntity
  8
L0_
  6
Continuous
 62
     2
100
AcDbVertex
100
AcDb3dPolylineVertex
 10
118.521332
 20
190.443344
 30
0.0
 70
    32
  0
VERTEX
  5
102
330
DE
100
AcDbEntity
  8
L0_
  6
Continuous
 62
     2
100
AcDbVertex
100
AcDb3dPolylineVertex
 10
119.521332
 20
188.399124
 30
0.0
 70
    32
  0
VERTEX
  5
103
330
DE
100
AcDbEntity
  8
L0_
  6
Continuous
 62
     2
100
AcDbVertex
100
AcDb3dPolylineVertex
 10
120.521332
 20
186.359451
 30
0.0
 70
    32
  0
VERTEX
  5
104
330
DE
100
AcDbEntity
  8
L0_
  6
Continuous
 62
     2
100
AcDbVertex
100
AcDb3dPolylineVertex
 10
121.521332
 20
184.323837
 30
0.0
 70
    32
  0
VERTEX
  5
105
330
DE
100
AcDbEntity
  8
L0_
  6
Continuous
 62
     2
100
AcDbVertex
100
AcDb3dPolylineVertex
 10
122.081154
 20
183.185867
 30
0.0
 70
    32
  0
SEQEND
  5
106
330
DE
100
AcDbEntity
  8
L0_
  6
Continuous
 62
     2
  0
POLYLINE
  5
107
330
22
100
AcDbEntity
  8
L0_
  6
Continuous
 62
     2
100
AcDb3dPolyline
 66
     1
 10
0.0
 20
0.0
 30
0.0
 70
     8
  0
VERTEX
  5
108
330
107
100
AcDbEntity
  8
L0_
  6
Continuous
 62
     2
100
AcDbVertex
100
AcDb3dPolylineVertex
 10
85.521332
 20
311.400024
 30
0.0
 70
    32
  0
VERTEX
  5
109
330
107
100
AcDbEntity
  8
L0_
  6
Continuous
 62
     2
100
AcDbVertex
100
AcDb3dPolylineVertex
 10
85.521332
 20
290.2494200000001
 30
0.0
 70
    32
  0
VERTEX
  5
10A
330
107
100
AcDbEntity
  8
L0_
  6
Continuous
 62
     2
100
AcDbVertex
100
AcDb3dPolylineVertex
 10
86.52133199999999
 20
283.128693
 30
0.0
 70
    32
  0
VERTEX
  5
10B
330
107
100
AcDbEntity
  8
L0_
  6
Continuous
 62
     2
100
AcDbVertex
100
AcDb3dPolylineVertex
 10
87.52133200000001
 20
277.474335
 30
0.0
 70
    32
  0
VERTEX
  5
10C
330
107
100
AcDbEntity
  8
L0_
  6
Continuous
 62
     2
100
AcDbVertex
100
AcDb3dPolylineVertex
 10
88.521332
 20
272.701233
 30
0.0
 70
    32
  0
VERTEX
  5
10D
330
107
100
AcDbEntity
  8
L0_
  6
Continuous
 62
     2
100
AcDbVertex
100
AcDb3dPolylineVertex
 10
89.521332
 20
268.5140379999999
 30
0.0
 70
    32
  0
VERTEX
  5
10E
330
107
100
AcDbEntity
  8
L0_
  6
Continuous
 62
     2
100
AcDbVertex
100
AcDb3dPolylineVertex
 10
90.521332
 20
264.742798
 30
0.0
 70
    32
  0
VERTEX
  5
10F
330
107
100
AcDbEntity
  8
L0_
  6
Continuous
 62
     2
100
AcDbVertex
100
AcDb3dPolylineVertex
 10
91.52133199999999
 20
261.28064
 30
0.0
 70
    32
  0
VERTEX
  5
110
330
107
100
AcDbEntity
  8
L0_
  6
Continuous
 62
     2
100
AcDbVertex
100
AcDb3dPolylineVertex
 10
92.52133200000001
 20
258.05603
 30
0.0
 70
    32
  0
VERTEX
  5
111
330
107
100
AcDbEntity
  8
L0_
  6
Continuous
 62
     2
100
AcDbVertex
100
AcDb3dPolylineVertex
 10
93.521332
 20
255.018814
 30
0.0
 70
    32
  0
VERTEX
  5
112
330
107
100
AcDbEntity
  8
L0_
  6
Continuous
 62
     2
100
AcDbVertex
100
AcDb3dPolylineVertex
 10
94.521332
 20
252.13237
 30
0.0
 70
    32
  0
VERTEX
  5
113
330
107
100
AcDbEntity
  8
L0_
  6
Continuous
 62
     2
100
AcDbVertex
100
AcDb3dPolylineVertex
 10
95.521332
 20
249.369293
 30
0.0
 70
    32
  0
VERTEX
  5
114
330
107
100
AcDbEntity
  8
L0_
  6
Continuous
 62
     2
100
AcDbVertex
100
AcDb3dPolylineVertex
 10
96.52133200000001
 20
246.708466
 30
0.0
 70
    32
  0
VERTEX
  5
115
330
107
100
AcDbEntity
  8
L0_
  6
Continuous
 62
     2
100
AcDbVertex
100
AcDb3dPolylineVertex
 10
97.52133200000001
 20
244.133331
 30
0.0
 70
    32
  0
VERTEX
  5
116
330
107
100
AcDbEntity
  8
L0_
  6
Continuous
 62
     2
100
AcDbVertex
100
AcDb3dPolylineVertex
 10
98.521332
 20
241.630676
 30
0.0
 70
    32
  0
VERTEX
  5
117
330
107
100
AcDbEntity
  8
L0_
  6
Continuous
 62
     2
100
AcDbVertex
100
AcDb3dPolylineVertex
 10
99.521332
 20
239.189789
 30
0.0
 70
    32
  0
VERTEX
  5
118
330
107
100
AcDbEntity
  8
L0_
  6
Continuous
 62
     2
100
AcDbVertex
100
AcDb3dPolylineVertex
 10
100.521332
 20
236.80191
 30
0.0
 70
    32
  0
VERTEX
  5
119
330
107
100
AcDbEntity
  8
L0_
  6
Continuous
 62
     2
100
AcDbVertex
100
AcDb3dPolylineVertex
 10
101.521332
 20
234.459763
 30
0.0
 70
    32
  0
VERTEX
  5
11A
330
107
100
AcDbEntity
  8
L0_
  6
Continuous
 62
     2
100
AcDbVertex
100
AcDb3dPolylineVertex
 10
102.521332
 20
232.157288
 30
0.0
 70
    32
  0
VERTEX
  5
11B
330
107
100
AcDbEntity
  8
L0_
  6
Continuous
 62
     2
100
AcDbVertex
100
AcDb3dPolylineVertex
 10
103.521332
 20
229.889343
 30
0.0
 70
    32
  0
VERTEX
  5
11C
330
107
100
AcDbEntity
  8
L0_
  6
Continuous
 62
     2
100
AcDbVertex
100
AcDb3dPolylineVertex
 10
104.521332
 20
227.651581
 30
0.0
 70
    32
  0
VERTEX
  5
11D
330
107
100
AcDbEntity
  8
L0_
  6
Continuous
 62
     2
100
AcDbVertex
100
AcDb3dPolylineVertex
 10
105.521332
 20
225.440292
 30
0.0
 70
    32
  0
VERTEX
  5
11E
330
107
100
AcDbEntity
  8
L0_
  6
Continuous
 62
     2
100
AcDbVertex
100
AcDb3dPolylineVertex
 10
106.521332
 20
223.252274
 30
0.0
 70
    32
  0
VERTEX
  5
11F
330
107
100
AcDbEntity
  8
L0_
  6
Continuous
 62
     2
100
AcDbVertex
100
AcDb3dPolylineVertex
 10
107.521332
 20
221.084778
 30
0.0
 70
    32
  0
VERTEX
  5
120
330
107
100
AcDbEntity
  8
L0_
  6
Continuous
 62
     2
100
AcDbVertex
100
AcDb3dPolylineVertex
 10
108.521332
 20
218.935394
 30
0.0
 70
    32
  0
VERTEX
  5
121
330
107
100
AcDbEntity
  8
L0_
  6
Continuous
 62
     2
100
AcDbVertex
100
AcDb3dPolylineVertex
 10
109.521332
 20
216.802063
 30
0.0
 70
    32
  0
VERTEX
  5
122
330
107
100
AcDbEntity
  8
L0_
  6
Continuous
 62
     2
100
AcDbVertex
100
AcDb3dPolylineVertex
 10
110.521332
 20
214.682953
 30
0.0
 70
    32
  0
VERTEX
  5
123
330
107
100
AcDbEntity
  8
L0_
  6
Continuous
 62
     2
100
AcDbVertex
100
AcDb3dPolylineVertex
 10
111.521332
 20
212.576477
 30
0.0
 70
    32
  0
VERTEX
  5
124
330
107
100
AcDbEntity
  8
L0_
  6
Continuous
 62
     2
100
AcDbVertex
100
AcDb3dPolylineVertex
 10
112.521332
 20
210.481216
 30
0.0
 70
    32
  0
VERTEX
  5
125
330
107
100
AcDbEntity
  8
L0_
  6
Continuous
 62
     2
100
AcDbVertex
100
AcDb3dPolylineVertex
 10
113.521332
 20
208.395966
 30
0.0
 70
    32
  0
VERTEX
  5
126
330
107
100
AcDbEntity
  8
L0_
  6
Continuous
 62
     2
100
AcDbVertex
100
AcDb3dPolylineVertex
 10
114.521332
 20
206.319626
 30
0.0
 70
    32
  0
VERTEX
  5
127
330
107
100
AcDbEntity
  8
L0_
  6
Continuous
 62
     2
100
AcDbVertex
100
AcDb3dPolylineVertex
 10
115.521332
 20
204.251236
 30
0.0
 70
    32
  0
VERTEX
  5
128
330
107
100
AcDbEntity
  8
L0_
  6
Continuous
 62
     2
100
AcDbVertex
100
AcDb3dPolylineVertex
 10
116.521332
 20
202.189941
 30
0.0
 70
    32
  0
VERTEX
  5
129
330
107
100
AcDbEntity
  8
L0_
  6
Continuous
 62
     2
100
AcDbVertex
100
AcDb3dPolylineVertex
 10
117.521332
 20
200.134979
 30
0.0
 70
    32
  0
VERTEX
  5
12A
330
107
100
AcDbEntity
  8
L0_
  6
Continuous
 62
     2
100
AcDbVertex
100
AcDb3dPolylineVertex
 10
118.521332
 20
198.085693
 30
0.0
 70
    32
  0
VERTEX
  5
12B
330
107
100
AcDbEntity
  8
L0_
  6
Continuous
 62
     2
100
AcDbVertex
100
AcDb3dPolylineVertex
 10
119.521332
 20
196.041489
 30
0.0
 70
    32
  0
VERTEX
  5
12C
330
107
100
AcDbEntity
  8
L0_
  6
Continuous
 62
     2
100
AcDbVertex
100
AcDb3dPolylineVertex
 10
120.521332
 20
194.001816
 30
0.0
 70
    32
  0
VERTEX
  5
12D
330
107
100
AcDbEntity
  8
L0_
  6
Continuous
 62
     2
100
AcDbVertex
100
AcDb3dPolylineVertex
 10
121.521332
 20
191.966202
 30
0.0
 70
    32
  0
VERTEX
  5
12E
330
107
100
AcDbEntity
  8
L0_
  6
Continuous
 62
     2
100
AcDbVertex
100
AcDb3dPolylineVertex
 10
122.081154
 20
190.828232
 30
0.0
 70
    32
  0
SEQEND
  5
12F
330
107
100
AcDbEntity
  8
L0_
  6
Continuous
 62
     2
  0
TEXT
  5
132
330
22
100
AcDbEntity
  8
レイヤー_5
  6
Continuous
 62
     7
370
     0
100
AcDbText
 10
141.0
 20
302.0
 30
0.0
 40
2.444193999999999
  1
XS3200NE
 41
0.8
  7
STD
100
AcDbText
  0
TEXT
  5
133
330
22
100
AcDbEntity
  8
レイヤー_5
  6
Continuous
 62
     7
370
     0
100
AcDbText
 10
176.0
 20
302.0
 30
0.0
 40
2.444193999999999
  1
I1=1600A
 41
0.8
  7
STD
100
AcDbText
  0
TEXT
  5
134
330
22
100
AcDbEntity
  8
レイヤー_5
  6
Continuous
 62
     7
370
     0
100
AcDbText
 10
176.0
 20
292.0
 30
0.0
 40
2.444193999999999
  1
ICT=3200A
 41
0.8
  7
STD
100
AcDbText
  0
TEXT
  5
135
330
22
100
AcDbEntity
  8
L220_
  6
Continuous
 62
     1
100
AcDbText
 10
127.646294
 20
114.204160511012
 30
0.0
 40
2.5
  1
1000%
 50
90.0
100
AcDbText
  0
TEXT
  5
136
330
22
100
AcDbEntity
  8
L220_
  6
Continuous
 62
     1
100
AcDbText
 10
123.32093
 20
115.0398438985495
 30
0.0
 40
2.5
  1
800%
 50
90.0
100
AcDbText
  0
TEXT
  5
137
330
22
100
AcDbEntity
  8
L220_
  6
Continuous
 62
     1
100
AcDbText
 10
117.935036
 20
115.2416868985495
 30
0.0
 40
2.5
  1
600%
 50
90.0
100
AcDbText
  0
TEXT
  5
138
330
22
100
AcDbEntity
  8
L220_
  6
Continuous
 62
     1
100
AcDbText
 10
110.267319
 20
115.2416798985495
 30
0.0
 40
2.5
  1
400%
 50
90.0
100
AcDbText
  0
TEXT
  5
13B
330
22
100
AcDbEntity
  8
L220_
  6
Continuous
 62
     1
100
AcDbText
 10
97.268951
 20
109.5940749885194
 30
0.0
 40
2.5
  1
I1X200%
 50
90.0
100
AcDbText
  0
TEXT
  5
13C
330
22
100
AcDbEntity
  8
L220_
  6
Continuous
 62
     1
100
AcDbText
 10
159.7741641047152
 20
200.72612
 30
0.0
 40
2.5
  1
30S
100
AcDbText
  0
TEXT
  5
13D
330
22
100
AcDbEntity
  8
L220_
  6
Continuous
 62
     1
100
AcDbText
 10
159.9783731047152
 20
193.170197
 30
0.0
 40
2.5
  1
20S
100
AcDbText
  0
TEXT
  5
13E
330
22
100
AcDbEntity
  8
L220_
  6
Continuous
 62
     1
100
AcDbText
 10
160.2374849621693
 20
187.8648470203467
 30
0.0
 40
2.5
  1
15S
100
AcDbText
  0
TEXT
  5
13F
330
22
100
AcDbEntity
  8
L220_
  6
Continuous
 62
     1
100
AcDbText
 10
160.2374849621693
 20
180.3089240203466
 30
0.0
 40
2.5
  1
10S
100
AcDbText
  0
TEXT
  5
140
330
22
100
AcDbEntity
  8
L220_
  6
Continuous
 62
     1
100
AcDbText
 10
160.4643736618494
 20
166.826569
 30
0.0
 40
2.5
  1
5S
100
AcDbText
  0
TEXT
  5
141
330
22
100
AcDbEntity
  8
L220_
  6
Continuous
 62
     1
100
AcDbText
 10
159.928661761875
 20
113.857063
 30
0.0
 40
2.5
  1
0.30S
100
AcDbText
  0
TEXT
  5
142
330
22
100
AcDbEntity
  8
L220_
  6
Continuous
 62
     1
100
AcDbText
 10
159.928661761875
 20
110.419891
 30
0.0
 40
2.5
  1
0.25S
100
AcDbText
  0
TEXT
  5
143
330
22
100
AcDbEntity
  8
L220_
  6
Continuous
 62
     1
100
AcDbText
 10
159.928661761875
 20
106.214706
 30
0.0
 40
2.5
  1
0.20S
100
AcDbText
  0
TEXT
  5
144
330
22
100
AcDbEntity
  8
L220_
  6
Continuous
 62
     1
100
AcDbText
 10
159.928661761875
 20
100.790001
 30
0.0
 40
2.5
  1
0.15S
100
AcDbText
  0
TEXT
  5
145
330
22
100
AcDbEntity
  8
L220_
  6
Continuous
 62
     1
100
AcDbText
 10
159.928661761875
 20
93.150002
 30
0.0
 40
2.5
  1
0.10S
100
AcDbText
  0
TEXT
  5
146
330
22
100
AcDbEntity
  8
L220_
  6
Continuous
 62
     1
100
AcDbText
 10
140.2178975145228
 20
61.11804670874129
 30
0.0
 40
2.5
  1
1000%%%
 50
90.0
100
AcDbText
  0
TEXT
  5
147
330
22
100
AcDbEntity
  8
L220_
  6
Continuous
 62
     1
100
AcDbText
 10
138.656335
 20
72.08546146602708
 30
0.0
 40
2.5
  1
900%
 50
90.0
100
AcDbText
  0
TEXT
  5
148
330
22
100
AcDbEntity
  8
L220_
  6
Continuous
 62
     1
100
AcDbText
 10
131.02749
 20
72.01784146602708
 30
0.0
 40
2.5
  1
600%
 50
90.0
100
AcDbText
  0
TEXT
  5
149
330
22
100
AcDbEntity
  8
L220_
  6
Continuous
 62
     1
100
AcDbText
 10
117.871431
 20
62.74172921883685
 30
0.0
 40
2.5
  1
ICTX300%
 50
90.0
100
AcDbText
  0
MTEXT
  5
262
330
22
100
AcDbEntity
  8
VPORT-BORDERS
 62
     7
100
AcDbMText
 10
-2.890257000000018
 20
52.44029300000004
 30
0.0
 40
2.444193999999999
 41
0.0
 71
     1
 72
     2
  1
\W1.02;\fOsaka|b0|i0|c128;0.01S
  7
STD
 73
     1
 44
1.0
1001
ACAD
1000
MTEXTBEGIN
1070
    73
1070
     1
1070
    44
1040
1.0
1070
    74
1070
     0
1000
MTEXTEND
  0
LINE
  5
263
330
22
100
AcDbEntity
  8
VPORT-BORDERS
 62
     7
100
AcDbLine
 10
202.223666
 20
51.00000000000004
 30
0.0
 11
7.881177999999977
 21
51.00000000000004
 31
0.0
  0
LINE
  5
264
330
22
100
AcDbEntity
  8
VPORT-BORDERS
 62
     7
100
AcDbLine
 10
7.881177999999977
 20
311.4004710000001
 30
0.0
 11
7.881177999999977
 21
51.00000000000004
 31
0.0
  0
LINE
  5
265
330
22
100
AcDbEntity
  8
VPORT-BORDERS
 62
     7
100
AcDbLine
 10
34.08112999999997
 20
311.4004710000001
 30
0.0
 11
34.08112999999997
 21
51.00000000000004
 31
0.0
  0
LINE
  5
266
330
22
100
AcDbEntity
  8
VPORT-BORDERS
 62
     7
100
AcDbLine
 10
20.98115400000001
 20
311.4004710000001
 30
0.0
 11
20.98115400000001
 21
51.00000000000004
 31
0.0
  0
MTEXT
  5
267
330
22
100
AcDbEntity
  8
VPORT-BORDERS
 62
     7
100
AcDbMText
 10
33.11901599999999
 20
36.21468400000007
 30
0.0
 40
2.444193999999999
 41
0.0
 71
     1
 72
     2
  1
\fOsaka|b0|i0|c128;110V
  7
STD
 11
0.0
 21
1.0
 31
0.0
 73
     1
 44
1.0
1001
ACAD
1000
MTEXTBEGIN
1070
    73
1070
     1
1070
    44
1040
1.0
1070
    74
1070
     0
1000
MTEXTEND
  0
MTEXT
  5
268
330
22
100
AcDbEntity
  8
VPORT-BORDERS
 62
     7
100
AcDbMText
 10
6.437095999999996
 20
36.21468400000007
 30
0.0
 40
2.444193999999999
 41
0.0
 71
     1
 72
     2
  1
\fOsaka|b0|i0|c128;440V
  7
STD
 11
0.0
 21
1.0
 31
0.0
 73
     1
 44
1.0
1001
ACAD
1000
MTEXTBEGIN
1070
    73
1070
     1
1070
    44
1040
1.0
1070
    74
1070
     0
1000
MTEXTEND
  0
MTEXT
  5
269
330
22
100
AcDbEntity
  8
VPORT-BORDERS
 62
     7
100
AcDbMText
 10
19.53707199999996
 20
36.21468400000007
 30
0.0
 40
2.444193999999999
 41
0.0
 71
     1
 72
     2
  1
\fOsaka|b0|i0|c128;220V
  7
STD
 11
0.0
 21
1.0
 31
0.0
 73
     1
 44
1.0
1001
ACAD
1000
MTEXTBEGIN
1070
    73
1070
     1
1070
    44
1040
1.0
1070
    74
1070
     0
1000
MTEXTEND
  0
VIEWPORT
  5
14C
102
{ACAD_XDICTIONARY
360
4E0
102
}
330
1E
100
AcDbEntity
 67
     1
  8
0
100
AcDbViewport
 10
28.226941
 20
0.0
 30
0.0
 40
650.453882
 41
420.0
 68
     1
 69
     1
 12
28.226941
 22
0.0
 13
0.0
 23
0.0
 14
1.0
 24
1.0
 15
0.0
 25
0.0
 16
0.0
 26
0.0
 36
1.0
 17
0.0
 27
0.0
 37
0.0
 42
50.0
 43
0.0
 44
0.0
 45
420.0
 50
0.0
 51
0.0
 72
   100
 90
    32800
  1

281
     0
 71
     0
 74
     0
110
0.0
120
0.0
130
0.0
111
0.0
121
0.0
131
0.0
112
0.0
122
0.0
132
0.0
 79
     0
146
0.0
  0
VIEWPORT
  5
14E
102
{ACAD_XDICTIONARY
360
4E2
102
}
330
1E
100
AcDbEntity
 67
     1
  8
VPORT-BORDERS
100
AcDbViewport
 10
0.0
 20
0.0
 30
0.0
 40
594.0
 41
420.0
 68
     2
 69
     2
 12
0.0
 22
0.0
 13
0.0
 23
0.0
 14
1.0
 24
1.0
 15
0.0
 25
0.0
 16
0.0
 26
0.0
 36
1.0
 17
0.0
 27
0.0
 37
0.0
 42
50.0
 43
0.0
 44
0.0
 45
420.0
 50
0.0
 51
0.0
 72
   100
 90
    32800
  1

281
     0
 71
     0
 74
     0
110
0.0
120
0.0
130
0.0
111
0.0
121
0.0
131
0.0
112
0.0
122
0.0
132
0.0
 79
     0
146
0.0
  0
ENDSEC
  0
SECTION
  2
OBJECTS
  0
DICTIONARY
  5
C
330
0
100
AcDbDictionary
281
     1
  3
ACAD_COLOR
350
1B
  3
ACAD_GROUP
350
D
  3
ACAD_LAYOUT
350
19
  3
ACAD_MATERIAL
350
1A
  3
ACAD_MLINESTYLE
350
16
  3
ACAD_PLOTSETTINGS
350
18
  3
ACAD_PLOTSTYLENAME
350
E
  3
ACAD_TABLESTYLE
350
1C
  3
ACDBHEADERROUNDTRIPXREC
350
4DB
  3
AcDbVariableDictionary
350
15B
  0
DICTIONARY
  5
4E0
330
14C
100
AcDbDictionary
280
     1
281
     1
  3
ACAD_XREC_ROUNDTRIP
360
4E1
  0
DICTIONARY
  5
4E2
330
14E
100
AcDbDictionary
280
     1
281
     1
  3
ACAD_XREC_ROUNDTRIP
360
4E3
  0
DICTIONARY
  5
1B
102
{ACAD_REACTORS
330
C
102
}
330
C
100
AcDbDictionary
281
     1
  0
DICTIONARY
  5
D
102
{ACAD_REACTORS
330
C
102
}
330
C
100
AcDbDictionary
281
     1
  0
DICTIONARY
  5
19
102
{ACAD_REACTORS
330
C
102
}
330
C
100
AcDbDictionary
281
     1
  3
Model
350
25
  3
レイアウト1
350
21
  0
DICTIONARY
  5
1A
102
{ACAD_REACTORS
330
C
102
}
330
C
100
AcDbDictionary
281
     1
  0
DICTIONARY
  5
16
102
{ACAD_REACTORS
330
C
102
}
330
C
100
AcDbDictionary
281
     1
  3
Standard
350
17
  0
DICTIONARY
  5
18
102
{ACAD_REACTORS
330
C
102
}
330
C
100
AcDbDictionary
281
     1
  0
ACDBDICTIONARYWDFLT
  5
E
102
{ACAD_REACTORS
330
C
102
}
330
C
100
AcDbDictionary
281
     1
  3
Normal
350
F
100
AcDbDictionaryWithDefault
340
F
  0
DICTIONARY
  5
1C
102
{ACAD_REACTORS
330
C
102
}
330
C
100
AcDbDictionary
281
     1
  3
Standard
350
1D
  0
DICTIONARY
  5
4DB
102
{ACAD_REACTORS
330
C
102
}
330
C
100
AcDbDictionary
281
     1
  0
DICTIONARY
  5
15B
102
{ACAD_REACTORS
330
C
102
}
330
C
100
AcDbDictionary
281
     1
  3
CTABLESTYLE
350
15C
  3
DIMASSOC
350
490
  3
PROJECTNAME
350
491
  0
XRECORD
  5
4E1
102
{ACAD_REACTORS
330
4E0
102
}
330
4E0
100
AcDbXrecord
280
     1
102
SHADEPLOT
 70
     0
  0
XRECORD
  5
4E3
102
{ACAD_REACTORS
330
4E2
102
}
330
4E2
100
AcDbXrecord
280
     1
102
SHADEPLOT
 70
     0
  0
LAYOUT
  5
25
102
{ACAD_XDICTIONARY
360
4DE
102
}
102
{ACAD_REACTORS
330
19
102
}
330
19
100
AcDbPlotSettings
  1

  2
Canon LBP3800 LIPSLX
  4
A3
  6

 40
5.873749732971191
 41
5.873747825622558
 42
5.873748779296875
 43
5.873748779296875
 44
296.9259948730469
 45
419.9466552734374
 46
40.01825161347475
 47
66.49828265933098
 48
0.0
 49
0.0
140
0.0
141
0.0
142
1.0
143
1.0
 70
 11940
 72
     1
 73
     0
 74
     1
  7
monochrome-all0.13mm.ctb
 75
     0
147
1.464219826732021
148
2.897462594039382
149
-36.19948892158482
100
AcDbLayout
  1
Model
 70
     1
 71
     0
 10
0.0
 20
0.0
 11
12.0
 21
9.0
 12
0.0
 22
0.0
 32
0.0
 14
0.0
 24
0.0
 34
0.0
 15
0.0
 25
0.0
 35
0.0
146
0.0
 13
0.0
 23
0.0
 33
0.0
 16
1.0
 26
0.0
 36
0.0
 17
0.0
 27
1.0
 37
0.0
 76
     0
330
22
1001
ACAD_PSEXT
1000
Canon LBP3800 LIPSLX
1000
Canon LBP3800 LIPSLX
1000
IP_192.168.1.113
1000

1070
     0
  0
LAYOUT
  5
21
102
{ACAD_XDICTIONARY
360
4DC
102
}
102
{ACAD_REACTORS
330
19
102
}
330
19
100
AcDbPlotSettings
  1

  2
Canon LASER SHOT LBP-840
  4

  6

 40
0.0
 41
0.0
 42
0.0
 43
0.0
 44
0.0
 45
0.0
 46
0.0
 47
0.0
 48
0.0
 49
0.0
140
0.0
141
0.0
142
1.0
143
1.0
 70
   688
 72
     0
 73
     0
 74
     5
  7
monochrome-all0.13mm.ctb
 75
    16
147
1.0
148
0.0
149
0.0
100
AcDbLayout
  1
レイアウト1
 70
     1
 71
     1
 10
0.0
 20
0.0
 11
12.0
 21
9.0
 12
0.0
 22
0.0
 32
0.0
 14
-297.0
 24
-210.0
 34
0.0
 15
297.0
 25
210.0
 35
0.0
146
0.0
 13
0.0
 23
0.0
 33
0.0
 16
1.0
 26
0.0
 36
0.0
 17
0.0
 27
1.0
 37
0.0
 76
     0
330
1E
331
14C
  0
MLINESTYLE
  5
17
102
{ACAD_REACTORS
330
16
102
}
330
16
100
AcDbMlineStyle
  2
STANDARD
 70
     0
  3

 62
   256
 51
90.0
 52
90.0
 71
     2
 49
0.5
 62
   256
  6
BYLAYER
 49
-0.5
 62
   256
  6
BYLAYER
  0
ACDBPLACEHOLDER
  5
F
102
{ACAD_REACTORS
330
E
102
}
330
E
  0
TABLESTYLE
  5
1D
102
{ACAD_REACTORS
330
1C
102
}
330
1C
100
AcDbTableStyle
  3
Standard
 70
     0
 71
     0
 40
0.06
 41
0.06
280
     0
281
     0
  7
STANDARD
140
0.18
170
     2
 62
     0
 63
     7
283
     0
274
    -2
284
     1
 64
     0
275
    -2
285
     1
 65
     0
276
    -2
286
     1
 66
     0
277
    -2
287
     1
 67
     0
278
    -2
288
     1
 68
     0
279
    -2
289
     1
 69
     0
  7
STANDARD
140
0.25
170
     5
 62
     0
 63
     7
283
     0
274
    -2
284
     1
 64
     0
275
    -2
285
     1
 65
     0
276
    -2
286
     1
 66
     0
277
    -2
287
     1
 67
     0
278
    -2
288
     1
 68
     0
279
    -2
289
     1
 69
     0
  7
STANDARD
140
0.18
170
     5
 62
     0
 63
     7
283
     0
274
    -2
284
     1
 64
     0
275
    -2
285
     1
 65
     0
276
    -2
286
     1
 66
     0
277
    -2
287
     1
 67
     0
278
    -2
288
     1
 68
     0
279
    -2
289
     1
 69
     0
  0
DICTIONARYVAR
  5
15C
102
{ACAD_REACTORS
330
15B
102
}
330
15B
100
DictionaryVariables
280
     0
  1
STANDARD
  0
DICTIONARYVAR
  5
490
102
{ACAD_REACTORS
330
15B
102
}
330
15B
100
DictionaryVariables
280
     0
  1
1
  0
DICTIONARYVAR
  5
491
102
{ACAD_REACTORS
330
15B
102
}
330
15B
100
DictionaryVariables
280
     0
  1

  0
DICTIONARY
  5
4DE
330
25
100
AcDbDictionary
280
     1
281
     1
  3
ACAD_XREC_ROUNDTRIP
360
4DF
  0
DICTIONARY
  5
4DC
330
21
100
AcDbDictionary
280
     1
281
     1
  3
ACAD_XREC_ROUNDTRIP
360
4DD
  0
XRECORD
  5
4DF
102
{ACAD_REACTORS
330
4DE
102
}
330
4DE
100
AcDbXrecord
280
     1
102
SHADEPLOT
 70
     0
102
SHADEPLOTRESLEVEL
 70
     2
102
SHADEPLOTCUSTOMDPI
 70
   300
  0
XRECORD
  5
4DD
102
{ACAD_REACTORS
330
4DC
102
}
330
4DC
100
AcDbXrecord
280
     1
102
SHADEPLOT
 70
     0
102
SHADEPLOTRESLEVEL
 70
     2
102
SHADEPLOTCUSTOMDPI
 70
   300
  0
ENDSEC
  0
EOF
