  0
SECTION
  2
HEADER
  9
$ACADVER
  1
AC1015
  9
$ACADMAINTVER
 70
    20
  9
$DWGCODEPAGE
  3
ANSI_932
  9
$INSBASE
 10
0.0
 20
0.0
 30
0.0
  9
$EXTMIN
 10
9.825462148855876
 20
14.77574956273088
 30
-0.0000000349181948
  9
$EXTMAX
 10
214.9543349951664
 20
289.9874855313949
 30
0.0000000814935747
  9
$LIMMIN
 10
9.837987
 20
14.792551
  9
$LIMMAX
 10
215.057674
 20
290.0841020000001
  9
$ORTHOMODE
 70
     0
  9
$REGENMODE
 70
     1
  9
$FILLMODE
 70
     1
  9
$QTEXTMODE
 70
     0
  9
$MIRRTEXT
 70
     1
  9
$LTSCALE
 40
1.0
  9
$ATTMODE
 70
     1
  9
$TEXTSIZE
 40
0.0
  9
$TRACEWID
 40
0.05
  9
$TEXTSTYLE
  7
STD
  9
$CLAYER
  8
0
  9
$CELTYPE
  6
Continuous
  9
$CECOLOR
 62
   256
  9
$CELTSCALE
 40
1.0
  9
$DISPSILH
 70
     0
  9
$DIMSCALE
 40
1.0
  9
$DIMASZ
 40
0.18
  9
$DIMEXO
 40
0.0625
  9
$DIMDLI
 40
0.38
  9
$DIMRND
 40
0.0
  9
$DIMDLE
 40
0.0
  9
$DIMEXE
 40
0.18
  9
$DIMTP
 40
0.0
  9
$DIMTM
 40
0.0
  9
$DIMTXT
 40
0.18
  9
$DIMCEN
 40
0.09
  9
$DIMTSZ
 40
0.0
  9
$DIMTOL
 70
     0
  9
$DIMLIM
 70
     0
  9
$DIMTIH
 70
     1
  9
$DIMTOH
 70
     1
  9
$DIMSE1
 70
     0
  9
$DIMSE2
 70
     0
  9
$DIMTAD
 70
     0
  9
$DIMZIN
 70
     0
  9
$DIMBLK
  1

  9
$DIMASO
 70
     1
  9
$DIMSHO
 70
     1
  9
$DIMPOST
  1

  9
$DIMAPOST
  1

  9
$DIMALT
 70
     0
  9
$DIMALTD
 70
     2
  9
$DIMALTF
 40
25.4
  9
$DIMLFAC
 40
1.0
  9
$DIMTOFL
 70
     0
  9
$DIMTVP
 40
0.0
  9
$DIMTIX
 70
     0
  9
$DIMSOXD
 70
     0
  9
$DIMSAH
 70
     0
  9
$DIMBLK1
  1

  9
$DIMBLK2
  1

  9
$DIMSTYLE
  2
Standard
  9
$DIMCLRD
 70
     0
  9
$DIMCLRE
 70
     0
  9
$DIMCLRT
 70
     0
  9
$DIMTFAC
 40
1.0
  9
$DIMGAP
 40
0.09
  9
$DIMJUST
 70
     0
  9
$DIMSD1
 70
     0
  9
$DIMSD2
 70
     0
  9
$DIMTOLJ
 70
     1
  9
$DIMTZIN
 70
     0
  9
$DIMALTZ
 70
     0
  9
$DIMALTTZ
 70
     0
  9
$DIMUPT
 70
     0
  9
$DIMDEC
 70
     4
  9
$DIMTDEC
 70
     4
  9
$DIMALTU
 70
     2
  9
$DIMALTTD
 70
     2
  9
$DIMTXSTY
  7
Standard
  9
$DIMAUNIT
 70
     0
  9
$DIMADEC
 70
     0
  9
$DIMALTRND
 40
0.0
  9
$DIMAZIN
 70
     0
  9
$DIMDSEP
 70
     0
  9
$DIMATFIT
 70
     3
  9
$DIMFRAC
 70
     0
  9
$DIMLDRBLK
  1

  9
$DIMLUNIT
 70
     2
  9
$DIMLWD
 70
     0
  9
$DIMLWE
 70
     0
  9
$DIMTMOVE
 70
     0
  9
$LUNITS
 70
     2
  9
$LUPREC
 70
     4
  9
$SKETCHINC
 40
0.1
  9
$FILLETRAD
 40
0.0
  9
$AUNITS
 70
     0
  9
$AUPREC
 70
     0
  9
$MENU
  1
acad
  9
$ELEVATION
 40
0.0
  9
$PELEVATION
 40
0.0
  9
$THICKNESS
 40
0.0
  9
$LIMCHECK
 70
     0
  9
$CHAMFERA
 40
0.0
  9
$CHAMFERB
 40
0.0
  9
$CHAMFERC
 40
0.0
  9
$CHAMFERD
 40
0.0
  9
$SKPOLY
 70
     0
  9
$TDCREATE
 40
2454670.411435544
  9
$TDUCREATE
 40
2454670.036435544
  9
$TDUPDATE
 40
2454670.449259792
  9
$TDUUPDATE
 40
2454670.074259792
  9
$TDINDWG
 40
0.0011935880
  9
$TDUSRTIMER
 40
0.0011935880
  9
$USRTIMER
 70
     1
  9
$ANGBASE
 50
0.0
  9
$ANGDIR
 70
     0
  9
$PDMODE
 70
     0
  9
$PDSIZE
 40
0.0
  9
$PLINEWID
 40
0.0
  9
$SPLFRAME
 70
     0
  9
$SPLINETYPE
 70
     6
  9
$SPLINESEGS
 70
     8
  9
$HANDSEED
  5
F3
  9
$SURFTAB1
 70
     6
  9
$SURFTAB2
 70
     6
  9
$SURFTYPE
 70
     6
  9
$SURFU
 70
     6
  9
$SURFV
 70
     6
  9
$UCSBASE
  2

  9
$UCSNAME
  2

  9
$UCSORG
 10
0.0
 20
0.0
 30
0.0
  9
$UCSXDIR
 10
1.0
 20
0.0
 30
0.0
  9
$UCSYDIR
 10
0.0
 20
1.0
 30
0.0
  9
$UCSORTHOREF
  2

  9
$UCSORTHOVIEW
 70
     0
  9
$UCSORGTOP
 10
0.0
 20
0.0
 30
0.0
  9
$UCSORGBOTTOM
 10
0.0
 20
0.0
 30
0.0
  9
$UCSORGLEFT
 10
0.0
 20
0.0
 30
0.0
  9
$UCSORGRIGHT
 10
0.0
 20
0.0
 30
0.0
  9
$UCSORGFRONT
 10
0.0
 20
0.0
 30
0.0
  9
$UCSORGBACK
 10
0.0
 20
0.0
 30
0.0
  9
$PUCSBASE
  2

  9
$PUCSNAME
  2

  9
$PUCSORG
 10
0.0
 20
0.0
 30
0.0
  9
$PUCSXDIR
 10
1.0
 20
0.0
 30
0.0
  9
$PUCSYDIR
 10
0.0
 20
1.0
 30
0.0
  9
$PUCSORTHOREF
  2

  9
$PUCSORTHOVIEW
 70
     0
  9
$PUCSORGTOP
 10
0.0
 20
0.0
 30
0.0
  9
$PUCSORGBOTTOM
 10
0.0
 20
0.0
 30
0.0
  9
$PUCSORGLEFT
 10
0.0
 20
0.0
 30
0.0
  9
$PUCSORGRIGHT
 10
0.0
 20
0.0
 30
0.0
  9
$PUCSORGFRONT
 10
0.0
 20
0.0
 30
0.0
  9
$PUCSORGBACK
 10
0.0
 20
0.0
 30
0.0
  9
$USERI1
 70
     0
  9
$USERI2
 70
     0
  9
$USERI3
 70
     0
  9
$USERI4
 70
     0
  9
$USERI5
 70
     0
  9
$USERR1
 40
0.0
  9
$USERR2
 40
0.0
  9
$USERR3
 40
0.0
  9
$USERR4
 40
0.0
  9
$USERR5
 40
0.0
  9
$WORLDVIEW
 70
     1
  9
$SHADEDGE
 70
     3
  9
$SHADEDIF
 70
    70
  9
$TILEMODE
 70
     1
  9
$MAXACTVP
 70
    16
  9
$PINSBASE
 10
0.0
 20
0.0
 30
0.0
  9
$PLIMCHECK
 70
     0
  9
$PEXTMIN
 10
1.000000000000000E+20
 20
1.000000000000000E+20
 30
1.000000000000000E+20
  9
$PEXTMAX
 10
-1.000000000000000E+20
 20
-1.000000000000000E+20
 30
-1.000000000000000E+20
  9
$PLIMMIN
 10
0.0
 20
0.0
  9
$PLIMMAX
 10
12.0
 20
9.0
  9
$UNITMODE
 70
     0
  9
$VISRETAIN
 70
     0
  9
$PLINEGEN
 70
     1
  9
$PSLTSCALE
 70
     0
  9
$TREEDEPTH
 70
  3020
  9
$CMLSTYLE
  2
Standard
  9
$CMLJUST
 70
     0
  9
$CMLSCALE
 40
1.0
  9
$PROXYGRAPHICS
 70
     0
  9
$MEASUREMENT
 70
     0
  9
$CELWEIGHT
370
     0
  9
$ENDCAPS
280
     0
  9
$JOINSTYLE
280
     0
  9
$LWDISPLAY
290
     0
  9
$INSUNITS
 70
     0
  9
$HYPERLINKBASE
  1

  9
$STYLESHEET
  1

  9
$XEDIT
290
     1
  9
$CEPSNTYPE
380
     0
  9
$PSTYLEMODE
290
     1
  9
$FINGERPRINTGUID
  2

  9
$VERSIONGUID
  2
{F3C733DA-ED89-4EAA-AB47-BB84015F1634}
  9
$EXTNAMES
290
     1
  9
$PSVPSCALE
 40
0.0
  9
$OLESTARTUP
290
     0
  0
ENDSEC
  0
SECTION
  2
CLASSES
  0
CLASS
  1
IMAGE
  2
AcDbRasterImage
  3
ISM
 90
    32895
280
     0
281
     1
  0
CLASS
  1
DICTIONARYVAR
  2
AcDbDictionaryVar
  3
ObjectDBX Classes
 90
        0
280
     0
281
     0
  0
CLASS
  1
RASTERVARIABLES
  2
AcDbRasterVariables
  3
ISM
 90
    32768
280
     0
281
     0
  0
CLASS
  1
IMAGEDEF
  2
AcDbRasterImageDef
  3
ISM
 90
    32768
280
     0
281
     0
  0
CLASS
  1
IMAGEDEF_REACTOR
  2
AcDbRasterImageDefReactor
  3
ISM
 90
    32769
280
     0
281
     0
  0
CLASS
  1
IDBUFFER
  2
AcDbIdBuffer
  3
ObjectDBX Classes
 90
    32768
280
     0
281
     0
  0
CLASS
  1
SPATIAL_FILTER
  2
AcDbSpatialFilter
  3
ObjectDBX Classes
 90
    32768
280
     0
281
     0
  0
CLASS
  1
SORTENTSTABLE
  2
AcDbSortentsTable
  3
ObjectDBX Classes
 90
        0
280
     0
281
     0
  0
CLASS
  1
LAYER_INDEX
  2
AcDbLayerIndex
  3
ObjectDBX Classes
 90
    32768
280
     0
281
     0
  0
CLASS
  1
SPATIAL_INDEX
  2
AcDbSpatialIndex
  3
ObjectDBX Classes
 90
    32768
280
     0
281
     0
  0
CLASS
  1
OBJECT_PTR
  2
CAseDLPNTableRecord
  3
"ASE-LPNTableRecord"
 90
    32769
280
     0
281
     0
  0
CLASS
  1
LAYOUT
  2
AcDbLayout
  3
ObjectDBX Classes
 90
        0
280
     0
281
     0
  0
CLASS
  1
PLOTSETTINGS
  2
AcDbPlotSettings
  3
ObjectDBX Classes
 90
    32768
280
     0
281
     0
  0
CLASS
  1
ACDBDICTIONARYWDFLT
  2
AcDbDictionaryWithDefault
  3
ObjectDBX Classes
 90
        0
280
     0
281
     0
  0
CLASS
  1
ACDBPLACEHOLDER
  2
AcDbPlaceHolder
  3
ObjectDBX Classes
 90
        0
280
     0
281
     0
  0
CLASS
  1
VBA_PROJECT
  2
AcDbVbaProject
  3
acad
 90
    32768
280
     0
281
     0
  0
CLASS
  1
WIPEOUT
  2
AcDbWipeout
  3
"WipeOut|Product Desc: Object Enabler for WipeOut entity^I^I^I^I^I^I|Company: Autodesk, Inc.^I^I^I^I^I^I|WEB Address: www.autodesk.com"
 90
    32895
280
     0
281
     1
  0
CLASS
  1
WIPEOUTVARIABLES
  2
AcDbWipeoutVariables
  3
"WipeOut|Product Desc:     WipeOut Dbx Application|Company:          Autodesk, Inc.|WEB Address:      www.autodesk.com"
 90
        0
280
     0
281
     0
  0
CLASS
  1
RTEXT
  2
RText
  3
RText|AutoCAD Express Tool|expresstools@autodesk.com
 90
    32768
280
     0
281
     1
  0
CLASS
  1
ARCALIGNEDTEXT
  2
AcDbArcAlignedText
  3
ATEXT|AutoCAD Express Tool|expresstools@autodesk.com
 90
    32768
280
     0
281
     1
  0
CLASS
  1
TABLESTYLE
  2
AcDbTableStyle
  3
ObjectDBX Classes
 90
     2047
280
     0
281
     0
  0
ENDSEC
  0
SECTION
  2
TABLES
  0
TABLE
  2
VPORT
  5
7
330
0
100
AcDbSymbolTable
 70
     2
  0
VPORT
  5
ED
330
7
100
AcDbSymbolTableRecord
100
AcDbViewportTableRecord
  2
*Active
 70
     0
 10
0.0
 20
0.0
 11
1.0
 21
1.0
 12
112.3898985720111
 22
152.3816175470629
 13
0.0
 23
0.0
 14
1.0
 24
1.0
 15
0.0
 25
0.0
 16
0.0
 26
0.0
 36
1.0
 17
0.0
 27
0.0
 37
0.0
 40
277.3287493222691
 41
1.121951219512195
 42
50.0
 43
0.0
 44
0.0
 50
0.0
 51
0.0
 71
     0
 72
   100
 73
     1
 74
     1
 75
     0
 76
     0
 77
     0
 78
     0
281
     0
 65
     0
110
0.0
120
0.0
130
0.0
111
1.0
121
0.0
131
0.0
112
0.0
122
1.0
132
0.0
 79
     0
146
0.0
  0
ENDTAB
  0
TABLE
  2
LTYPE
  5
4
330
0
100
AcDbSymbolTable
 70
     1
  0
LTYPE
  5
11
330
4
100
AcDbSymbolTableRecord
100
AcDbLinetypeTableRecord
  2
ByBlock
 70
     0
  3

 72
    65
 73
     0
 40
0.0
  0
LTYPE
  5
12
330
4
100
AcDbSymbolTableRecord
100
AcDbLinetypeTableRecord
  2
ByLayer
 70
     0
  3

 72
    65
 73
     0
 40
0.0
  0
LTYPE
  5
13
330
4
100
AcDbSymbolTableRecord
100
AcDbLinetypeTableRecord
  2
Continuous
 70
     0
  3
Solid line
 72
    65
 73
     0
 40
0.0
  0
ENDTAB
  0
TABLE
  2
LAYER
  5
2
330
0
100
AcDbSymbolTable
 70
    10
  0
LAYER
  5
14
330
2
100
AcDbSymbolTableRecord
100
AcDbLayerTableRecord
  2
0
 70
     0
 62
     7
  6
Continuous
370
    -3
390
1D
  0
LAYER
  5
28
330
2
100
AcDbSymbolTableRecord
100
AcDbLayerTableRecord
  2
レイヤー_5
 70
     0
 62
     2
  6
Continuous
370
    -3
390
1F
  0
LAYER
  5
2B
330
2
100
AcDbSymbolTableRecord
100
AcDbLayerTableRecord
  2
1
 70
     0
 62
     6
  6
Continuous
370
    -3
390
1F
  0
LAYER
  5
2D
330
2
100
AcDbSymbolTableRecord
100
AcDbLayerTableRecord
  2
2
 70
     0
 62
   160
  6
Continuous
370
    -3
390
1F
  0
LAYER
  5
2F
330
2
100
AcDbSymbolTableRecord
100
AcDbLayerTableRecord
  2
3
 70
     0
 62
   160
  6
Continuous
370
    -3
390
1F
  0
LAYER
  5
31
330
2
100
AcDbSymbolTableRecord
100
AcDbLayerTableRecord
  2
4
 70
     0
 62
   160
  6
Continuous
370
    -3
390
1F
  0
LAYER
  5
33
330
2
100
AcDbSymbolTableRecord
100
AcDbLayerTableRecord
  2
5
 70
     0
 62
   160
  6
Continuous
370
    -3
390
1F
  0
LAYER
  5
35
330
2
100
AcDbSymbolTableRecord
100
AcDbLayerTableRecord
  2
6
 70
     0
 62
   160
  6
Continuous
370
    -3
390
1F
  0
LAYER
  5
37
330
2
100
AcDbSymbolTableRecord
100
AcDbLayerTableRecord
  2
7
 70
     0
 62
   160
  6
Continuous
370
    -3
390
1F
  0
LAYER
  5
39
330
2
100
AcDbSymbolTableRecord
100
AcDbLayerTableRecord
  2
VPORT-BORDERS
 70
     0
 62
     5
  6
Continuous
370
    -3
390
1F
  0
ENDTAB
  0
TABLE
  2
STYLE
  5
3
330
0
100
AcDbSymbolTable
 70
     2
  0
STYLE
  5
17
330
3
100
AcDbSymbolTableRecord
100
AcDbTextStyleTableRecord
  2
Standard
 70
     0
 40
0.0
 41
1.0
 50
0.0
 71
     0
 42
0.0
  3
txt
  4

  0
STYLE
  5
24
330
3
100
AcDbSymbolTableRecord
100
AcDbTextStyleTableRecord
  2
STD
 70
     0
 40
0.0
 41
0.8
 50
0.0
 71
     0
 42
0.0
  3
romans.shx
  4
bigfont.shx
  0
ENDTAB
  0
TABLE
  2
VIEW
  5
5
330
0
100
AcDbSymbolTable
 70
     0
  0
ENDTAB
  0
TABLE
  2
UCS
  5
6
330
0
100
AcDbSymbolTable
 70
     0
  0
ENDTAB
  0
TABLE
  2
APPID
  5
8
330
0
100
AcDbSymbolTable
 70
     1
  0
APPID
  5
16
330
8
100
AcDbSymbolTableRecord
100
AcDbRegAppTableRecord
  2
ACAD
 70
     0
  0
ENDTAB
  0
TABLE
  2
DIMSTYLE
  5
9
330
0
100
AcDbSymbolTable
 70
     1
100
AcDbDimStyleTable
 71
     0
  0
DIMSTYLE
105
18
330
9
100
AcDbSymbolTableRecord
100
AcDbDimStyleTableRecord
  2
Standard
 70
     0
340
17
  0
ENDTAB
  0
TABLE
  2
BLOCK_RECORD
  5
1
330
0
100
AcDbSymbolTable
 70
     0
  0
BLOCK_RECORD
  5
A
102
{ACAD_XDICTIONARY
360
DA
102
}
330
1
100
AcDbSymbolTableRecord
100
AcDbBlockTableRecord
  2
*MODEL_SPACE
340
20
  0
BLOCK_RECORD
  5
B
330
1
100
AcDbSymbolTableRecord
100
AcDbBlockTableRecord
  2
*PAPER_SPACE
340
21
  0
ENDTAB
  0
ENDSEC
  0
SECTION
  2
BLOCKS
  0
BLOCK
  5
D
330
A
100
AcDbEntity
  8
0
100
AcDbBlockBegin
  2
*MODEL_SPACE
 70
     0
 10
0.0
 20
0.0
 30
0.0
  3
*MODEL_SPACE
  1

  0
ENDBLK
  5
E
330
A
100
AcDbEntity
  8
0
100
AcDbBlockEnd
  0
BLOCK
  5
F
330
B
100
AcDbEntity
 67
     1
  8
0
100
AcDbBlockBegin
  2
*PAPER_SPACE
 70
     0
 10
0.0
 20
0.0
 30
0.0
  3
*PAPER_SPACE
  1

  0
ENDBLK
  5
10
330
B
100
AcDbEntity
 67
     1
  8
0
100
AcDbBlockEnd
  0
ENDSEC
  0
SECTION
  2
ENTITIES
  0
MTEXT
  5
41
330
A
100
AcDbEntity
  8
VPORT-BORDERS
 62
     7
100
AcDbMText
 10
32.265316
 20
14.792551
 30
0.0
 40
2.444193999999999
 41
0.0
 71
     1
 72
     2
  1
\fOsaka|b0|i0|c128;220V
  7
STD
 11
0.0
 21
1.0
 31
0.0
 73
     1
 44
1.0
1001
ACAD
1000
MTEXTBEGIN
1070
    73
1070
     1
1070
    44
1040
1.0
1070
    74
1070
     0
1000
MTEXTEND
  0
MTEXT
  5
40
330
A
100
AcDbEntity
  8
VPORT-BORDERS
 62
     7
100
AcDbMText
 10
19.16534
 20
14.792551
 30
0.0
 40
2.444193999999999
 41
0.0
 71
     1
 72
     2
  1
\fOsaka|b0|i0|c128;440V
  7
STD
 11
0.0
 21
1.0
 31
0.0
 73
     1
 44
1.0
1001
ACAD
1000
MTEXTBEGIN
1070
    73
1070
     1
1070
    44
1040
1.0
1070
    74
1070
     0
1000
MTEXTEND
  0
MTEXT
  5
3F
330
A
100
AcDbEntity
  8
VPORT-BORDERS
 62
     7
100
AcDbMText
 10
45.84725999999998
 20
14.792551
 30
0.0
 40
2.444193999999999
 41
0.0
 71
     1
 72
     2
  1
\fOsaka|b0|i0|c128;110V
  7
STD
 11
0.0
 21
1.0
 31
0.0
 73
     1
 44
1.0
1001
ACAD
1000
MTEXTBEGIN
1070
    73
1070
     1
1070
    44
1040
1.0
1070
    74
1070
     0
1000
MTEXTEND
  0
LINE
  5
3E
330
A
100
AcDbEntity
  8
VPORT-BORDERS
 62
     7
100
AcDbLine
 10
33.709398
 20
289.978338
 30
0.0
 11
33.709398
 21
29.577867
 31
0.0
  0
LINE
  5
3D
330
A
100
AcDbEntity
  8
VPORT-BORDERS
 62
     7
100
AcDbLine
 10
46.809374
 20
289.978338
 30
0.0
 11
46.809374
 21
29.577867
 31
0.0
  0
LINE
  5
3C
330
A
100
AcDbEntity
  8
VPORT-BORDERS
 62
     7
100
AcDbLine
 10
20.609422
 20
289.978338
 30
0.0
 11
20.609422
 21
29.577867
 31
0.0
  0
LINE
  5
3B
330
A
100
AcDbEntity
  8
VPORT-BORDERS
 62
     7
100
AcDbLine
 10
214.95191
 20
29.577867
 30
0.0
 11
20.609422
 21
29.577867
 31
0.0
  0
MTEXT
  5
3A
330
A
100
AcDbEntity
  8
VPORT-BORDERS
 62
     7
100
AcDbMText
 10
9.837987
 20
31.01816
 30
0.0
 40
2.444193999999999
 41
0.0
 71
     1
 72
     2
  1
\W1.02;\fOsaka|b0|i0|c128;0.01S
  7
STD
 73
     1
 44
1.0
1001
ACAD
1000
MTEXTBEGIN
1070
    73
1070
     1
1070
    44
1040
1.0
1070
    74
1070
     0
1000
MTEXTEND
  0
SPLINE
  5
38
330
A
100
AcDbEntity
  8
7
 62
     7
100
AcDbSpline
210
0.0
220
0.0
230
1.0
 70
     8
 71
     3
 72
    29
 73
    25
 74
     0
 42
0.0000000001
 43
0.0000000001
 40
0.0
 40
0.0
 40
0.0
 40
0.0
 40
1.0
 40
1.0
 40
1.0
 40
2.0
 40
2.0
 40
2.0
 40
3.0
 40
3.0
 40
3.0
 40
4.0
 40
4.0
 40
4.0
 40
5.0
 40
5.0
 40
5.0
 40
6.0
 40
6.0
 40
6.0
 40
7.0
 40
7.0
 40
7.0
 40
8.0
 40
8.0
 40
8.0
 40
8.0
 10
179.1856174045139
 20
29.57786729600695
 30
0.0
 10
179.1856174045139
 20
29.57786729600695
 30
0.0
 10
136.5094970703125
 20
29.57786729600695
 30
0.0
 10
136.5094970703125
 20
29.57786729600695
 30
0.0
 10
136.5094970703125
 20
29.57786729600695
 30
0.0
 10
136.5094970703125
 20
86.04298231336803
 30
0.0
 10
136.5094970703125
 20
86.04298231336803
 30
0.0
 10
136.5094970703125
 20
86.04298231336803
 30
0.0
 10
130.1174669053819
 20
86.04298231336803
 30
0.0
 10
130.1174669053819
 20
86.04298231336803
 30
0.0
 10
130.1174669053819
 20
86.04298231336803
 30
0.0
 10
130.1174669053819
 20
161.2389092339409
 30
0.0
 10
130.1174669053819
 20
161.2389092339409
 30
0.0
 10
130.1174669053819
 20
161.2389092339409
 30
0.0
 10
129.6978542751736
 20
161.9939019097222
 30
0.0
 10
129.6978542751736
 20
161.9939019097222
 30
0.0
 10
123.5642062717014
 20
173.5153347439236
 30
0.0
 10
111.5942220052083
 20
195.7823649088541
 30
0.0
 10
99.54620632595485
 20
224.1427354600694
 30
0.0
 10
92.27826063368055
 20
241.2529744466146
 30
0.0
 10
88.89448784722219
 20
257.8118259006076
 30
0.0
 10
88.89448784722219
 20
271.2237548828125
 30
0.0
 10
88.89448784722219
 20
271.2237548828125
 30
0.0
 10
88.89448784722219
 20
289.9783379448784
 30
0.0
 10
88.89448784722219
 20
289.9783379448784
 30
0.0
  0
SPLINE
  5
36
330
A
100
AcDbEntity
  8
6
 62
     7
100
AcDbSpline
210
0.0
220
0.0
230
1.0
 70
     8
 71
     3
 72
    29
 73
    25
 74
     0
 42
0.0000000001
 43
0.0000000001
 40
0.0
 40
0.0
 40
0.0
 40
0.0
 40
1.0
 40
1.0
 40
1.0
 40
2.0
 40
2.0
 40
2.0
 40
3.0
 40
3.0
 40
3.0
 40
4.0
 40
4.0
 40
4.0
 40
5.0
 40
5.0
 40
5.0
 40
6.0
 40
6.0
 40
6.0
 40
7.0
 40
7.0
 40
7.0
 40
8.0
 40
8.0
 40
8.0
 40
8.0
 10
179.1856174045139
 20
29.57786729600695
 30
0.0
 10
179.1856174045139
 20
29.57786729600695
 30
0.0
 10
136.5094970703125
 20
29.57786729600695
 30
0.0
 10
136.5094970703125
 20
29.57786729600695
 30
0.0
 10
136.5094970703125
 20
29.57786729600695
 30
0.0
 10
136.5094970703125
 20
86.04298231336803
 30
0.0
 10
136.5094970703125
 20
86.04298231336803
 30
0.0
 10
136.5094970703125
 20
86.04298231336803
 30
0.0
 10
130.1264241536458
 20
86.04298231336803
 30
0.0
 10
130.1264241536458
 20
86.04298231336803
 30
0.0
 10
130.1264241536458
 20
86.04298231336803
 30
0.0
 10
130.1264241536458
 20
152.889892578125
 30
0.0
 10
130.1264241536458
 20
152.889892578125
 30
0.0
 10
130.1264241536458
 20
152.889892578125
 30
0.0
 10
129.7068115234375
 20
153.5742607964409
 30
0.0
 10
129.7068115234375
 20
153.5742607964409
 30
0.0
 10
123.5108072916666
 20
164.6562717013889
 30
0.0
 10
110.8549045138888
 20
190.9547526041666
 30
0.0
 10
99.45938991970484
 20
216.9898559570313
 30
0.0
 10
92.29806993272569
 20
233.347858344184
 30
0.0
 10
88.81128879123263
 20
249.5580661349826
 30
0.0
 10
88.81128879123263
 20
270.558851453993
 30
0.0
 10
88.81128879123263
 20
270.558851453993
 30
0.0
 10
88.81128879123263
 20
289.9783379448784
 30
0.0
 10
88.81128879123263
 20
289.9783379448784
 30
0.0
  0
SPLINE
  5
34
330
A
100
AcDbEntity
  8
5
 62
     7
100
AcDbSpline
210
0.0
220
0.0
230
1.0
 70
     8
 71
     3
 72
    35
 73
    31
 74
     0
 42
0.0000000001
 43
0.0000000001
 40
0.0
 40
0.0
 40
0.0
 40
0.0
 40
1.0
 40
1.0
 40
1.0
 40
2.0
 40
2.0
 40
2.0
 40
3.0
 40
3.0
 40
3.0
 40
4.0
 40
4.0
 40
4.0
 40
5.0
 40
5.0
 40
5.0
 40
6.0
 40
6.0
 40
6.0
 40
7.0
 40
7.0
 40
7.0
 40
8.0
 40
8.0
 40
8.0
 40
9.0
 40
9.0
 40
9.0
 40
10.0
 40
10.0
 40
10.0
 40
10.0
 10
179.1856174045139
 20
29.57786729600695
 30
0.0
 10
179.1856174045139
 20
29.57786729600695
 30
0.0
 10
136.5094970703125
 20
29.57786729600695
 30
0.0
 10
136.5094970703125
 20
29.57786729600695
 30
0.0
 10
136.5094970703125
 20
29.57786729600695
 30
0.0
 10
136.5094970703125
 20
86.04298231336803
 30
0.0
 10
136.5094970703125
 20
86.04298231336803
 30
0.0
 10
136.5094970703125
 20
86.04298231336803
 30
0.0
 10
130.1095431857638
 20
86.04298231336803
 30
0.0
 10
130.1095431857638
 20
86.04298231336803
 30
0.0
 10
130.1095431857638
 20
86.04298231336803
 30
0.0
 10
130.1095431857638
 20
140.6601481119791
 30
0.0
 10
130.1095431857638
 20
140.6601481119791
 30
0.0
 10
130.1095431857638
 20
140.6601481119791
 30
0.0
 10
129.6899305555555
 20
141.4463189019097
 30
0.0
 10
129.6899305555555
 20
141.4463189019097
 30
0.0
 10
129.6899305555555
 20
141.4463189019097
 30
0.0
 10
125.569251844618
 20
149.301136610243
 30
0.0
 10
120.5359673394097
 20
159.7783610026041
 30
0.0
 10
118.3955295138888
 20
164.233558485243
 30
0.0
 10
116.0904161241319
 20
169.7210788302951
 30
0.0
 10
113.8669514973958
 20
174.3710964626736
 30
0.0
 10
111.5859537760416
 20
179.1408311631944
 30
0.0
 10
109.3914279513888
 20
183.7462348090276
 30
0.0
 10
107.5489908854166
 20
187.6402262369791
 30
0.0
 10
99.68573269314235
 20
204.2567830403645
 30
0.0
 10
88.89155951605902
 20
227.5750840928819
 30
0.0
 10
88.89155951605902
 20
251.0489312065972
 30
0.0
 10
88.89155951605902
 20
254.1538235134548
 30
0.0
 10
88.89155951605902
 20
262.7865437825521
 30
0.0
 10
88.89155951605902
 20
289.9783379448784
 30
0.0
  0
SPLINE
  5
32
330
A
100
AcDbEntity
  8
4
 62
     7
100
AcDbSpline
210
0.0
220
0.0
230
1.0
 70
     8
 71
     3
 72
    38
 73
    34
 74
     0
 42
0.0000000001
 43
0.0000000001
 40
0.0
 40
0.0
 40
0.0
 40
0.0
 40
1.0
 40
1.0
 40
1.0
 40
2.0
 40
2.0
 40
2.0
 40
3.0
 40
3.0
 40
3.0
 40
4.0
 40
4.0
 40
4.0
 40
5.0
 40
5.0
 40
5.0
 40
6.0
 40
6.0
 40
6.0
 40
7.0
 40
7.0
 40
7.0
 40
8.0
 40
8.0
 40
8.0
 40
9.0
 40
9.0
 40
9.0
 40
10.0
 40
10.0
 40
10.0
 40
11.0
 40
11.0
 40
11.0
 40
11.0
 10
179.1856174045139
 20
29.57786729600695
 30
0.0
 10
179.1856174045139
 20
29.57786729600695
 30
0.0
 10
136.5094970703125
 20
29.57786729600695
 30
0.0
 10
136.5094970703125
 20
29.57786729600695
 30
0.0
 10
136.5094970703125
 20
29.57786729600695
 30
0.0
 10
136.5094970703125
 20
72.97849121093747
 30
0.0
 10
136.5094970703125
 20
72.97849121093747
 30
0.0
 10
136.5094970703125
 20
72.97849121093747
 30
0.0
 10
130.1095431857638
 20
72.97849121093747
 30
0.0
 10
130.1095431857638
 20
72.97849121093747
 30
0.0
 10
130.1095431857638
 20
72.97849121093747
 30
0.0
 10
130.1095431857638
 20
129.5183648003472
 30
0.0
 10
130.1095431857638
 20
129.5183648003472
 30
0.0
 10
130.1095431857638
 20
129.5183648003472
 30
0.0
 10
129.6899305555555
 20
130.1994601779514
 30
0.0
 10
129.6899305555555
 20
130.1994601779514
 30
0.0
 10
129.6899305555555
 20
130.1994601779514
 30
0.0
 10
125.668470594618
 20
136.545326063368
 30
0.0
 10
120.2638047960069
 20
146.9291883680555
 30
0.0
 10
116.4500840928819
 20
154.2567342122396
 30
0.0
 10
112.038294813368
 20
163.8144626193576
 30
0.0
 10
107.3529649522569
 20
173.6269558376736
 30
0.0
 10
101.8714735243055
 20
185.1094590928818
 30
0.0
 10
97.35977647569445
 20
195.617689344618
 30
0.0
 10
94.16548394097219
 20
207.1721950954861
 30
0.0
 10
90.76448567708334
 20
219.4710137261285
 30
0.0
 10
88.85710856119791
 20
232.9575290256076
 30
0.0
 10
88.85710856119791
 20
250.0651841905381
 30
0.0
 10
88.85710856119791
 20
254.495576985677
 30
0.0
 10
88.85710856119791
 20
263.7220594618056
 30
0.0
 10
88.85710856119791
 20
267.0908460828993
 30
0.0
 10
88.85710856119791
 20
270.4594604492188
 30
0.0
 10
88.85710856119791
 20
283.1394788953992
 30
0.0
 10
88.85710856119791
 20
289.9783379448784
 30
0.0
  0
SPLINE
  5
30
330
A
100
AcDbEntity
  8
3
 62
     7
100
AcDbSpline
210
0.0
220
0.0
230
1.0
 70
     8
 71
     3
 72
    32
 73
    28
 74
     0
 42
0.0000000001
 43
0.0000000001
 40
0.0
 40
0.0
 40
0.0
 40
0.0
 40
1.0
 40
1.0
 40
1.0
 40
2.0
 40
2.0
 40
2.0
 40
3.0
 40
3.0
 40
3.0
 40
4.0
 40
4.0
 40
4.0
 40
5.0
 40
5.0
 40
5.0
 40
6.0
 40
6.0
 40
6.0
 40
7.0
 40
7.0
 40
7.0
 40
8.0
 40
8.0
 40
8.0
 40
9.0
 40
9.0
 40
9.0
 40
9.0
 10
179.1856174045139
 20
29.57786729600695
 30
0.0
 10
179.1856174045139
 20
29.57786729600695
 30
0.0
 10
136.5094970703125
 20
29.57786729600695
 30
0.0
 10
136.5094970703125
 20
29.57786729600695
 30
0.0
 10
136.5094970703125
 20
29.57786729600695
 30
0.0
 10
136.5094970703125
 20
72.97849121093747
 30
0.0
 10
136.5094970703125
 20
72.97849121093747
 30
0.0
 10
136.5094970703125
 20
72.97849121093747
 30
0.0
 10
117.1094753689235
 20
72.97849121093747
 30
0.0
 10
117.1094753689235
 20
72.97849121093747
 30
0.0
 10
117.1094753689235
 20
72.97849121093747
 30
0.0
 10
117.1094753689235
 20
137.6029703776041
 30
0.0
 10
117.1094753689235
 20
137.6029703776041
 30
0.0
 10
117.1094753689235
 20
137.6029703776041
 30
0.0
 10
116.769788953993
 20
138.1235243055555
 30
0.0
 10
116.769788953993
 20
138.1235243055555
 30
0.0
 10
114.0926052517361
 20
142.3348090277777
 30
0.0
 10
105.6118136935763
 20
161.0082600911458
 30
0.0
 10
99.46145697699652
 20
175.1899956597221
 30
0.0
 10
93.31213378906248
 20
189.3710422092014
 30
0.0
 10
88.85710856119791
 20
205.9185248480903
 30
0.0
 10
88.85710856119791
 20
219.9776150173611
 30
0.0
 10
88.85710856119791
 20
224.612646484375
 30
0.0
 10
88.85710856119791
 20
240.8993353949651
 30
0.0
 10
88.85710856119791
 20
250.0651841905381
 30
0.0
 10
88.85710856119791
 20
250.0651841905381
 30
0.0
 10
88.85710856119791
 20
289.9783379448784
 30
0.0
 10
88.85710856119791
 20
289.9783379448784
 30
0.0
  0
SPLINE
  5
2E
330
A
100
AcDbEntity
  8
2
 62
     7
100
AcDbSpline
210
0.0
220
0.0
230
1.0
 70
     8
 71
     3
 72
    32
 73
    28
 74
     0
 42
0.0000000001
 43
0.0000000001
 40
0.0
 40
0.0
 40
0.0
 40
0.0
 40
1.0
 40
1.0
 40
1.0
 40
2.0
 40
2.0
 40
2.0
 40
3.0
 40
3.0
 40
3.0
 40
4.0
 40
4.0
 40
4.0
 40
5.0
 40
5.0
 40
5.0
 40
6.0
 40
6.0
 40
6.0
 40
7.0
 40
7.0
 40
7.0
 40
8.0
 40
8.0
 40
8.0
 40
9.0
 40
9.0
 40
9.0
 40
9.0
 10
88.85710856119791
 20
289.9783379448784
 30
0.0
 10
88.85710856119791
 20
289.9783379448784
 30
0.0
 10
88.85710856119791
 20
250.0651841905381
 30
0.0
 10
88.85710856119791
 20
250.0651841905381
 30
0.0
 10
88.85710856119791
 20
240.8993353949651
 30
0.0
 10
88.85710856119791
 20
224.612646484375
 30
0.0
 10
88.85710856119791
 20
219.9776150173611
 30
0.0
 10
88.85710856119791
 20
205.9185248480903
 30
0.0
 10
93.31213378906248
 20
189.3710422092014
 30
0.0
 10
99.46145697699652
 20
175.1899956597221
 30
0.0
 10
100.8482801649305
 20
171.9908799913194
 30
0.0
 10
102.3686008029514
 20
168.5227023654514
 30
0.0
 10
103.8999457465277
 20
165.0838080512153
 30
0.0
 10
103.8999457465277
 20
165.0838080512153
 30
0.0
 10
103.9952026367187
 20
164.8795138888889
 30
0.0
 10
103.9952026367187
 20
164.8795138888889
 30
0.0
 10
103.9952026367187
 20
164.8795138888889
 30
0.0
 10
104.0093275282118
 20
72.97849121093747
 30
0.0
 10
104.0093275282118
 20
72.97849121093747
 30
0.0
 10
104.0093275282118
 20
72.97849121093747
 30
0.0
 10
136.5094970703125
 20
72.97849121093747
 30
0.0
 10
136.5094970703125
 20
72.97849121093747
 30
0.0
 10
136.5094970703125
 20
72.97849121093747
 30
0.0
 10
136.5094970703125
 20
29.57786729600695
 30
0.0
 10
136.5094970703125
 20
29.57786729600695
 30
0.0
 10
136.5094970703125
 20
29.57786729600695
 30
0.0
 10
179.1856174045139
 20
29.57786729600695
 30
0.0
 10
179.1856174045139
 20
29.57786729600695
 30
0.0
  0
SPLINE
  5
2C
330
A
100
AcDbEntity
  8
1
 62
     7
100
AcDbSpline
210
0.0
220
0.0
230
1.0
 70
     8
 71
     3
 72
    29
 73
    25
 74
     0
 42
0.0000000001
 43
0.0000000001
 40
0.0
 40
0.0
 40
0.0
 40
0.0
 40
1.0
 40
1.0
 40
1.0
 40
2.0
 40
2.0
 40
2.0
 40
3.0
 40
3.0
 40
3.0
 40
4.0
 40
4.0
 40
4.0
 40
5.0
 40
5.0
 40
5.0
 40
6.0
 40
6.0
 40
6.0
 40
7.0
 40
7.0
 40
7.0
 40
8.0
 40
8.0
 40
8.0
 40
8.0
 10
88.85710856119791
 20
289.9783379448784
 30
0.0
 10
88.85710856119791
 20
289.9783379448784
 30
0.0
 10
88.85710856119791
 20
219.9776150173611
 30
0.0
 10
88.85710856119791
 20
219.9776150173611
 30
0.0
 10
88.85710856119791
 20
204.4760633680556
 30
0.0
 10
88.84556749131943
 20
189.0966403537326
 30
0.0
 10
99.49452989366321
 20
161.6635172526041
 30
0.0
 10
99.49452989366321
 20
161.6635172526041
 30
0.0
 10
101.308544921875
 20
157.2646470811632
 30
0.0
 10
103.2193671332465
 20
154.6348334418403
 30
0.0
 10
103.4505330403646
 20
154.3166788736979
 30
0.0
 10
104.0093275282118
 20
153.6615939670139
 30
0.0
 10
104.0093275282118
 20
153.6615939670139
 30
0.0
 10
104.0093275282118
 20
153.6615939670139
 30
0.0
 10
104.0093275282118
 20
72.97849121093747
 30
0.0
 10
104.0093275282118
 20
72.97849121093747
 30
0.0
 10
104.0093275282118
 20
72.97849121093747
 30
0.0
 10
136.5094970703125
 20
72.97849121093747
 30
0.0
 10
136.5094970703125
 20
72.97849121093747
 30
0.0
 10
136.5094970703125
 20
72.97849121093747
 30
0.0
 10
136.5094970703125
 20
29.57786729600695
 30
0.0
 10
136.5094970703125
 20
29.57786729600695
 30
0.0
 10
136.5094970703125
 20
29.57786729600695
 30
0.0
 10
179.1856174045139
 20
29.57786729600695
 30
0.0
 10
179.1856174045139
 20
29.57786729600695
 30
0.0
  0
TEXT
  5
D9
330
A
100
AcDbEntity
  8
レイヤー_5
  6
Continuous
 62
     7
370
     0
100
AcDbText
 10
154.883569
 20
279.33661
 30
0.0
 40
2.444193999999999
  1
1000A
 41
0.8
  7
STD
100
AcDbText
  0
TEXT
  5
DC
330
A
100
AcDbEntity
  8
レイヤー_5
  6
Continuous
 62
     7
370
     0
100
AcDbText
 10
157.3608781195188
 20
271.190854
 30
0.0
 40
2.444193999999999
  1
S1250-NE, S1250-GE, S1600-NE
 41
0.8
  7
STD
100
AcDbText
  0
ENDSEC
  0
SECTION
  2
OBJECTS
  0
DICTIONARY
  5
19
330
0
100
AcDbDictionary
281
     1
  3
ACAD_COLOR
350
45
  3
ACAD_GROUP
350
1A
  3
ACAD_LAYOUT
350
1E
  3
ACAD_MATERIAL
350
44
  3
ACAD_MLINESTYLE
350
1B
  3
ACAD_PLOTSETTINGS
350
22
  3
ACAD_PLOTSTYLENAME
350
1F
  3
ACAD_TABLESTYLE
350
46
  3
ACAD_WIPEOUT_VARS
350
23
  3
ACDBHEADERROUNDTRIPXREC
350
EE
  3
AcDbVariableDictionary
350
DD
  0
DICTIONARY
  5
DA
330
A
100
AcDbDictionary
280
     1
281
     1
  3
ACAD_SORTENTS
360
DB
  0
DICTIONARY
  5
45
102
{ACAD_REACTORS
330
19
102
}
330
19
100
AcDbDictionary
281
     1
  0
DICTIONARY
  5
1A
102
{ACAD_REACTORS
330
19
102
}
330
19
100
AcDbDictionary
281
     1
  0
DICTIONARY
  5
1E
102
{ACAD_REACTORS
330
19
102
}
330
19
100
AcDbDictionary
281
     1
  3
Layout1
350
21
  3
Model
350
20
  0
DICTIONARY
  5
44
102
{ACAD_REACTORS
330
19
102
}
330
19
100
AcDbDictionary
281
     1
  0
DICTIONARY
  5
1B
102
{ACAD_REACTORS
330
19
102
}
330
19
100
AcDbDictionary
281
     1
  3
Standard
350
1C
  0
DICTIONARY
  5
22
102
{ACAD_REACTORS
330
19
102
}
330
19
100
AcDbDictionary
281
     1
  0
ACDBDICTIONARYWDFLT
  5
1F
102
{ACAD_REACTORS
330
19
102
}
330
19
100
AcDbDictionary
281
     1
  3
Normal
350
1D
100
AcDbDictionaryWithDefault
340
1D
  0
DICTIONARY
  5
46
102
{ACAD_REACTORS
330
19
102
}
330
19
100
AcDbDictionary
281
     1
  3
Standard
350
47
  0
WIPEOUTVARIABLES
  5
23
330
19
100
AcDbWipeoutVariables
 70
     1
  0
DICTIONARY
  5
EE
102
{ACAD_REACTORS
330
19
102
}
330
19
100
AcDbDictionary
281
     1
  0
DICTIONARY
  5
DD
102
{ACAD_REACTORS
330
19
102
}
330
19
100
AcDbDictionary
281
     1
  3
CTABLESTYLE
350
DE
  3
DIMASSOC
350
DF
  3
PROJECTNAME
350
E0
  0
SORTENTSTABLE
  5
DB
102
{ACAD_REACTORS
330
DA
102
}
330
DA
100
AcDbSortentsTable
330
A
331
41
  5
D9
331
3E
  5
40
331
3C
  5
3E
331
3A
  5
3C
331
D9
  5
2A
331
38
  5
3B
331
36
  5
3A
331
34
  5
38
331
32
  5
36
331
30
  5
34
331
2E
  5
32
331
3F
  5
41
331
40
  5
D5
331
3D
  5
3F
331
2C
  5
30
331
3B
  5
3D
331
DC
  5
2E
  0
LAYOUT
  5
21
102
{ACAD_XDICTIONARY
360
F1
102
}
102
{ACAD_REACTORS
330
1E
102
}
330
1E
100
AcDbPlotSettings
  1

  2

  4

  6

 40
0.0
 41
0.0
 42
0.0
 43
0.0
 44
0.0
 45
0.0
 46
0.0
 47
0.0
 48
0.0
 49
0.0
140
0.0
141
0.0
142
1.0
143
1.0
 70
     0
 72
     0
 73
     0
 74
     0
  7

 75
     0
147
1.0
148
0.0
149
0.0
100
AcDbLayout
  1
Layout1
 70
     0
 71
     1
 10
0.0
 20
0.0
 11
12.0
 21
9.0
 12
0.0
 22
0.0
 32
0.0
 14
1.000000000000000E+20
 24
1.000000000000000E+20
 34
1.000000000000000E+20
 15
-1.000000000000000E+20
 25
-1.000000000000000E+20
 35
-1.000000000000000E+20
146
0.0
 13
0.0
 23
0.0
 33
0.0
 16
1.0
 26
0.0
 36
0.0
 17
0.0
 27
1.0
 37
0.0
 76
     0
330
B
  0
LAYOUT
  5
20
102
{ACAD_XDICTIONARY
360
EF
102
}
102
{ACAD_REACTORS
330
1E
102
}
330
1E
100
AcDbPlotSettings
  1

  2

  4

  6

 40
0.0
 41
0.0
 42
0.0
 43
0.0
 44
0.0
 45
0.0
 46
0.0
 47
0.0
 48
0.0
 49
0.0
140
0.0
141
0.0
142
1.0
143
1.0
 70
  1024
 72
     0
 73
     0
 74
     0
  7

 75
     0
147
1.0
148
0.0
149
0.0
100
AcDbLayout
  1
Model
 70
     0
 71
     0
 10
0.0
 20
0.0
 11
0.0
 21
0.0
 12
0.0
 22
0.0
 32
0.0
 14
0.0
 24
0.0
 34
0.0
 15
0.0
 25
0.0
 35
0.0
146
0.0
 13
0.0
 23
0.0
 33
0.0
 16
0.0
 26
0.0
 36
0.0
 17
0.0
 27
0.0
 37
0.0
 76
     0
330
A
  0
MLINESTYLE
  5
1C
102
{ACAD_REACTORS
330
1B
102
}
330
1B
100
AcDbMlineStyle
  2
STANDARD
 70
     0
  3

 62
     0
 51
90.0
 52
90.0
 71
     2
 49
0.5
 62
   256
  6
BYLAYER
 49
-0.5
 62
   256
  6
BYLAYER
  0
ACDBPLACEHOLDER
  5
1D
102
{ACAD_REACTORS
330
1F
102
}
330
1F
  0
TABLESTYLE
  5
47
102
{ACAD_REACTORS
330
46
102
}
330
46
100
AcDbTableStyle
  3
Standard
 70
     0
 71
     0
 40
0.06
 41
0.06
280
     0
281
     0
  7
Standard
140
0.18
170
     2
 62
     0
 63
     7
283
     0
274
    -2
284
     1
 64
     0
275
    -2
285
     1
 65
     0
276
    -2
286
     1
 66
     0
277
    -2
287
     1
 67
     0
278
    -2
288
     1
 68
     0
279
    -2
289
     1
 69
     0
  7
Standard
140
0.25
170
     5
 62
     0
 63
     7
283
     0
274
    -2
284
     1
 64
     0
275
    -2
285
     1
 65
     0
276
    -2
286
     1
 66
     0
277
    -2
287
     1
 67
     0
278
    -2
288
     1
 68
     0
279
    -2
289
     1
 69
     0
  7
Standard
140
0.18
170
     5
 62
     0
 63
     7
283
     0
274
    -2
284
     1
 64
     0
275
    -2
285
     1
 65
     0
276
    -2
286
     1
 66
     0
277
    -2
287
     1
 67
     0
278
    -2
288
     1
 68
     0
279
    -2
289
     1
 69
     0
  0
DICTIONARYVAR
  5
DE
102
{ACAD_REACTORS
330
DD
102
}
330
DD
100
DictionaryVariables
280
     0
  1
STANDARD
  0
DICTIONARYVAR
  5
DF
102
{ACAD_REACTORS
330
DD
102
}
330
DD
100
DictionaryVariables
280
     0
  1
1
  0
DICTIONARYVAR
  5
E0
102
{ACAD_REACTORS
330
DD
102
}
330
DD
100
DictionaryVariables
280
     0
  1

  0
DICTIONARY
  5
F1
330
21
100
AcDbDictionary
280
     1
281
     1
  3
ACAD_XREC_ROUNDTRIP
360
F2
  0
DICTIONARY
  5
EF
330
20
100
AcDbDictionary
280
     1
281
     1
  3
ACAD_XREC_ROUNDTRIP
360
F0
  0
XRECORD
  5
F2
102
{ACAD_REACTORS
330
F1
102
}
330
F1
100
AcDbXrecord
280
     1
102
SHADEPLOT
 70
     0
102
SHADEPLOTRESLEVEL
 70
     2
102
SHADEPLOTCUSTOMDPI
 70
   300
  0
XRECORD
  5
F0
102
{ACAD_REACTORS
330
EF
102
}
330
EF
100
AcDbXrecord
280
     1
102
SHADEPLOT
 70
     0
102
SHADEPLOTRESLEVEL
 70
     2
102
SHADEPLOTCUSTOMDPI
 70
   300
  0
ENDSEC
  0
EOF
