  0
SECTION
  2
HEADER
  9
$ACADVER
  1
AC1015
  9
$ACADMAINTVER
 70
    10
  9
$DWGCODEPAGE
  3
ANSI_932
  9
$INSBASE
 10
0.0
 20
0.0
 30
0.0
  9
$EXTMIN
 10
9.828533511876969
 20
14.7748299419876
 30
-0.0000000000000058
  9
$EXTMAX
 10
214.9573251838394
 20
289.9866974585687
 30
0.0000000000000104
  9
$LIMMIN
 10
9.837987
 20
-10.590568
  9
$LIMMAX
 10
216.4009169999999
 20
309.4953209999999
  9
$ORTHOMODE
 70
     1
  9
$REGENMODE
 70
     1
  9
$FILLMODE
 70
     1
  9
$QTEXTMODE
 70
     0
  9
$MIRRTEXT
 70
     1
  9
$LTSCALE
 40
1.0
  9
$ATTMODE
 70
     1
  9
$TEXTSIZE
 40
0.0
  9
$TRACEWID
 40
0.05
  9
$TEXTSTYLE
  7
KANJISTD
  9
$CLAYER
  8
0
  9
$CELTYPE
  6
Continuous
  9
$CECOLOR
 62
   256
  9
$CELTSCALE
 40
1.0
  9
$DISPSILH
 70
     0
  9
$DIMSCALE
 40
1.0
  9
$DIMASZ
 40
0.18
  9
$DIMEXO
 40
0.0625
  9
$DIMDLI
 40
0.38
  9
$DIMRND
 40
0.0
  9
$DIMDLE
 40
0.0
  9
$DIMEXE
 40
0.18
  9
$DIMTP
 40
0.0
  9
$DIMTM
 40
0.0
  9
$DIMTXT
 40
0.18
  9
$DIMCEN
 40
0.09
  9
$DIMTSZ
 40
0.0
  9
$DIMTOL
 70
     0
  9
$DIMLIM
 70
     0
  9
$DIMTIH
 70
     1
  9
$DIMTOH
 70
     1
  9
$DIMSE1
 70
     0
  9
$DIMSE2
 70
     0
  9
$DIMTAD
 70
     0
  9
$DIMZIN
 70
     0
  9
$DIMBLK
  1

  9
$DIMASO
 70
     1
  9
$DIMSHO
 70
     1
  9
$DIMPOST
  1

  9
$DIMAPOST
  1

  9
$DIMALT
 70
     0
  9
$DIMALTD
 70
     2
  9
$DIMALTF
 40
25.4
  9
$DIMLFAC
 40
1.0
  9
$DIMTOFL
 70
     0
  9
$DIMTVP
 40
0.0
  9
$DIMTIX
 70
     0
  9
$DIMSOXD
 70
     0
  9
$DIMSAH
 70
     0
  9
$DIMBLK1
  1

  9
$DIMBLK2
  1

  9
$DIMSTYLE
  2
Standard
  9
$DIMCLRD
 70
     0
  9
$DIMCLRE
 70
     0
  9
$DIMCLRT
 70
     0
  9
$DIMTFAC
 40
1.0
  9
$DIMGAP
 40
0.09
  9
$DIMJUST
 70
     0
  9
$DIMSD1
 70
     0
  9
$DIMSD2
 70
     0
  9
$DIMTOLJ
 70
     1
  9
$DIMTZIN
 70
     0
  9
$DIMALTZ
 70
     0
  9
$DIMALTTZ
 70
     0
  9
$DIMUPT
 70
     0
  9
$DIMDEC
 70
     4
  9
$DIMTDEC
 70
     4
  9
$DIMALTU
 70
     2
  9
$DIMALTTD
 70
     2
  9
$DIMTXSTY
  7
Standard
  9
$DIMAUNIT
 70
     0
  9
$DIMADEC
 70
     0
  9
$DIMALTRND
 40
0.0
  9
$DIMAZIN
 70
     0
  9
$DIMDSEP
 70
     0
  9
$DIMATFIT
 70
     3
  9
$DIMFRAC
 70
     0
  9
$DIMLDRBLK
  1

  9
$DIMLUNIT
 70
     2
  9
$DIMLWD
 70
     0
  9
$DIMLWE
 70
     0
  9
$DIMTMOVE
 70
     0
  9
$LUNITS
 70
     2
  9
$LUPREC
 70
     4
  9
$SKETCHINC
 40
0.1
  9
$FILLETRAD
 40
0.0
  9
$AUNITS
 70
     0
  9
$AUPREC
 70
     0
  9
$MENU
  1
acad
  9
$ELEVATION
 40
0.0
  9
$PELEVATION
 40
0.0
  9
$THICKNESS
 40
0.0
  9
$LIMCHECK
 70
     0
  9
$CHAMFERA
 40
0.0
  9
$CHAMFERB
 40
0.0
  9
$CHAMFERC
 40
0.0
  9
$CHAMFERD
 40
0.0
  9
$SKPOLY
 70
     0
  9
$TDCREATE
 40
2454657.712049143
  9
$TDUCREATE
 40
2454657.337049143
  9
$TDUPDATE
 40
2454882.548034571
  9
$TDUUPDATE
 40
2454882.173034571
  9
$TDINDWG
 40
0.0161226968
  9
$TDUSRTIMER
 40
0.0161198032
  9
$USRTIMER
 70
     1
  9
$ANGBASE
 50
0.0
  9
$ANGDIR
 70
     0
  9
$PDMODE
 70
     0
  9
$PDSIZE
 40
0.0
  9
$PLINEWID
 40
0.0
  9
$SPLFRAME
 70
     0
  9
$SPLINETYPE
 70
     6
  9
$SPLINESEGS
 70
     8
  9
$HANDSEED
  5
27B
  9
$SURFTAB1
 70
     6
  9
$SURFTAB2
 70
     6
  9
$SURFTYPE
 70
     6
  9
$SURFU
 70
     6
  9
$SURFV
 70
     6
  9
$UCSBASE
  2

  9
$UCSNAME
  2

  9
$UCSORG
 10
0.0
 20
0.0
 30
0.0
  9
$UCSXDIR
 10
1.0
 20
0.0
 30
0.0
  9
$UCSYDIR
 10
0.0
 20
1.0
 30
0.0
  9
$UCSORTHOREF
  2

  9
$UCSORTHOVIEW
 70
     0
  9
$UCSORGTOP
 10
0.0
 20
0.0
 30
0.0
  9
$UCSORGBOTTOM
 10
0.0
 20
0.0
 30
0.0
  9
$UCSORGLEFT
 10
0.0
 20
0.0
 30
0.0
  9
$UCSORGRIGHT
 10
0.0
 20
0.0
 30
0.0
  9
$UCSORGFRONT
 10
0.0
 20
0.0
 30
0.0
  9
$UCSORGBACK
 10
0.0
 20
0.0
 30
0.0
  9
$PUCSBASE
  2

  9
$PUCSNAME
  2

  9
$PUCSORG
 10
0.0
 20
0.0
 30
0.0
  9
$PUCSXDIR
 10
1.0
 20
0.0
 30
0.0
  9
$PUCSYDIR
 10
0.0
 20
1.0
 30
0.0
  9
$PUCSORTHOREF
  2

  9
$PUCSORTHOVIEW
 70
     0
  9
$PUCSORGTOP
 10
0.0
 20
0.0
 30
0.0
  9
$PUCSORGBOTTOM
 10
0.0
 20
0.0
 30
0.0
  9
$PUCSORGLEFT
 10
0.0
 20
0.0
 30
0.0
  9
$PUCSORGRIGHT
 10
0.0
 20
0.0
 30
0.0
  9
$PUCSORGFRONT
 10
0.0
 20
0.0
 30
0.0
  9
$PUCSORGBACK
 10
0.0
 20
0.0
 30
0.0
  9
$USERI1
 70
     0
  9
$USERI2
 70
     0
  9
$USERI3
 70
     0
  9
$USERI4
 70
     0
  9
$USERI5
 70
     0
  9
$USERR1
 40
0.0
  9
$USERR2
 40
0.0
  9
$USERR3
 40
0.0
  9
$USERR4
 40
0.0
  9
$USERR5
 40
0.0
  9
$WORLDVIEW
 70
     1
  9
$SHADEDGE
 70
     3
  9
$SHADEDIF
 70
    70
  9
$TILEMODE
 70
     1
  9
$MAXACTVP
 70
    16
  9
$PINSBASE
 10
0.0
 20
0.0
 30
0.0
  9
$PLIMCHECK
 70
     0
  9
$PEXTMIN
 10
1.000000000000000E+20
 20
1.000000000000000E+20
 30
1.000000000000000E+20
  9
$PEXTMAX
 10
-1.000000000000000E+20
 20
-1.000000000000000E+20
 30
-1.000000000000000E+20
  9
$PLIMMIN
 10
0.0
 20
0.0
  9
$PLIMMAX
 10
12.0
 20
9.0
  9
$UNITMODE
 70
     0
  9
$VISRETAIN
 70
     0
  9
$PLINEGEN
 70
     1
  9
$PSLTSCALE
 70
     0
  9
$TREEDEPTH
 70
  3020
  9
$CMLSTYLE
  2
Standard
  9
$CMLJUST
 70
     0
  9
$CMLSCALE
 40
1.0
  9
$PROXYGRAPHICS
 70
     0
  9
$MEASUREMENT
 70
     0
  9
$CELWEIGHT
370
     0
  9
$ENDCAPS
280
     0
  9
$JOINSTYLE
280
     0
  9
$LWDISPLAY
290
     0
  9
$INSUNITS
 70
     0
  9
$HYPERLINKBASE
  1

  9
$STYLESHEET
  1

  9
$XEDIT
290
     1
  9
$CEPSNTYPE
380
     0
  9
$PSTYLEMODE
290
     1
  9
$FINGERPRINTGUID
  2

  9
$VERSIONGUID
  2
{18F5459D-4FF4-4F18-87A2-B9A7918F44DF}
  9
$EXTNAMES
290
     1
  9
$PSVPSCALE
 40
0.0
  9
$OLESTARTUP
290
     0
  0
ENDSEC
  0
SECTION
  2
CLASSES
  0
CLASS
  1
IMAGE
  2
AcDbRasterImage
  3
ISM
 90
    32895
280
     0
281
     1
  0
CLASS
  1
DICTIONARYVAR
  2
AcDbDictionaryVar
  3
AutoCAD 2000
 90
        0
280
     0
281
     0
  0
CLASS
  1
RASTERVARIABLES
  2
AcDbRasterVariables
  3
ISM
 90
    32768
280
     0
281
     0
  0
CLASS
  1
IMAGEDEF
  2
AcDbRasterImageDef
  3
ISM
 90
    32768
280
     0
281
     0
  0
CLASS
  1
IMAGEDEF_REACTOR
  2
AcDbRasterImageDefReactor
  3
ISM
 90
    32769
280
     0
281
     0
  0
CLASS
  1
IDBUFFER
  2
AcDbIdBuffer
  3
AutoCAD 2000
 90
    32768
280
     0
281
     0
  0
CLASS
  1
SPATIAL_FILTER
  2
AcDbSpatialFilter
  3
AutoCAD 2000
 90
    32768
280
     0
281
     0
  0
CLASS
  1
SORTENTSTABLE
  2
AcDbSortentsTable
  3
AutoCAD 2000
 90
        0
280
     0
281
     0
  0
CLASS
  1
LAYER_INDEX
  2
AcDbLayerIndex
  3
AutoCAD 2000
 90
    32768
280
     0
281
     0
  0
CLASS
  1
SPATIAL_INDEX
  2
AcDbSpatialIndex
  3
AutoCAD 2000
 90
    32768
280
     0
281
     0
  0
CLASS
  1
OBJECT_PTR
  2
CAseDLPNTableRecord
  3
"ASE-LPNTableRecord"
 90
    32769
280
     0
281
     0
  0
CLASS
  1
LAYOUT
  2
AcDbLayout
  3
AutoCAD 2000
 90
        0
280
     0
281
     0
  0
CLASS
  1
PLOTSETTINGS
  2
AcDbPlotSettings
  3
AutoCAD 2000
 90
    32768
280
     0
281
     0
  0
CLASS
  1
ACDBDICTIONARYWDFLT
  2
AcDbDictionaryWithDefault
  3
AutoCAD 2000
 90
        0
280
     0
281
     0
  0
CLASS
  1
ACDBPLACEHOLDER
  2
AcDbPlaceHolder
  3
AutoCAD 2000
 90
        0
280
     0
281
     0
  0
CLASS
  1
VBA_PROJECT
  2
AcDbVbaProject
  3
acad
 90
    32768
280
     0
281
     0
  0
CLASS
  1
WIPEOUT
  2
AcDbWipeout
  3
"WipeOut|Product Desc: Object Enabler for WipeOut entity^I^I^I^I^I^I|Company: Autodesk, Inc.^I^I^I^I^I^I|WEB Address: www.autodesk.com"
 90
    32895
280
     0
281
     1
  0
CLASS
  1
WIPEOUTVARIABLES
  2
AcDbWipeoutVariables
  3
"WipeOut|Product Desc:     WipeOut Dbx Application|Company:          Autodesk, Inc.|WEB Address:      www.autodesk.com"
 90
        0
280
     0
281
     0
  0
CLASS
  1
RTEXT
  2
RText
  3
RText|AutoCAD Express Tool|expresstools@autodesk.com
 90
    32768
280
     0
281
     1
  0
CLASS
  1
ARCALIGNEDTEXT
  2
AcDbArcAlignedText
  3
ATEXT|AutoCAD Express Tool|expresstools@autodesk.com
 90
    32768
280
     0
281
     1
  0
CLASS
  1
TABLESTYLE
  2
AcDbTableStyle
  3
ObjectDBX Classes
 90
     2047
280
     0
281
     0
  0
ENDSEC
  0
SECTION
  2
TABLES
  0
TABLE
  2
VPORT
  5
7
330
0
100
AcDbSymbolTable
 70
     2
  0
VPORT
  5
259
330
7
100
AcDbSymbolTableRecord
100
AcDbViewportTableRecord
  2
*Active
 70
     0
 10
0.0
 20
0.0
 11
1.0
 21
1.0
 12
112.3929293478582
 22
152.3807637002782
 13
0.0
 23
0.0
 14
1.0
 24
1.0
 15
0.0
 25
0.0
 16
0.0
 26
0.0
 36
1.0
 17
0.0
 27
0.0
 37
0.0
 40
277.3845927864489
 41
1.2832674571805
 42
50.0
 43
0.0
 44
0.0
 50
0.0
 51
0.0
 71
     0
 72
   100
 73
     1
 74
     1
 75
     0
 76
     0
 77
     0
 78
     0
281
     0
 65
     0
110
0.0
120
0.0
130
0.0
111
1.0
121
0.0
131
0.0
112
0.0
122
1.0
132
0.0
 79
     0
146
0.0
  0
ENDTAB
  0
TABLE
  2
LTYPE
  5
4
330
0
100
AcDbSymbolTable
 70
     1
  0
LTYPE
  5
11
330
4
100
AcDbSymbolTableRecord
100
AcDbLinetypeTableRecord
  2
ByBlock
 70
     0
  3

 72
    65
 73
     0
 40
0.0
  0
LTYPE
  5
12
330
4
100
AcDbSymbolTableRecord
100
AcDbLinetypeTableRecord
  2
ByLayer
 70
     0
  3

 72
    65
 73
     0
 40
0.0
  0
LTYPE
  5
13
330
4
100
AcDbSymbolTableRecord
100
AcDbLinetypeTableRecord
  2
Continuous
 70
     0
  3
Solid line
 72
    65
 73
     0
 40
0.0
  0
ENDTAB
  0
TABLE
  2
LAYER
  5
2
330
0
100
AcDbSymbolTable
 70
     6
  0
LAYER
  5
14
330
2
100
AcDbSymbolTableRecord
100
AcDbLayerTableRecord
  2
0
 70
     0
 62
     7
  6
Continuous
370
    -3
390
1D
  0
LAYER
  5
28
330
2
100
AcDbSymbolTableRecord
100
AcDbLayerTableRecord
  2
レイヤー_5
 70
     0
 62
     2
  6
Continuous
370
    -3
390
1F
  0
LAYER
  5
2B
330
2
100
AcDbSymbolTableRecord
100
AcDbLayerTableRecord
  2
VPORT-BORDERS
 70
     0
 62
     5
  6
Continuous
370
    -3
390
1F
  0
LAYER
  5
18D
330
2
100
AcDbSymbolTableRecord
100
AcDbLayerTableRecord
  2
23
 70
     0
 62
     3
  6
Continuous
370
    -3
390
1D
  0
LAYER
  5
18E
330
2
100
AcDbSymbolTableRecord
100
AcDbLayerTableRecord
  2
24
 70
     0
 62
     1
  6
Continuous
370
    -3
390
1D
  0
LAYER
  5
18F
330
2
100
AcDbSymbolTableRecord
100
AcDbLayerTableRecord
  2
200
 70
     0
 62
     1
  6
Continuous
370
    -3
390
1D
  0
ENDTAB
  0
TABLE
  2
STYLE
  5
3
330
0
100
AcDbSymbolTable
 70
     3
  0
STYLE
  5
17
330
3
100
AcDbSymbolTableRecord
100
AcDbTextStyleTableRecord
  2
Standard
 70
     0
 40
0.0
 41
1.0
 50
0.0
 71
     0
 42
0.0
  3
txt
  4

  0
STYLE
  5
24
330
3
100
AcDbSymbolTableRecord
100
AcDbTextStyleTableRecord
  2
STD
 70
     0
 40
0.0
 41
1.0
 50
0.0
 71
     0
 42
0.0
  3
romans.shx
  4
bigfont.shx
  0
STYLE
  5
26
330
3
100
AcDbSymbolTableRecord
100
AcDbTextStyleTableRecord
  2
KANJISTD
 70
     0
 40
0.0
 41
0.8
 50
0.0
 71
     0
 42
0.0
  3
romans.shx
  4
extfont.shx
  0
ENDTAB
  0
TABLE
  2
VIEW
  5
5
330
0
100
AcDbSymbolTable
 70
     0
  0
ENDTAB
  0
TABLE
  2
UCS
  5
6
330
0
100
AcDbSymbolTable
 70
     0
  0
ENDTAB
  0
TABLE
  2
APPID
  5
8
330
0
100
AcDbSymbolTable
 70
     1
  0
APPID
  5
16
330
8
100
AcDbSymbolTableRecord
100
AcDbRegAppTableRecord
  2
ACAD
 70
     0
  0
ENDTAB
  0
TABLE
  2
DIMSTYLE
  5
9
330
0
100
AcDbSymbolTable
 70
     1
100
AcDbDimStyleTable
 71
     0
  0
DIMSTYLE
105
18
330
9
100
AcDbSymbolTableRecord
100
AcDbDimStyleTableRecord
  2
Standard
 70
     0
340
17
  0
ENDTAB
  0
TABLE
  2
BLOCK_RECORD
  5
1
330
0
100
AcDbSymbolTable
 70
     4
  0
BLOCK_RECORD
  5
A
102
{ACAD_XDICTIONARY
360
16C
102
}
330
1
100
AcDbSymbolTableRecord
100
AcDbBlockTableRecord
  2
*MODEL_SPACE
340
20
  0
BLOCK_RECORD
  5
B
330
1
100
AcDbSymbolTableRecord
100
AcDbBlockTableRecord
  2
*PAPER_SPACE
340
21
  0
BLOCK_RECORD
  5
2C
330
1
100
AcDbSymbolTableRecord
100
AcDbBlockTableRecord
  2
AI9-BLK1
340
0
102
{BLKREFS
331
2D
102
}
  0
BLOCK_RECORD
  5
37
330
1
100
AcDbSymbolTableRecord
100
AcDbBlockTableRecord
  2
AI9-BLK2
340
0
102
{BLKREFS
331
38
102
}
  0
BLOCK_RECORD
  5
42
330
1
100
AcDbSymbolTableRecord
100
AcDbBlockTableRecord
  2
AI9-BLK3
340
0
102
{BLKREFS
331
43
102
}
  0
BLOCK_RECORD
  5
190
330
1
100
AcDbSymbolTableRecord
100
AcDbBlockTableRecord
  2
A$C32550866
340
0
102
{BLKREFS
331
217
102
}
  0
ENDTAB
  0
ENDSEC
  0
SECTION
  2
BLOCKS
  0
BLOCK
  5
D
330
A
100
AcDbEntity
  8
0
100
AcDbBlockBegin
  2
*MODEL_SPACE
 70
     0
 10
0.0
 20
0.0
 30
0.0
  3
*MODEL_SPACE
  1

  0
ENDBLK
  5
E
330
A
100
AcDbEntity
  8
0
100
AcDbBlockEnd
  0
BLOCK
  5
F
330
B
100
AcDbEntity
 67
     1
  8
0
100
AcDbBlockBegin
  2
*PAPER_SPACE
 70
     0
 10
0.0
 20
0.0
 30
0.0
  3
*PAPER_SPACE
  1

  0
ENDBLK
  5
10
330
B
100
AcDbEntity
 67
     1
  8
0
100
AcDbBlockEnd
  0
BLOCK
  5
2E
330
2C
100
AcDbEntity
  8
VPORT-BORDERS
 62
     7
100
AcDbBlockBegin
  2
AI9-BLK1
 70
     0
 10
0.0
 20
0.0
 30
0.0
  3
AI9-BLK1
  1

  0
POLYLINE
  5
30
330
2C
100
AcDbEntity
  8
VPORT-BORDERS
 62
     7
100
AcDb2dPolyline
 66
     1
 10
0.0
 20
0.0
 30
0.0
 70
     1
  0
VERTEX
  5
31
330
30
100
AcDbEntity
  8
VPORT-BORDERS
 62
     7
100
AcDbVertex
100
AcDb2dVertex
 10
4.314981999999996
 20
-2.057755999999999
 30
0.0
  0
VERTEX
  5
32
330
30
100
AcDbEntity
  8
VPORT-BORDERS
 62
     7
100
AcDbVertex
100
AcDb2dVertex
 10
-4.314981999999996
 20
-2.057755999999999
 30
0.0
  0
VERTEX
  5
33
330
30
100
AcDbEntity
  8
VPORT-BORDERS
 62
     7
100
AcDbVertex
100
AcDb2dVertex
 10
-4.314981999999996
 20
2.057755999999999
 30
0.0
  0
VERTEX
  5
34
330
30
100
AcDbEntity
  8
VPORT-BORDERS
 62
     7
100
AcDbVertex
100
AcDb2dVertex
 10
4.314981999999996
 20
2.057755999999999
 30
0.0
  0
SEQEND
  5
35
330
30
100
AcDbEntity
  8
VPORT-BORDERS
 62
     7
  0
MTEXT
  5
2F
330
2C
100
AcDbEntity
  8
VPORT-BORDERS
 62
     7
100
AcDbMText
 10
-3.527778
 20
1.396657999999999
 30
0.0
 40
2.624835
 41
0.0
 71
     1
 72
     2
  1
\fGothicBBB Medium|b0|i0|c128;×10
  7
KANJISTD
 73
     1
 44
1.0
1001
ACAD
1000
MTEXTBEGIN
1070
    73
1070
     1
1070
    44
1040
1.0
1070
    74
1070
     0
1000
MTEXTEND
  0
ENDBLK
  5
36
330
2C
100
AcDbEntity
  8
VPORT-BORDERS
100
AcDbBlockEnd
  0
BLOCK
  5
39
330
37
100
AcDbEntity
  8
VPORT-BORDERS
 62
     7
100
AcDbBlockBegin
  2
AI9-BLK2
 70
     0
 10
0.0
 20
0.0
 30
0.0
  3
AI9-BLK2
  1

  0
POLYLINE
  5
3B
330
37
100
AcDbEntity
  8
VPORT-BORDERS
 62
     7
100
AcDb2dPolyline
 66
     1
 10
0.0
 20
0.0
 30
0.0
 70
     1
  0
VERTEX
  5
3C
330
3B
100
AcDbEntity
  8
VPORT-BORDERS
 62
     7
100
AcDbVertex
100
AcDb2dVertex
 10
3.498235999999999
 20
-2.057755999999999
 30
0.0
  0
VERTEX
  5
3D
330
3B
100
AcDbEntity
  8
VPORT-BORDERS
 62
     7
100
AcDbVertex
100
AcDb2dVertex
 10
-3.498235999999999
 20
-2.057755999999999
 30
0.0
  0
VERTEX
  5
3E
330
3B
100
AcDbEntity
  8
VPORT-BORDERS
 62
     7
100
AcDbVertex
100
AcDb2dVertex
 10
-3.498235999999999
 20
2.057755999999999
 30
0.0
  0
VERTEX
  5
3F
330
3B
100
AcDbEntity
  8
VPORT-BORDERS
 62
     7
100
AcDbVertex
100
AcDb2dVertex
 10
3.498235999999999
 20
2.057755999999999
 30
0.0
  0
SEQEND
  5
40
330
3B
100
AcDbEntity
  8
VPORT-BORDERS
 62
     7
  0
MTEXT
  5
3A
330
37
100
AcDbEntity
  8
VPORT-BORDERS
 62
     7
100
AcDbMText
 10
-2.645747
 20
1.396657999999999
 30
0.0
 40
2.624835
 41
0.0
 71
     1
 72
     2
  1
\fGothicBBB Medium|b0|i0|c128;×5
  7
KANJISTD
 73
     1
 44
1.0
1001
ACAD
1000
MTEXTBEGIN
1070
    73
1070
     1
1070
    44
1040
1.0
1070
    74
1070
     0
1000
MTEXTEND
  0
ENDBLK
  5
41
330
37
100
AcDbEntity
  8
VPORT-BORDERS
100
AcDbBlockEnd
  0
BLOCK
  5
44
330
42
100
AcDbEntity
  8
VPORT-BORDERS
 62
     7
100
AcDbBlockBegin
  2
AI9-BLK3
 70
     0
 10
0.0
 20
0.0
 30
0.0
  3
AI9-BLK3
  1

  0
LINE
  5
47
330
42
100
AcDbEntity
  8
VPORT-BORDERS
 62
     7
100
AcDbLine
 10
-6.418212999999997
 20
0.000345
 30
0.0
 11
6.418556999999997
 21
0.000345
 31
0.0
  0
HATCH
  5
46
330
42
100
AcDbEntity
  8
VPORT-BORDERS
 62
     7
100
AcDbHatch
 10
0.0
 20
0.0
 30
0.0
210
0.0
220
0.0
230
1.0
  2
SOLID
 70
     1
 71
     0
 91
        1
 92
        3
 72
     0
 73
     1
 93
        3
 10
-5.2306884765625
 20
-1.117244466145832
 10
-6.524321831597221
 20
0.0003445095486111
 10
-5.2306884765625
 20
1.117244466145832
 97
        0
 75
     0
 76
     1
 98
        1
 10
0.0
 20
0.0
  0
HATCH
  5
45
330
42
100
AcDbEntity
  8
VPORT-BORDERS
 62
     7
100
AcDbHatch
 10
0.0
 20
0.0
 30
0.0
210
0.0
220
0.0
230
1.0
  2
SOLID
 70
     1
 71
     0
 91
        1
 92
        3
 72
     0
 73
     1
 93
        3
 10
5.125268554687496
 20
-1.117244466145832
 10
6.41855740017361
 20
0.0003445095486111
 10
5.125268554687496
 20
1.117244466145832
 97
        0
 75
     0
 76
     1
 98
        1
 10
0.0
 20
0.0
  0
ENDBLK
  5
48
330
42
100
AcDbEntity
  8
VPORT-BORDERS
100
AcDbBlockEnd
  0
BLOCK
  5
215
330
190
100
AcDbEntity
  8
0
370
     0
100
AcDbBlockBegin
  2
A$C32550866
 70
     0
 10
0.0
 20
0.0
 30
0.0
  3
A$C32550866
  1

  0
TEXT
  5
191
330
190
100
AcDbEntity
  8
23
  6
Continuous
 62
     3
100
AcDbText
 10
43.3999349999998
 20
276.6340526666665
 30
0.0
 40
3.910714999999981
  1
Time/Current characteristic curves
 41
0.7
 11
43.3999349999998
 21
275.3304809999999
 31
0.0
100
AcDbText
 73
     1
  0
LINE
  5
192
330
190
100
AcDbEntity
  8
24
  6
Continuous
 62
     1
100
AcDbLine
 10
181.2428559999998
 20
0.0
 30
0.0
 11
0.0
 21
0.0
 31
0.0
  0
LINE
  5
193
330
190
100
AcDbEntity
  8
24
  6
Continuous
 62
     1
100
AcDbLine
 10
181.2428559999998
 20
13.06518099999999
 30
0.0
 11
0.0
 21
13.06518099999999
 31
0.0
  0
LINE
  5
194
330
190
100
AcDbEntity
  8
24
  6
Continuous
 62
     1
100
AcDbLine
 10
181.2428559999998
 20
20.707091
 30
0.0
 11
0.0
 21
20.707091
 31
0.0
  0
LINE
  5
195
330
190
100
AcDbEntity
  8
24
  6
Continuous
 62
     1
100
AcDbLine
 10
181.2428559999998
 20
26.12967199999999
 30
0.0
 11
0.0
 21
26.12967199999999
 31
0.0
  0
LINE
  5
196
330
190
100
AcDbEntity
  8
24
  6
Continuous
 62
     1
100
AcDbLine
 10
181.2428559999998
 20
30.33544399999999
 30
0.0
 11
0.0
 21
30.33544399999999
 31
0.0
  0
LINE
  5
197
330
190
100
AcDbEntity
  8
24
  6
Continuous
 62
     1
100
AcDbLine
 10
181.2428559999998
 20
33.77227199999999
 30
0.0
 11
0.0
 21
33.77227199999999
 31
0.0
  0
LINE
  5
198
330
190
100
AcDbEntity
  8
24
  6
Continuous
 62
     1
100
AcDbLine
 10
181.2428559999998
 20
39.194163
 30
0.0
 11
0.0
 21
39.194163
 31
0.0
  0
LINE
  5
199
330
190
100
AcDbEntity
  8
24
  6
Continuous
 62
     1
100
AcDbLine
 10
181.2428559999998
 20
43.40062399999996
 30
0.0
 11
0.0
 21
43.40062399999996
 31
0.0
  0
LINE
  5
19A
330
190
100
AcDbEntity
  8
24
  6
Continuous
 62
     1
100
AcDbLine
 10
181.2428559999998
 20
56.46511600000001
 30
0.0
 11
0.0
 21
56.46511600000001
 31
0.0
  0
LINE
  5
19B
330
190
100
AcDbEntity
  8
24
  6
Continuous
 62
     1
100
AcDbLine
 10
181.2428559999998
 20
64.107026
 30
0.0
 11
0.0
 21
64.107026
 31
0.0
  0
LINE
  5
19C
330
190
100
AcDbEntity
  8
24
  6
Continuous
 62
     1
100
AcDbLine
 10
181.2428559999998
 20
69.529607
 30
0.0
 11
0.0
 21
69.529607
 31
0.0
  0
LINE
  5
19D
330
190
100
AcDbEntity
  8
24
  6
Continuous
 62
     1
100
AcDbLine
 10
181.2428559999998
 20
73.73537899999991
 30
0.0
 11
0.0
 21
73.73537899999991
 31
0.0
  0
LINE
  5
19E
330
190
100
AcDbEntity
  8
24
  6
Continuous
 62
     1
100
AcDbLine
 10
181.2428559999998
 20
77.17220599999997
 30
0.0
 11
0.0
 21
77.17220599999997
 31
0.0
  0
LINE
  5
19F
330
190
100
AcDbEntity
  8
24
  6
Continuous
 62
     1
100
AcDbLine
 10
181.2428559999998
 20
82.594098
 30
0.0
 11
0.0
 21
82.594098
 31
0.0
  0
LINE
  5
1A0
330
190
100
AcDbEntity
  8
24
  6
Continuous
 62
     1
100
AcDbLine
 10
181.2428559999998
 20
86.80055899999997
 30
0.0
 11
0.0
 21
86.80055899999997
 31
0.0
  0
LINE
  5
1A1
330
190
100
AcDbEntity
  8
24
  6
Continuous
 62
     1
100
AcDbLine
 10
181.2428559999998
 20
99.8657389999999
 30
0.0
 11
0.0
 21
99.8657389999999
 31
0.0
  0
LINE
  5
1A2
330
190
100
AcDbEntity
  8
24
  6
Continuous
 62
     1
100
AcDbLine
 10
181.2428559999998
 20
107.5076499999999
 30
0.0
 11
0.0
 21
107.5076499999999
 31
0.0
  0
LINE
  5
1A3
330
190
100
AcDbEntity
  8
24
  6
Continuous
 62
     1
100
AcDbLine
 10
181.2428559999998
 20
112.9302309999999
 30
0.0
 11
0.0
 21
112.9302309999999
 31
0.0
  0
LINE
  5
1A4
330
190
100
AcDbEntity
  8
24
  6
Continuous
 62
     1
100
AcDbLine
 10
181.2428559999998
 20
117.1360029999999
 30
0.0
 11
0.0
 21
117.1360029999999
 31
0.0
  0
LINE
  5
1A5
330
190
100
AcDbEntity
  8
24
  6
Continuous
 62
     1
100
AcDbLine
 10
181.2428559999998
 20
120.5728299999998
 30
0.0
 11
0.0
 21
120.5728299999998
 31
0.0
  0
LINE
  5
1A6
330
190
100
AcDbEntity
  8
24
  6
Continuous
 62
     1
100
AcDbLine
 10
181.2428559999998
 20
125.9948939999999
 30
0.0
 11
0.0
 21
125.9948939999999
 31
0.0
  0
LINE
  5
1A7
330
190
100
AcDbEntity
  8
24
  6
Continuous
 62
     1
100
AcDbLine
 10
181.2428559999998
 20
130.2006659999997
 30
0.0
 11
0.0
 21
130.2006659999997
 31
0.0
  0
LINE
  5
1A8
330
190
100
AcDbEntity
  8
24
  6
Continuous
 62
     1
100
AcDbLine
 10
181.2428559999998
 20
143.265502
 30
0.0
 11
0.0
 21
143.265502
 31
0.0
  0
LINE
  5
1A9
330
190
100
AcDbEntity
  8
24
  6
Continuous
 62
     1
100
AcDbLine
 10
181.2428559999998
 20
150.907757
 30
0.0
 11
0.0
 21
150.907757
 31
0.0
  0
LINE
  5
1AA
330
190
100
AcDbEntity
  8
24
  6
Continuous
 62
     1
100
AcDbLine
 10
181.2428559999998
 20
156.329993
 30
0.0
 11
0.0
 21
156.329993
 31
0.0
  0
LINE
  5
1AB
330
190
100
AcDbEntity
  8
24
  6
Continuous
 62
     1
100
AcDbLine
 10
181.2428559999998
 20
160.53611
 30
0.0
 11
0.0
 21
160.53611
 31
0.0
  0
LINE
  5
1AC
330
190
100
AcDbEntity
  8
24
  6
Continuous
 62
     1
100
AcDbLine
 10
181.2428559999998
 20
163.9725929999999
 30
0.0
 11
0.0
 21
163.9725929999999
 31
0.0
  0
LINE
  5
1AD
330
190
100
AcDbEntity
  8
24
  6
Continuous
 62
     1
100
AcDbLine
 10
181.2428559999998
 20
169.3948289999999
 30
0.0
 11
0.0
 21
169.3948289999999
 31
0.0
  0
LINE
  5
1AE
330
190
100
AcDbEntity
  8
24
  6
Continuous
 62
     1
100
AcDbLine
 10
181.2428559999998
 20
173.6006009999999
 30
0.0
 11
0.0
 21
173.6006009999999
 31
0.0
  0
LINE
  5
1AF
330
190
100
AcDbEntity
  8
24
  6
Continuous
 62
     1
100
AcDbLine
 10
181.2428559999998
 20
186.6654369999999
 30
0.0
 11
0.0
 21
186.6654369999999
 31
0.0
  0
LINE
  5
1B0
330
190
100
AcDbEntity
  8
24
  6
Continuous
 62
     1
100
AcDbLine
 10
181.2428559999998
 20
194.3076919999999
 30
0.0
 11
0.0
 21
194.3076919999999
 31
0.0
  0
LINE
  5
1B1
330
190
100
AcDbEntity
  8
24
  6
Continuous
 62
     1
100
AcDbLine
 10
181.2428559999998
 20
199.730273
 30
0.0
 11
0.0
 21
199.730273
 31
0.0
  0
LINE
  5
1B2
330
190
100
AcDbEntity
  8
24
  6
Continuous
 62
     1
100
AcDbLine
 10
181.2428559999998
 20
203.9360449999999
 30
0.0
 11
0.0
 21
203.9360449999999
 31
0.0
  0
LINE
  5
1B3
330
190
100
AcDbEntity
  8
24
  6
Continuous
 62
     1
100
AcDbLine
 10
181.2428559999998
 20
207.3725279999999
 30
0.0
 11
0.0
 21
207.3725279999999
 31
0.0
  0
LINE
  5
1B4
330
190
100
AcDbEntity
  8
24
  6
Continuous
 62
     1
100
AcDbLine
 10
181.2428559999998
 20
212.7947639999999
 30
0.0
 11
0.0
 21
212.7947639999999
 31
0.0
  0
LINE
  5
1B5
330
190
100
AcDbEntity
  8
24
  6
Continuous
 62
     1
100
AcDbLine
 10
181.2428559999998
 20
217.0008809999999
 30
0.0
 11
0.0
 21
217.0008809999999
 31
0.0
  0
LINE
  5
1B6
330
190
100
AcDbEntity
  8
24
  6
Continuous
 62
     1
100
AcDbLine
 10
181.2428559999998
 20
230.0653719999999
 30
0.0
 11
0.0
 21
230.0653719999999
 31
0.0
  0
LINE
  5
1B7
330
190
100
AcDbEntity
  8
24
  6
Continuous
 62
     1
100
AcDbLine
 10
181.2428559999998
 20
256.1946989999996
 30
0.0
 11
0.0
 21
256.1946989999996
 31
0.0
  0
LINE
  5
1B8
330
190
100
AcDbEntity
  8
24
  6
Continuous
 62
     1
100
AcDbLine
 10
181.2428559999998
 20
260.4008159999998
 30
0.0
 11
0.0
 21
260.4008159999998
 31
0.0
  0
LINE
  5
1B9
330
190
100
AcDbEntity
  8
24
  6
Continuous
 62
     1
100
AcDbLine
 10
117.1358309999999
 20
250.7724629999998
 30
0.0
 11
0.0
 21
250.7724629999998
 31
0.0
  0
LINE
  5
1BA
330
190
100
AcDbEntity
  8
24
  6
Continuous
 62
     1
100
AcDbLine
 10
117.1358309999999
 20
247.3359799999998
 30
0.0
 11
0.0
 21
247.3359799999998
 31
0.0
  0
LINE
  5
1BB
330
190
100
AcDbEntity
  8
24
  6
Continuous
 62
     1
100
AcDbLine
 10
117.1358309999999
 20
243.130207
 30
0.0
 11
0.0
 21
243.130207
 31
0.0
  0
LINE
  5
1BC
330
190
100
AcDbEntity
  8
24
  6
Continuous
 62
     1
100
AcDbLine
 10
117.1358309999999
 20
237.707972
 30
0.0
 11
0.0
 21
237.707972
 31
0.0
  0
TEXT
  5
1BD
330
190
100
AcDbEntity
  8
24
  6
Continuous
 62
     1
100
AcDbText
 10
32.42523899999999
 20
-19.82829600000002
 30
0.0
 40
3.421865999999998
  1
Current (A)
 41
0.7
 11
32.42523899999999
 21
-20.96891800000002
 31
0.0
100
AcDbText
 73
     1
  0
LINE
  5
1BE
330
190
100
AcDbEntity
  8
24
  6
Continuous
 62
     1
100
AcDbLine
 10
0.0
 20
260.4008159999998
 30
0.0
 11
0.0
 21
0.0
 31
0.0
  0
LINE
  5
1BF
330
190
100
AcDbEntity
  8
24
  6
Continuous
 62
     1
100
AcDbLine
 10
7.642600000000001
 20
260.4008159999998
 30
0.0
 11
7.642600000000001
 21
0.0
 31
0.0
  0
LINE
  5
1C0
330
190
100
AcDbEntity
  8
24
  6
Continuous
 62
     1
100
AcDbLine
 10
17.27060799999988
 20
260.4008159999998
 30
0.0
 11
17.27060799999988
 21
0.0
 31
0.0
  0
LINE
  5
1C1
330
190
100
AcDbEntity
  8
24
  6
Continuous
 62
     1
100
AcDbLine
 10
26.12932699999999
 20
260.4008159999998
 30
0.0
 11
26.12932699999999
 21
0.0
 31
0.0
  0
LINE
  5
1C2
330
190
100
AcDbEntity
  8
24
  6
Continuous
 62
     1
100
AcDbLine
 10
30.33544399999989
 20
260.4008159999998
 30
0.0
 11
30.33544399999989
 21
0.0
 31
0.0
  0
LINE
  5
1C3
330
190
100
AcDbEntity
  8
24
  6
Continuous
 62
     1
100
AcDbLine
 10
43.3999349999998
 20
260.4008159999998
 30
0.0
 11
43.3999349999998
 21
0.0
 31
0.0
  0
TEXT
  5
1C4
330
190
100
AcDbEntity
  8
24
  6
Continuous
 62
     1
100
AcDbText
 10
-13.546066
 20
88.392882
 30
0.0
 40
3.421865999999993
  1
Operating time (sec)
 50
90.0
 41
0.7
 11
-12.405444
 21
88.392882
 31
0.0
100
AcDbText
 73
     1
  0
TEXT
  5
1C5
330
190
100
AcDbEntity
  8
200
  6
Continuous
 62
     1
100
AcDbText
 10
-9.258413555151079
 20
19.45709099999987
 30
0.0
 40
2.5
  1
0.03
 41
0.6
 72
     2
 11
-5.258413555151078
 21
20.70709099999987
 31
0.0
100
AcDbText
 73
     2
  0
TEXT
  5
1C6
330
190
100
AcDbEntity
  8
200
  6
Continuous
 62
     1
100
AcDbText
 10
1.249999999999957
 20
-5.166666666666666
 30
0.0
 40
2.5
  1
2
 50
90.0
 41
0.7
 72
     2
 11
-0.0000000000000426
 21
-4.0
 31
0.0
100
AcDbText
 73
     2
  0
TEXT
  5
1C7
330
190
100
AcDbEntity
  8
200
  6
Continuous
 62
     1
100
AcDbText
 10
-9.259367750161601
 20
11.81518099999985
 30
0.0
 40
2.5
  1
0.02
 41
0.6
 72
     2
 11
-5.259367750161601
 21
13.06518099999985
 31
0.0
100
AcDbText
 73
     2
  0
TEXT
  5
1C8
330
190
100
AcDbEntity
  8
200
  6
Continuous
 62
     1
100
AcDbText
 10
-8.760999113331507
 20
-1.250000000000142
 30
0.0
 40
2.5
  1
0.01
 41
0.6
 72
     2
 11
-5.260999113331506
 21
-0.0000000000001421
 31
0.0
100
AcDbText
 73
     2
  0
TEXT
  5
1C9
330
190
100
AcDbEntity
  8
200
  6
Continuous
 62
     1
100
AcDbText
 10
27.3793269999999
 20
-5.166666666666666
 30
0.0
 40
2.5
  1
8
 50
90.0
 41
0.7
 72
     2
 11
26.1293269999999
 21
-4.0
 31
0.0
100
AcDbText
 73
     2
  0
TEXT
  5
1CA
330
190
100
AcDbEntity
  8
200
  6
Continuous
 62
     1
100
AcDbText
 10
18.52060799999988
 20
-5.166666666666666
 30
0.0
 40
2.5
  1
5
 50
90.0
 41
0.7
 72
     2
 11
17.27060799999988
 21
-4.0
 31
0.0
100
AcDbText
 73
     2
  0
TEXT
  5
1CB
330
190
100
AcDbEntity
  8
200
  6
Continuous
 62
     1
100
AcDbText
 10
8.892599999999902
 20
-5.166666666666666
 30
0.0
 40
2.5
  1
3
 50
90.0
 41
0.7
 72
     2
 11
7.642599999999902
 21
-4.0
 31
0.0
100
AcDbText
 73
     2
  0
TEXT
  5
1CC
330
190
100
AcDbEntity
  8
200
  6
Continuous
 62
     1
100
AcDbText
 10
44.64993499999989
 20
-6.625
 30
0.0
 40
2.5
  1
20
 50
90.0
 41
0.7
 72
     2
 11
43.39993499999989
 21
-4.0
 31
0.0
100
AcDbText
 73
     2
  0
TEXT
  5
1CD
330
190
100
AcDbEntity
  8
200
  6
Continuous
 62
     1
100
AcDbText
 10
31.58544399999989
 20
-6.041666666666666
 30
0.0
 40
2.5
  1
10
 50
90.0
 41
0.7
 72
     2
 11
30.33544399999989
 21
-4.0
 31
0.0
100
AcDbText
 73
     2
  0
TEXT
  5
1CE
330
190
100
AcDbEntity
  8
200
  6
Continuous
 62
     1
100
AcDbText
 10
-8.002317408877701
 20
68.27960699999978
 30
0.0
 40
2.5
  1
0.4
 41
0.6
 72
     2
 11
-5.252317408877701
 21
69.52960699999978
 31
0.0
100
AcDbText
 73
     2
  0
TEXT
  5
1CF
330
190
100
AcDbEntity
  8
200
  6
Continuous
 62
     1
100
AcDbText
 10
-9.25773647314746
 20
24.87967199999988
 30
0.0
 40
2.5
  1
0.04
 41
0.6
 72
     2
 11
-5.25773647314746
 21
26.12967199999988
 31
0.0
100
AcDbText
 73
     2
  0
TEXT
  5
1D0
330
190
100
AcDbEntity
  8
200
  6
Continuous
 62
     1
100
AcDbText
 10
-9.257211326075875
 20
29.08544399999984
 30
0.0
 40
2.5
  1
0.05
 41
0.6
 72
     2
 11
-5.257211326075875
 21
30.33544399999984
 31
0.0
100
AcDbText
 73
     2
  0
TEXT
  5
1D1
330
190
100
AcDbEntity
  8
200
  6
Continuous
 62
     1
100
AcDbText
 10
-7.505579963030853
 20
42.15062399999984
 30
0.0
 40
2.5
  1
0.1
 41
0.6
 72
     2
 11
-5.255579963030853
 21
43.40062399999984
 31
0.0
100
AcDbText
 73
     2
  0
TEXT
  5
1D2
330
190
100
AcDbEntity
  8
200
  6
Continuous
 62
     1
100
AcDbText
 10
-8.003948685891828
 20
55.21511599999985
 30
0.0
 40
2.5
  1
0.2
 41
0.6
 72
     2
 11
-5.253948685891828
 21
56.46511599999985
 31
0.0
100
AcDbText
 73
     2
  0
TEXT
  5
1D3
330
190
100
AcDbEntity
  8
200
  6
Continuous
 62
     1
100
AcDbText
 10
-8.002994490881292
 20
62.85702599999979
 30
0.0
 40
2.5
  1
0.3
 41
0.6
 72
     2
 11
-5.252994490881292
 21
64.10702599999979
 31
0.0
100
AcDbText
 73
     2
  0
TEXT
  5
1D4
330
190
100
AcDbEntity
  8
200
  6
Continuous
 62
     1
100
AcDbText
 10
-8.00179226180613
 20
72.48537899999971
 30
0.0
 40
2.5
  1
0.5
 41
0.6
 72
     2
 11
-5.251792261806129
 21
73.73537899999971
 31
0.0
100
AcDbText
 73
     2
  0
TEXT
  5
1D5
330
190
100
AcDbEntity
  8
200
  6
Continuous
 62
     1
100
AcDbText
 10
-5.748529535716001
 20
85.5505589999999
 30
0.0
 40
2.5
  1
1
 41
0.6
 72
     2
 11
-5.248529535716001
 21
86.8005589999999
 31
0.0
100
AcDbText
 73
     2
  0
TEXT
  5
1D6
330
190
100
AcDbEntity
  8
200
  6
Continuous
 62
     1
100
AcDbText
 10
-6.247575340580623
 20
106.2576499999997
 30
0.0
 40
2.5
  1
3
 41
0.6
 72
     2
 11
-5.247575340580623
 21
107.5076499999997
 31
0.0
100
AcDbText
 73
     2
  0
TEXT
  5
1D7
330
190
100
AcDbEntity
  8
200
  6
Continuous
 62
     1
100
AcDbText
 10
-6.248529535716001
 20
98.6157389999998
 30
0.0
 40
2.5
  1
2
 41
0.6
 72
     2
 11
-5.248529535716001
 21
99.8657389999998
 31
0.0
100
AcDbText
 73
     2
  0
TEXT
  5
1D8
330
190
100
AcDbEntity
  8
200
  6
Continuous
 62
     1
100
AcDbText
 10
-6.24689825857699
 20
111.6802309999999
 30
0.0
 40
2.5
  1
4
 41
0.6
 72
     2
 11
-5.24689825857699
 21
112.9302309999999
 31
0.0
100
AcDbText
 73
     2
  0
TEXT
  5
1D9
330
190
100
AcDbEntity
  8
200
  6
Continuous
 62
     1
100
AcDbText
 10
-6.24637311150542
 20
115.8860029999997
 30
0.0
 40
2.5
  1
5
 41
0.6
 72
     2
 11
-5.24637311150542
 21
117.1360029999997
 31
0.0
100
AcDbText
 73
     2
  0
TEXT
  5
1DA
330
190
100
AcDbEntity
  8
200
  6
Continuous
 62
     1
100
AcDbText
 10
-6.994741813014782
 20
128.9506659999997
 30
0.0
 40
2.5
  1
10
 41
0.6
 72
     2
 11
-5.244741813014782
 21
130.2006659999997
 31
0.0
100
AcDbText
 73
     2
  0
TEXT
  5
1DB
330
190
100
AcDbEntity
  8
200
  6
Continuous
 62
     1
100
AcDbText
 10
-7.493110492922723
 20
142.0155019999997
 30
0.0
 40
2.5
  1
20
 41
0.6
 72
     2
 11
-5.243110492922723
 21
143.2655019999998
 31
0.0
100
AcDbText
 73
     2
  0
TEXT
  5
1DC
330
190
100
AcDbEntity
  8
200
  6
Continuous
 62
     1
100
AcDbText
 10
-7.49215625483437
 20
149.6577569999998
 30
0.0
 40
2.5
  1
30
 41
0.6
 72
     2
 11
-5.24215625483437
 21
150.9077569999998
 31
0.0
100
AcDbText
 73
     2
  0
TEXT
  5
1DD
330
190
100
AcDbEntity
  8
200
  6
Continuous
 62
     1
100
AcDbText
 10
-7.491479215908582
 20
155.0799929999998
 30
0.0
 40
2.5
  1
40
 41
0.6
 72
     2
 11
-5.241479215908582
 21
156.3299929999998
 31
0.0
100
AcDbText
 73
     2
  0
TEXT
  5
1DE
330
190
100
AcDbEntity
  8
200
  6
Continuous
 62
     1
100
AcDbText
 10
-7.490524934742295
 20
162.7225929999998
 30
0.0
 40
2.5
  1
60
 41
0.6
 72
     2
 11
-5.240524934742295
 21
163.9725929999998
 31
0.0
100
AcDbText
 73
     2
  0
TEXT
  5
1DF
330
190
100
AcDbEntity
  8
200
  6
Continuous
 62
     1
100
AcDbText
 10
-7.490954025759123
 20
159.2861099999998
 30
0.0
 40
2.5
  1
50
 41
0.6
 72
     2
 11
-5.240954025759123
 21
160.5361099999998
 31
0.0
100
AcDbText
 73
     2
  0
TEXT
  5
1E0
330
190
100
AcDbEntity
  8
200
  6
Continuous
 62
     1
100
AcDbText
 10
-8.736737190564554
 20
193.0576919999996
 30
0.0
 40
2.5
  1
300
 41
0.6
 72
     2
 11
-5.236737190564554
 21
194.3076919999996
 31
0.0
100
AcDbText
 73
     2
  0
TEXT
  5
1E1
330
190
100
AcDbEntity
  8
200
  6
Continuous
 62
     1
100
AcDbText
 10
-8.239322748744982
 20
172.3506009999998
 30
0.0
 40
2.5
  1
100
 41
0.6
 72
     2
 11
-5.239322748744981
 21
173.6006009999998
 31
0.0
100
AcDbText
 73
     2
  0
TEXT
  5
1E2
330
190
100
AcDbEntity
  8
200
  6
Continuous
 62
     1
100
AcDbText
 10
-8.737691428652951
 20
185.4154369999998
 30
0.0
 40
2.5
  1
200
 41
0.6
 72
     2
 11
-5.237691428652951
 21
186.6654369999998
 31
0.0
100
AcDbText
 73
     2
  0
TEXT
  5
1E3
330
190
100
AcDbEntity
  8
200
  6
Continuous
 62
     1
100
AcDbText
 10
-9.483903641397304
 20
215.7508809999997
 30
0.0
 40
2.5
  1
1000
 41
0.6
 72
     2
 11
-5.233903641397303
 21
217.0008809999997
 31
0.0
100
AcDbText
 73
     2
  0
TEXT
  5
1E4
330
190
100
AcDbEntity
  8
200
  6
Continuous
 62
     1
100
AcDbText
 10
-8.735534961489364
 20
202.6860449999999
 30
0.0
 40
2.5
  1
500
 41
0.6
 72
     2
 11
-5.235534961489363
 21
203.9360449999999
 31
0.0
100
AcDbText
 73
     2
  0
TEXT
  5
1E5
330
190
100
AcDbEntity
  8
200
  6
Continuous
 62
     1
100
AcDbText
 10
-8.736060108560934
 20
198.4802729999998
 30
0.0
 40
2.5
  1
400
 41
0.6
 72
     2
 11
-5.236060108560933
 21
199.7302729999998
 31
0.0
100
AcDbText
 73
     2
  0
TEXT
  5
1E6
330
190
100
AcDbEntity
  8
23
  6
Continuous
 62
     3
100
AcDbText
 10
0.0000000000000001
 20
276.6340526666665
 30
0.0
 40
3.910714999999981
  1
TemBreak2
 41
0.7
 11
0.0
 21
275.3304809999999
 31
0.0
100
AcDbText
 73
     1
  0
TEXT
  5
1E7
330
190
100
AcDbEntity
  8
200
  6
Continuous
 62
     1
100
AcDbText
 10
-9.980771491001688
 20
241.872855374364
 30
0.0
 40
2.5
  1
4000
 41
0.6
 72
     2
 11
-5.230771491001688
 21
243.1228553743641
 31
0.0
100
AcDbText
 73
     2
  0
TEXT
  5
1E8
330
190
100
AcDbEntity
  8
200
  6
Continuous
 62
     1
100
AcDbText
 10
-9.981448551393356
 20
236.4506203743641
 30
0.0
 40
2.5
  1
3000
 41
0.6
 72
     2
 11
-5.231448551393356
 21
237.7006203743642
 31
0.0
100
AcDbText
 73
     2
  0
TEXT
  5
1E9
330
190
100
AcDbEntity
  8
200
  6
Continuous
 62
     1
100
AcDbText
 10
-9.982272364383163
 20
228.8153719999998
 30
0.0
 40
2.5
  1
2000
 41
0.6
 72
     2
 11
-5.232272364383162
 21
230.0653719999997
 31
0.0
100
AcDbText
 73
     2
  0
TEXT
  5
1EA
330
190
100
AcDbEntity
  8
200
  6
Continuous
 62
     1
100
AcDbText
 10
-10.72850376865692
 20
258.9971158246214
 30
0.0
 40
2.5
  1
10000
 41
0.6
 72
     2
 11
-5.228503768656921
 21
260.2471158246213
 31
0.0
100
AcDbText
 73
     2
  0
TEXT
  5
1EB
330
190
100
AcDbEntity
  8
200
  6
Continuous
 62
     1
100
AcDbText
 10
-9.980246322336924
 20
246.078628374364
 30
0.0
 40
2.5
  1
5000
 41
0.6
 72
     2
 11
-5.230246322336924
 21
247.328628374364
 31
0.0
100
AcDbText
 73
     2
  0
LINE
  5
1EC
330
190
100
AcDbEntity
  8
24
  6
Continuous
 62
     1
100
AcDbLine
 10
51.042535
 20
260.4008159999998
 30
0.0
 11
51.042535
 21
0.0
 31
0.0
  0
LINE
  5
1ED
330
190
100
AcDbEntity
  8
24
  6
Continuous
 62
     1
100
AcDbLine
 10
60.67054299999998
 20
260.4008159999998
 30
0.0
 11
60.67054299999998
 21
0.0
 31
0.0
  0
LINE
  5
1EE
330
190
100
AcDbEntity
  8
24
  6
Continuous
 62
     1
100
AcDbLine
 10
69.52960600000001
 20
260.4008159999998
 30
0.0
 11
69.52960600000001
 21
0.0
 31
0.0
  0
LINE
  5
1EF
330
190
100
AcDbEntity
  8
24
  6
Continuous
 62
     1
100
AcDbLine
 10
73.73572299999991
 20
260.4008159999998
 30
0.0
 11
73.73572299999991
 21
0.0
 31
0.0
  0
LINE
  5
1F0
330
190
100
AcDbEntity
  8
24
  6
Continuous
 62
     1
100
AcDbLine
 10
86.80038699999995
 20
260.4008159999998
 30
0.0
 11
86.80038699999995
 21
0.0
 31
0.0
  0
LINE
  5
1F1
330
190
100
AcDbEntity
  8
24
  6
Continuous
 62
     1
100
AcDbLine
 10
94.44298699999992
 20
260.4008159999998
 30
0.0
 11
94.44298699999992
 21
0.0
 31
0.0
  0
LINE
  5
1F2
330
190
100
AcDbEntity
  8
24
  6
Continuous
 62
     1
100
AcDbLine
 10
104.0706499999999
 20
260.4008159999998
 30
0.0
 11
104.0706499999999
 21
0.0
 31
0.0
  0
LINE
  5
1F3
330
190
100
AcDbEntity
  8
24
  6
Continuous
 62
     1
100
AcDbLine
 10
112.9300579999999
 20
260.4008159999998
 30
0.0
 11
112.9300579999999
 21
0.0
 31
0.0
  0
LINE
  5
1F4
330
190
100
AcDbEntity
  8
24
  6
Continuous
 62
     1
100
AcDbLine
 10
117.1358309999999
 20
260.4008159999998
 30
0.0
 11
117.1358309999999
 21
0.0
 31
0.0
  0
LINE
  5
1F5
330
190
100
AcDbEntity
  8
24
  6
Continuous
 62
     1
100
AcDbLine
 10
181.2428559999998
 20
260.4008159999998
 30
0.0
 11
181.2428559999998
 21
0.0
 31
0.0
  0
LINE
  5
1F6
330
190
100
AcDbEntity
  8
24
  6
Continuous
 62
     1
100
AcDbLine
 10
130.2003219999999
 20
230.0653719999999
 30
0.0
 11
130.2003219999999
 21
0.0
 31
0.0
  0
LINE
  5
1F7
330
190
100
AcDbEntity
  8
24
  6
Continuous
 62
     1
100
AcDbLine
 10
137.8429209999999
 20
230.0653719999999
 30
0.0
 11
137.8429209999999
 21
0.0
 31
0.0
  0
LINE
  5
1F8
330
190
100
AcDbEntity
  8
24
  6
Continuous
 62
     1
100
AcDbLine
 10
147.471274
 20
230.0653719999999
 30
0.0
 11
147.471274
 21
0.0
 31
0.0
  0
LINE
  5
1F9
330
190
100
AcDbEntity
  8
24
  6
Continuous
 62
     1
100
AcDbLine
 10
156.3299929999999
 20
230.0653719999999
 30
0.0
 11
156.3299929999999
 21
0.0
 31
0.0
  0
LINE
  5
1FA
330
190
100
AcDbEntity
  8
24
  6
Continuous
 62
     1
100
AcDbLine
 10
160.5357649999999
 20
230.0653719999999
 30
0.0
 11
160.5357649999999
 21
0.0
 31
0.0
  0
LINE
  5
1FB
330
190
100
AcDbEntity
  8
24
  6
Continuous
 62
     1
100
AcDbLine
 10
173.600257
 20
230.0653719999999
 30
0.0
 11
173.600257
 21
0.0
 31
0.0
  0
TEXT
  5
1FC
330
190
100
AcDbEntity
  8
23
  6
Continuous
 62
     3
100
AcDbText
 10
78.428632
 20
-38.21649633333334
 30
0.0
 40
3.910714999999998
  1
TERASAKI ELECTRIC CO.,LTD.
 41
0.7
 11
78.428632
 21
-39.520068
 31
0.0
100
AcDbText
 73
     1
  0
TEXT
  5
1FD
330
190
100
AcDbEntity
  8
24
  6
Continuous
 62
     1
100
AcDbText
 10
91.790263
 20
-20.06220266666666
 30
0.0
 40
2.444193999999999
  1
primary ==== 6.6kV
 41
0.7
 11
91.790263
 21
-20.876934
 31
0.0
100
AcDbText
 73
     1
  0
TEXT
  5
1FE
330
190
100
AcDbEntity
  8
24
  6
Continuous
 62
     1
100
AcDbText
 10
91.790263
 20
-23.91933166666667
 30
0.0
 40
2.444193999999999
  1
secondary == 110,220,440V
 41
0.7
 11
91.790263
 21
-24.73406300000001
 31
0.0
100
AcDbText
 73
     1
  0
TEXT
  5
1FF
330
190
100
AcDbEntity
  8
200
  6
Continuous
 62
     1
100
AcDbText
 10
74.98572299999991
 20
-7.499999999999999
 30
0.0
 40
2.5
  1
100
 50
90.0
 41
0.7
 72
     2
 11
73.73572299999991
 21
-4.0
 31
0.0
100
AcDbText
 73
     2
  0
TEXT
  5
200
330
190
100
AcDbEntity
  8
200
  6
Continuous
 62
     1
100
AcDbText
 10
70.7796059999999
 20
-6.625
 30
0.0
 40
2.5
  1
80
 50
90.0
 41
0.7
 72
     2
 11
69.5296059999999
 21
-4.0
 31
0.0
100
AcDbText
 73
     2
  0
TEXT
  5
201
330
190
100
AcDbEntity
  8
200
  6
Continuous
 62
     1
100
AcDbText
 10
61.9205429999999
 20
-6.625
 30
0.0
 40
2.5
  1
50
 50
90.0
 41
0.7
 72
     2
 11
60.6705429999999
 21
-4.0
 31
0.0
100
AcDbText
 73
     2
  0
TEXT
  5
202
330
190
100
AcDbEntity
  8
200
  6
Continuous
 62
     1
100
AcDbText
 10
52.29253499999988
 20
-6.625
 30
0.0
 40
2.5
  1
30
 50
90.0
 41
0.7
 72
     2
 11
51.04253499999988
 21
-4.0
 31
0.0
100
AcDbText
 73
     2
  0
TEXT
  5
203
330
190
100
AcDbEntity
  8
200
  6
Continuous
 62
     1
100
AcDbText
 10
95.69298699999992
 20
-8.083333333333332
 30
0.0
 40
2.5
  1
300
 50
90.0
 41
0.7
 72
     2
 11
94.44298699999992
 21
-4.0
 31
0.0
100
AcDbText
 73
     2
  0
TEXT
  5
204
330
190
100
AcDbEntity
  8
200
  6
Continuous
 62
     1
100
AcDbText
 10
88.05038699999995
 20
-8.083333333333332
 30
0.0
 40
2.5
  1
200
 50
90.0
 41
0.7
 72
     2
 11
86.80038699999995
 21
-4.0
 31
0.0
100
AcDbText
 73
     2
  0
TEXT
  5
205
330
190
100
AcDbEntity
  8
200
  6
Continuous
 62
     1
100
AcDbText
 10
118.3858309999999
 20
-8.958333333333332
 30
0.0
 40
2.5
  1
1000
 50
90.0
 41
0.7
 72
     2
 11
117.1358309999999
 21
-4.0
 31
0.0
100
AcDbText
 73
     2
  0
TEXT
  5
206
330
190
100
AcDbEntity
  8
200
  6
Continuous
 62
     1
100
AcDbText
 10
114.1800579999997
 20
-8.083333333333332
 30
0.0
 40
2.5
  1
800
 50
90.0
 41
0.7
 72
     2
 11
112.9300579999997
 21
-4.0
 31
0.0
100
AcDbText
 73
     2
  0
TEXT
  5
207
330
190
100
AcDbEntity
  8
200
  6
Continuous
 62
     1
100
AcDbText
 10
105.3206499999999
 20
-8.083333333333332
 30
0.0
 40
2.5
  1
500
 50
90.0
 41
0.7
 72
     2
 11
104.0706499999999
 21
-4.0
 31
0.0
100
AcDbText
 73
     2
  0
TEXT
  5
208
330
190
100
AcDbEntity
  8
200
  6
Continuous
 62
     1
100
AcDbText
 10
139.0929209999999
 20
-9.541666666666667
 30
0.0
 40
2.5
  1
3000
 50
90.0
 41
0.7
 72
     2
 11
137.8429209999999
 21
-4.0
 31
0.0
100
AcDbText
 73
     2
  0
TEXT
  5
209
330
190
100
AcDbEntity
  8
200
  6
Continuous
 62
     1
100
AcDbText
 10
131.4503219999997
 20
-9.541666666666667
 30
0.0
 40
2.5
  1
2000
 50
90.0
 41
0.7
 72
     2
 11
130.2003219999998
 21
-4.0
 31
0.0
100
AcDbText
 73
     2
  0
TEXT
  5
20A
330
190
100
AcDbEntity
  8
200
  6
Continuous
 62
     1
100
AcDbText
 10
161.8726395661999
 20
-10.48817402477792
 30
0.0
 40
2.5
  1
10000
 50
90.0
 41
0.7
 72
     2
 11
160.6226395661999
 21
-4.071507358111261
 31
0.0
100
AcDbText
 73
     2
  0
TEXT
  5
20B
330
190
100
AcDbEntity
  8
200
  6
Continuous
 62
     1
100
AcDbText
 10
148.7212739999999
 20
-9.541666666666667
 30
0.0
 40
2.5
  1
5000
 50
90.0
 41
0.7
 72
     2
 11
147.4712739999999
 21
-4.0
 31
0.0
100
AcDbText
 73
     2
  0
TEXT
  5
20C
330
190
100
AcDbEntity
  8
200
  6
Continuous
 62
     1
100
AcDbText
 10
157.5799929999999
 20
-9.541666666666667
 30
0.0
 40
2.5
  1
8000
 50
90.0
 41
0.7
 72
     2
 11
156.3299929999999
 21
-4.0
 31
0.0
100
AcDbText
 73
     2
  0
TEXT
  5
20D
330
190
100
AcDbEntity
  8
200
  6
Continuous
 62
     1
100
AcDbText
 10
182.5797305662
 20
-11.07150735811126
 30
0.0
 40
2.5
  1
30000
 50
90.0
 41
0.7
 72
     2
 11
181.3297305662
 21
-4.071507358111261
 31
0.0
100
AcDbText
 73
     2
  0
TEXT
  5
20E
330
190
100
AcDbEntity
  8
200
  6
Continuous
 62
     1
100
AcDbText
 10
174.9371315661998
 20
-11.07150735811126
 30
0.0
 40
2.5
  1
20000
 50
90.0
 41
0.7
 72
     2
 11
173.6871315661998
 21
-4.071507358111261
 31
0.0
100
AcDbText
 73
     2
  0
LINE
  5
20F
330
190
100
AcDbEntity
  8
24
  6
Continuous
 62
     1
100
AcDbLine
 10
130.2003219999999
 20
260.4008159999998
 30
0.0
 11
130.2003219999999
 21
256.1946989999996
 31
0.0
  0
LINE
  5
210
330
190
100
AcDbEntity
  8
24
  6
Continuous
 62
     1
100
AcDbLine
 10
137.8429209999999
 20
260.4008159999998
 30
0.0
 11
137.8429209999999
 21
256.1946989999996
 31
0.0
  0
LINE
  5
211
330
190
100
AcDbEntity
  8
24
  6
Continuous
 62
     1
100
AcDbLine
 10
147.471274
 20
260.4008159999998
 30
0.0
 11
147.471274
 21
256.1946989999996
 31
0.0
  0
LINE
  5
212
330
190
100
AcDbEntity
  8
24
  6
Continuous
 62
     1
100
AcDbLine
 10
156.3299929999999
 20
260.4008159999998
 30
0.0
 11
156.3299929999999
 21
256.1946989999996
 31
0.0
  0
LINE
  5
213
330
190
100
AcDbEntity
  8
24
  6
Continuous
 62
     1
100
AcDbLine
 10
160.5357649999999
 20
260.4008159999998
 30
0.0
 11
160.5357649999999
 21
256.1946989999996
 31
0.0
  0
LINE
  5
214
330
190
100
AcDbEntity
  8
24
  6
Continuous
 62
     1
100
AcDbLine
 10
173.600257
 20
260.4008159999998
 30
0.0
 11
173.600257
 21
256.1946989999996
 31
0.0
  0
ENDBLK
  5
216
330
190
100
AcDbEntity
  8
0
370
     0
100
AcDbBlockEnd
  0
ENDSEC
  0
SECTION
  2
ENTITIES
  0
MTEXT
  5
52
330
A
100
AcDbEntity
  8
VPORT-BORDERS
 62
     7
100
AcDbMText
 10
32.26531599999999
 20
14.792551
 30
0.0
 40
2.444193999999999
 41
0.0
 71
     1
 72
     2
  1
\fOsaka|b0|i0|c128;220V
  7
STD
 11
0.0
 21
1.0
 31
0.0
 73
     1
 44
1.0
1001
ACAD
1000
MTEXTBEGIN
1070
    73
1070
     1
1070
    44
1040
1.0
1070
    74
1070
     0
1000
MTEXTEND
  0
MTEXT
  5
51
330
A
100
AcDbEntity
  8
VPORT-BORDERS
 62
     7
100
AcDbMText
 10
19.16534
 20
14.792551
 30
0.0
 40
2.444193999999999
 41
0.0
 71
     1
 72
     2
  1
\fOsaka|b0|i0|c128;440V
  7
STD
 11
0.0
 21
1.0
 31
0.0
 73
     1
 44
1.0
1001
ACAD
1000
MTEXTBEGIN
1070
    73
1070
     1
1070
    44
1040
1.0
1070
    74
1070
     0
1000
MTEXTEND
  0
MTEXT
  5
50
330
A
100
AcDbEntity
  8
VPORT-BORDERS
 62
     7
100
AcDbMText
 10
45.84725999999998
 20
14.792551
 30
0.0
 40
2.444193999999999
 41
0.0
 71
     1
 72
     2
  1
\fOsaka|b0|i0|c128;110V
  7
STD
 11
0.0
 21
1.0
 31
0.0
 73
     1
 44
1.0
1001
ACAD
1000
MTEXTBEGIN
1070
    73
1070
     1
1070
    44
1040
1.0
1070
    74
1070
     0
1000
MTEXTEND
  0
LINE
  5
4F
330
A
100
AcDbEntity
  8
VPORT-BORDERS
 62
     7
100
AcDbLine
 10
33.709398
 20
289.978338
 30
0.0
 11
33.709398
 21
29.57786699999999
 31
0.0
  0
LINE
  5
4E
330
A
100
AcDbEntity
  8
VPORT-BORDERS
 62
     7
100
AcDbLine
 10
46.809374
 20
289.978338
 30
0.0
 11
46.809374
 21
29.57786699999999
 31
0.0
  0
LINE
  5
4D
330
A
100
AcDbEntity
  8
VPORT-BORDERS
 62
     7
100
AcDbLine
 10
20.60942199999999
 20
289.978338
 30
0.0
 11
20.60942199999999
 21
29.57786699999999
 31
0.0
  0
LINE
  5
4C
330
A
100
AcDbEntity
  8
VPORT-BORDERS
 62
     7
100
AcDbLine
 10
214.95191
 20
29.57786699999999
 30
0.0
 11
20.60942199999999
 21
29.57786699999999
 31
0.0
  0
MTEXT
  5
4B
330
A
100
AcDbEntity
  8
VPORT-BORDERS
 62
     7
100
AcDbMText
 10
9.837987
 20
31.01815999999999
 30
0.0
 40
2.444193999999999
 41
0.0
 71
     1
 72
     2
  1
\W1.02;\fOsaka|b0|i0|c128;0.01S
  7
STD
 73
     1
 44
1.0
1001
ACAD
1000
MTEXTBEGIN
1070
    73
1070
     1
1070
    44
1040
1.0
1070
    74
1070
     0
1000
MTEXTEND
  0
SPLINE
  5
4A
330
A
100
AcDbEntity
  8
VPORT-BORDERS
 62
     7
100
AcDbSpline
210
0.0
220
0.0
230
1.0
 70
     8
 71
     3
 72
    29
 73
    25
 74
     0
 42
0.0000000001
 43
0.0000000001
 40
0.0
 40
0.0
 40
0.0
 40
0.0
 40
1.0
 40
1.0
 40
1.0
 40
2.0
 40
2.0
 40
2.0
 40
3.0
 40
3.0
 40
3.0
 40
4.0
 40
4.0
 40
4.0
 40
5.0
 40
5.0
 40
5.0
 40
6.0
 40
6.0
 40
6.0
 40
7.0
 40
7.0
 40
7.0
 40
8.0
 40
8.0
 40
8.0
 40
8.0
 10
80.15841471354166
 20
289.9177042643228
 30
0.0
 10
80.15841471354166
 20
289.9177042643228
 30
0.0
 10
80.43333333333331
 20
280.1839314778646
 30
0.0
 10
80.43333333333331
 20
280.1839314778646
 30
0.0
 10
80.7861111111111
 20
272.8930759006074
 30
0.0
 10
81.8161946614583
 20
252.2788302951389
 30
0.0
 10
88.66487223307291
 20
226.4440592447916
 30
0.0
 10
92.26758083767359
 20
212.8540188259548
 30
0.0
 10
95.95555555555554
 20
200.2208536783853
 30
0.0
 10
100.8944444444442
 20
187.6385036892361
 30
0.0
 10
107.3843153211804
 20
171.1051459418401
 30
0.0
 10
114.5525254991319
 20
156.5489284939236
 30
0.0
 10
117.2396999782984
 20
151.3023925781249
 30
0.0
 10
119.709144422743
 20
146.481325954861
 30
0.0
 10
120.5094401041665
 20
140.8685763888889
 30
0.0
 10
120.5094401041665
 20
137.458620876736
 30
0.0
 10
120.5094401041665
 20
137.458620876736
 30
0.0
 10
120.5094401041665
 20
60.28572591145833
 30
0.0
 10
120.5094401041665
 20
60.28572591145833
 30
0.0
 10
120.5094401041665
 20
49.93769259982638
 30
0.0
 10
127.8230333116317
 20
43.23491482204859
 30
0.0
 10
150.8483289930555
 20
43.23491482204859
 30
0.0
 10
150.8483289930555
 20
43.23491482204859
 30
0.0
 10
159.7855957031248
 20
43.23491482204859
 30
0.0
 10
159.7855957031248
 20
43.23491482204859
 30
0.0
  0
SPLINE
  5
49
330
A
100
AcDbEntity
  8
VPORT-BORDERS
 62
     7
100
AcDbSpline
210
0.0
220
0.0
230
1.0
 70
     8
 71
     3
 72
    17
 73
    13
 74
     0
 42
0.0000000001
 43
0.0000000001
 40
0.0
 40
0.0
 40
0.0
 40
0.0
 40
1.0
 40
1.0
 40
1.0
 40
2.0
 40
2.0
 40
2.0
 40
3.0
 40
3.0
 40
3.0
 40
4.0
 40
4.0
 40
4.0
 40
4.0
 10
105.5439453124999
 20
176.3389350043403
 30
0.0
 10
106.5757514105903
 20
174.1268391927083
 30
0.0
 10
107.444949001736
 20
171.1461425781249
 30
0.0
 10
107.444949001736
 20
163.7388427734373
 30
0.0
 10
107.444949001736
 20
163.7388427734373
 30
0.0
 10
107.444949001736
 20
67.69405924479166
 30
0.0
 10
107.444949001736
 20
67.69405924479166
 30
0.0
 10
107.444949001736
 20
53.49475368923609
 30
0.0
 10
110.4194444444444
 20
48.64405924479166
 30
0.0
 10
117.3575222439235
 20
45.93931477864583
 30
0.0
 10
121.9357096354166
 20
44.15475531684028
 30
0.0
 10
132.6978434244791
 20
43.03466175389281
 30
0.0
 10
145.0743489583333
 20
43.23491482204859
 30
0.0
  0
INSERT
  5
43
330
A
100
AcDbEntity
  8
VPORT-BORDERS
 62
     7
100
AcDbBlockReference
  2
AI9-BLK3
 10
113.969271
 20
89.330981
 30
0.0
  0
INSERT
  5
38
330
A
100
AcDbEntity
  8
VPORT-BORDERS
 62
     7
100
AcDbBlockReference
  2
AI9-BLK2
 10
103.1705329999998
 20
80.296563
 30
0.0
  0
INSERT
  5
2D
330
A
100
AcDbEntity
  8
VPORT-BORDERS
 62
     7
100
AcDbBlockReference
  2
AI9-BLK1
 10
125.6305749999998
 20
80.296563
 30
0.0
  0
TEXT
  5
16B
330
A
100
AcDbEntity
  8
レイヤー_5
  6
Continuous
 62
     7
370
     0
100
AcDbText
 10
169.5242600171428
 20
271.190854
 30
0.0
 40
2.444193999999999
  1
S630-CF, S630-NF
 41
0.8
  7
STD
100
AcDbText
  0
TEXT
  5
16E
330
A
100
AcDbEntity
  8
レイヤー_5
  6
Continuous
 62
     7
370
     0
100
AcDbText
 10
154.4086970228571
 20
279.33661
 30
0.0
 40
2.444193999999999
  1
600A
 41
0.8
  7
STD
100
AcDbText
  0
SPLINE
  5
222
330
A
100
AcDbEntity
  8
VPORT-BORDERS
 62
     7
100
AcDbSpline
210
0.0
220
0.0
230
1.0
 70
     8
 71
     3
 72
    11
 73
     7
 74
     0
 42
0.0000000001
 43
0.0000000001
 40
0.0
 40
0.0
 40
0.0
 40
0.0
 40
1.0
 40
1.0
 40
1.0
 40
1.851156115654166
 40
1.851156115654166
 40
1.851156115654166
 40
1.851156115654166
 10
109.0083943107639
 20
168.5616413321716
 30
0.0
 10
110.0402004088542
 20
166.3495455205396
 30
0.0
 10
110.9093979999999
 20
163.3688489059564
 30
0.0
 10
110.9093979999999
 20
155.9615491012688
 30
0.0
 10
110.909398
 20
155.9615491012688
 30
0.0
 10
110.909398
 20
92.01468907581555
 30
0.0
 10
110.909398
 20
72.97849099999997
 30
0.0
  0
SPLINE
  5
225
330
A
100
AcDbEntity
  8
VPORT-BORDERS
 62
     7
100
AcDbSpline
210
0.0
220
0.0
230
1.0
 70
     8
 71
     3
 72
    11
 73
     7
 74
     0
 42
0.0000000001
 43
0.0000000001
 40
0.0
 40
0.0
 40
0.0
 40
0.0
 40
1.0
 40
1.0
 40
1.0
 40
1.845142721555753
 40
1.845142721555753
 40
1.845142721555753
 40
1.845142721555753
 10
111.9082223124999
 20
162.2041064251475
 30
0.0
 10
112.9400284105902
 20
159.9920106135155
 30
0.0
 10
113.809226001736
 20
157.0113139989323
 30
0.0
 10
113.809226001736
 20
149.6040141942446
 30
0.0
 10
113.809226001736
 20
149.6040141942446
 30
0.0
 10
113.809226001736
 20
91.09850030861982
 30
0.0
 10
113.809226001736
 20
72.97849099999997
 30
0.0
  0
SPLINE
  5
226
330
A
100
AcDbEntity
  8
VPORT-BORDERS
 62
     7
100
AcDbSpline
210
0.0
220
0.0
230
1.0
 70
     8
 71
     3
 72
    11
 73
     7
 74
     0
 42
0.0000000001
 43
0.0000000001
 40
0.0
 40
0.0
 40
0.0
 40
0.0
 40
1.0
 40
1.0
 40
1.0
 40
1.839630390136385
 40
1.839630390136385
 40
1.839630390136385
 40
1.839630390136385
 10
114.4082223125
 20
156.984226296568
 30
0.0
 10
115.4400284105903
 20
154.772130484936
 30
0.0
 10
116.309226001736
 20
151.7914338703528
 30
0.0
 10
116.309226001736
 20
144.3841340656651
 30
0.0
 10
116.309226001736
 20
144.3841340656651
 30
0.0
 10
116.309226001736
 20
90.31922708091418
 30
0.0
 10
116.309226001736
 20
72.97849099999995
 30
0.0
  0
SPLINE
  5
227
330
A
100
AcDbEntity
  8
VPORT-BORDERS
 62
     7
100
AcDbSpline
210
0.0
220
0.0
230
1.0
 70
     8
 71
     3
 72
    11
 73
     7
 74
     0
 42
0.0000000001
 43
0.0000000001
 40
0.0
 40
0.0
 40
0.0
 40
0.0
 40
1.0
 40
1.0
 40
1.0
 40
1.670650988241601
 40
1.670650988241601
 40
1.670650988241601
 40
1.670650988241601
 10
116.6082223125
 20
152.5445812897779
 30
0.0
 10
117.6400284105904
 20
150.3324854781459
 30
0.0
 10
118.509226001736
 20
147.3517888635626
 30
0.0
 10
118.509226001736
 20
139.9444890588749
 30
0.0
 10
118.509226001736
 20
139.9444890588749
 30
0.0
 10
118.509226001736
 20
107.4482146950868
 30
0.0
 10
118.509226001736
 20
72.97849099999996
 30
0.0
  0
SPLINE
  5
251
330
A
100
AcDbEntity
  8
VPORT-BORDERS
 62
     7
100
AcDbSpline
210
0.0
220
0.0
230
1.0
 70
     8
 71
     3
 72
    14
 73
    10
 74
     0
 42
0.0000000001
 43
0.0000000001
 40
5.742760929469824
 40
5.742760929469824
 40
5.742760929469824
 40
5.742760929469824
 40
6.0
 40
6.0
 40
6.0
 40
7.0
 40
7.0
 40
7.0
 40
8.0
 40
8.0
 40
8.0
 40
8.0
 10
118.509226001736
 20
72.97849099999996
 30
0.0
 10
118.509226001736
 20
65.39240604098111
 30
0.0
 10
118.509226001736
 20
60.28572591145833
 30
0.0
 10
118.509226001736
 20
60.28572591145833
 30
0.0
 10
118.509226001736
 20
49.93769259982638
 30
0.0
 10
125.8228192092013
 20
43.23491482204859
 30
0.0
 10
148.848114890625
 20
43.23491482204859
 30
0.0
 10
148.848114890625
 20
43.23491482204859
 30
0.0
 10
157.7853816006943
 20
43.23491482204859
 30
0.0
 10
157.7853816006943
 20
43.23491482204859
 30
0.0
  0
SPLINE
  5
252
330
A
100
AcDbEntity
  8
VPORT-BORDERS
 62
     7
100
AcDbSpline
210
0.0
220
0.0
230
1.0
 70
     8
 71
     3
 72
    14
 73
    10
 74
     0
 42
0.0000000001
 43
0.0000000001
 40
5.742760929469824
 40
5.742760929469824
 40
5.742760929469824
 40
5.742760929469824
 40
6.0
 40
6.0
 40
6.0
 40
7.0
 40
7.0
 40
7.0
 40
8.0
 40
8.0
 40
8.0
 40
8.0
 10
116.309226001736
 20
72.97849099999996
 30
0.0
 10
116.309226001736
 20
65.39240604098111
 30
0.0
 10
116.309226001736
 20
60.28572591145833
 30
0.0
 10
116.309226001736
 20
60.28572591145833
 30
0.0
 10
116.309226001736
 20
49.93769259982638
 30
0.0
 10
123.6228192092013
 20
43.23491482204859
 30
0.0
 10
146.648114890625
 20
43.23491482204859
 30
0.0
 10
146.648114890625
 20
43.23491482204859
 30
0.0
 10
155.5853816006944
 20
43.23491482204859
 30
0.0
 10
155.5853816006944
 20
43.23491482204859
 30
0.0
  0
SPLINE
  5
253
330
A
100
AcDbEntity
  8
VPORT-BORDERS
 62
     7
100
AcDbSpline
210
0.0
220
0.0
230
1.0
 70
     8
 71
     3
 72
    14
 73
    10
 74
     0
 42
0.0000000001
 43
0.0000000001
 40
5.742760929469824
 40
5.742760929469824
 40
5.742760929469824
 40
5.742760929469824
 40
6.0
 40
6.0
 40
6.0
 40
7.0
 40
7.0
 40
7.0
 40
8.0
 40
8.0
 40
8.0
 40
8.0
 10
113.809226001736
 20
72.97849099999997
 30
0.0
 10
113.809226001736
 20
65.39240604098113
 30
0.0
 10
113.809226001736
 20
60.28572591145834
 30
0.0
 10
113.809226001736
 20
60.28572591145834
 30
0.0
 10
113.809226001736
 20
49.9376925998264
 30
0.0
 10
121.1228192092013
 20
43.2349148220486
 30
0.0
 10
144.148114890625
 20
43.2349148220486
 30
0.0
 10
144.148114890625
 20
43.2349148220486
 30
0.0
 10
153.0853816006944
 20
43.2349148220486
 30
0.0
 10
153.0853816006944
 20
43.2349148220486
 30
0.0
  0
SPLINE
  5
254
330
A
100
AcDbEntity
  8
VPORT-BORDERS
 62
     7
100
AcDbSpline
210
0.0
220
0.0
230
1.0
 70
     8
 71
     3
 72
    14
 73
    10
 74
     0
 42
0.0000000001
 43
0.0000000001
 40
5.742760929469824
 40
5.742760929469824
 40
5.742760929469824
 40
5.742760929469824
 40
6.0
 40
6.0
 40
6.0
 40
7.0
 40
7.0
 40
7.0
 40
8.0
 40
8.0
 40
8.0
 40
8.0
 10
110.909398
 20
72.97849099999995
 30
0.0
 10
110.909398
 20
65.3924060409811
 30
0.0
 10
110.909398
 20
60.28572591145831
 30
0.0
 10
110.909398
 20
60.28572591145831
 30
0.0
 10
110.909398
 20
49.93769259982637
 30
0.0
 10
118.2229912074653
 20
43.23491482204858
 30
0.0
 10
141.248286888889
 20
43.23491482204858
 30
0.0
 10
141.248286888889
 20
43.23491482204858
 30
0.0
 10
150.1855535989583
 20
43.23491482204858
 30
0.0
 10
150.1855535989583
 20
43.23491482204858
 30
0.0
  0
ENDSEC
  0
SECTION
  2
OBJECTS
  0
DICTIONARY
  5
19
330
0
100
AcDbDictionary
281
     1
  3
ACAD_COLOR
350
DD
  3
ACAD_GROUP
350
1A
  3
ACAD_LAYOUT
350
1E
  3
ACAD_MATERIAL
350
DC
  3
ACAD_MLINESTYLE
350
1B
  3
ACAD_PLOTSETTINGS
350
22
  3
ACAD_PLOTSTYLENAME
350
1F
  3
ACAD_TABLESTYLE
350
DE
  3
ACAD_WIPEOUT_VARS
350
23
  3
ACDBHEADERROUNDTRIPXREC
350
25A
  3
AcDbVariableDictionary
350
16F
  0
DICTIONARY
  5
16C
330
A
100
AcDbDictionary
280
     1
281
     1
  3
ACAD_SORTENTS
360
16D
  0
DICTIONARY
  5
DD
102
{ACAD_REACTORS
330
19
102
}
330
19
100
AcDbDictionary
281
     1
  0
DICTIONARY
  5
1A
102
{ACAD_REACTORS
330
19
102
}
330
19
100
AcDbDictionary
281
     1
  0
DICTIONARY
  5
1E
102
{ACAD_REACTORS
330
19
102
}
330
19
100
AcDbDictionary
281
     1
  3
Layout1
350
21
  3
Model
350
20
  0
DICTIONARY
  5
DC
102
{ACAD_REACTORS
330
19
102
}
330
19
100
AcDbDictionary
281
     1
  0
DICTIONARY
  5
1B
102
{ACAD_REACTORS
330
19
102
}
330
19
100
AcDbDictionary
281
     1
  3
Standard
350
1C
  0
DICTIONARY
  5
22
102
{ACAD_REACTORS
330
19
102
}
330
19
100
AcDbDictionary
281
     1
  0
ACDBDICTIONARYWDFLT
  5
1F
102
{ACAD_REACTORS
330
19
102
}
330
19
100
AcDbDictionary
281
     1
  3
Normal
350
1D
100
AcDbDictionaryWithDefault
340
1D
  0
DICTIONARY
  5
DE
102
{ACAD_REACTORS
330
19
102
}
330
19
100
AcDbDictionary
281
     1
  3
Standard
350
DF
  0
WIPEOUTVARIABLES
  5
23
330
19
100
AcDbWipeoutVariables
 70
     1
  0
DICTIONARY
  5
25A
102
{ACAD_REACTORS
330
19
102
}
330
19
100
AcDbDictionary
281
     1
  3
CEPSNTYPE
350
264
  3
DIMSTYLEDATA
350
268
  3
FINGERPRINTGUID
350
265
  3
HYPERLINKBASE
350
25D
  3
INSUNITS
350
263
  3
LAYOUTDICT
350
25F
  3
LWETCUNION
350
262
  3
PLOTSETDICT
350
260
  3
PLOTSTYLNAMDICT
350
261
  3
PSVPSCALE
350
267
  3
PUCSBASE
350
26B
  3
PUCSORGBACK
350
271
  3
PUCSORGBOTTOM
350
26D
  3
PUCSORGFRONT
350
270
  3
PUCSORGLEFT
350
26E
  3
PUCSORGRIGHT
350
26F
  3
PUCSORGTOP
350
26C
  3
PUCSORTHOREF
350
269
  3
PUCSORTHOVIEW
350
26A
  3
STYLESHEET
350
25E
  3
TSTACKALIGN
350
25B
  3
TSTACKSIZE
350
25C
  3
UCSBASE
350
274
  3
UCSORGBACK
350
27A
  3
UCSORGBOTTOM
350
276
  3
UCSORGFRONT
350
279
  3
UCSORGLEFT
350
277
  3
UCSORGRIGHT
350
278
  3
UCSORGTOP
350
275
  3
UCSORTHOREF
350
272
  3
UCSORTHOVIEW
350
273
  3
VERSIONGUID
350
266
  0
DICTIONARY
  5
16F
102
{ACAD_REACTORS
330
19
102
}
330
19
100
AcDbDictionary
281
     1
  3
CTABLESTYLE
350
170
  3
DIMASSOC
350
171
  3
PROJECTNAME
350
172
  0
SORTENTSTABLE
  5
16D
102
{ACAD_REACTORS
330
16C
102
}
330
16C
100
AcDbSortentsTable
330
A
331
4F
  5
51
331
4D
  5
4F
331
4B
  5
4D
331
49
  5
4B
331
2D
  5
43
331
52
  5
168
331
50
  5
52
331
16B
  5
38
331
4E
  5
50
331
4C
  5
4E
331
4A
  5
4C
331
43
  5
4A
331
38
  5
49
331
51
  5
54
331
16E
  5
2D
  0
LAYOUT
  5
21
102
{ACAD_XDICTIONARY
360
184
102
}
102
{ACAD_REACTORS
330
1E
102
}
330
1E
100
AcDbPlotSettings
  1

  2

  4

  6

 40
0.0
 41
0.0
 42
0.0
 43
0.0
 44
0.0
 45
0.0
 46
0.0
 47
0.0
 48
0.0
 49
0.0
140
0.0
141
0.0
142
1.0
143
1.0
 70
     0
 72
     0
 73
     0
 74
     0
  7

 75
     0
147
1.0
148
0.0
149
0.0
100
AcDbLayout
  1
Layout1
 70
     0
 71
     1
 10
0.0
 20
0.0
 11
12.0
 21
9.0
 12
0.0
 22
0.0
 32
0.0
 14
1.000000000000000E+20
 24
1.000000000000000E+20
 34
1.000000000000000E+20
 15
-1.000000000000000E+20
 25
-1.000000000000000E+20
 35
-1.000000000000000E+20
146
0.0
 13
0.0
 23
0.0
 33
0.0
 16
1.0
 26
0.0
 36
0.0
 17
0.0
 27
1.0
 37
0.0
 76
     0
330
B
  0
LAYOUT
  5
20
102
{ACAD_XDICTIONARY
360
182
102
}
102
{ACAD_REACTORS
330
1E
102
}
330
1E
100
AcDbPlotSettings
  1

  2
\\PRINT_SERV\RICOH IPSiO NX760 RPCS
  4
A4
  6

 40
5.873749732971191
 41
5.873747825622558
 42
5.873748779296875
 43
5.873748779296875
 44
209.9733276367187
 45
296.9259948730469
 46
0.0
 47
0.0
 48
0.0
 49
0.0
140
0.0
141
0.0
142
1.0
143
1.0
 70
 11264
 72
     0
 73
     1
 74
     0
  7

 75
     0
147
1.0
148
1216.979660526465
149
268.3347136592915
100
AcDbLayout
  1
Model
 70
     0
 71
     0
 10
0.0
 20
0.0
 11
0.0
 21
0.0
 12
0.0
 22
0.0
 32
0.0
 14
0.0
 24
0.0
 34
0.0
 15
0.0
 25
0.0
 35
0.0
146
0.0
 13
0.0
 23
0.0
 33
0.0
 16
0.0
 26
0.0
 36
0.0
 17
0.0
 27
0.0
 37
0.0
 76
     0
330
A
  0
MLINESTYLE
  5
1C
102
{ACAD_REACTORS
330
1B
102
}
330
1B
100
AcDbMlineStyle
  2
STANDARD
 70
     0
  3

 62
     0
 51
90.0
 52
90.0
 71
     2
 49
0.5
 62
   256
  6
BYLAYER
 49
-0.5
 62
   256
  6
BYLAYER
  0
ACDBPLACEHOLDER
  5
1D
102
{ACAD_REACTORS
330
1F
102
}
330
1F
  0
TABLESTYLE
  5
DF
102
{ACAD_REACTORS
330
DE
102
}
330
DE
100
AcDbTableStyle
  3
Standard
 70
     0
 71
     0
 40
0.06
 41
0.06
280
     0
281
     0
  7
Standard
140
0.18
170
     2
 62
     0
 63
     7
283
     0
274
    -2
284
     1
 64
     0
275
    -2
285
     1
 65
     0
276
    -2
286
     1
 66
     0
277
    -2
287
     1
 67
     0
278
    -2
288
     1
 68
     0
279
    -2
289
     1
 69
     0
  7
Standard
140
0.25
170
     5
 62
     0
 63
     7
283
     0
274
    -2
284
     1
 64
     0
275
    -2
285
     1
 65
     0
276
    -2
286
     1
 66
     0
277
    -2
287
     1
 67
     0
278
    -2
288
     1
 68
     0
279
    -2
289
     1
 69
     0
  7
Standard
140
0.18
170
     5
 62
     0
 63
     7
283
     0
274
    -2
284
     1
 64
     0
275
    -2
285
     1
 65
     0
276
    -2
286
     1
 66
     0
277
    -2
287
     1
 67
     0
278
    -2
288
     1
 68
     0
279
    -2
289
     1
 69
     0
  0
XRECORD
  5
264
102
{ACAD_REACTORS
330
25A
102
}
330
25A
100
AcDbXrecord
280
     1
 90
        0
  0
XRECORD
  5
268
102
{ACAD_REACTORS
330
25A
102
}
330
25A
100
AcDbXrecord
280
     1
1000
DSTYLE
1002
{
1070
   278
 70
     0
1070
   371
 70
     0
1070
   372
 70
     0
1002
}
  0
XRECORD
  5
265
102
{ACAD_REACTORS
330
25A
102
}
330
25A
100
AcDbXrecord
280
     1
  1

  0
XRECORD
  5
25D
102
{ACAD_REACTORS
330
25A
102
}
330
25A
100
AcDbXrecord
280
     1
  1

  0
XRECORD
  5
263
102
{ACAD_REACTORS
330
25A
102
}
330
25A
100
AcDbXrecord
280
     1
 90
        0
  0
XRECORD
  5
25F
102
{ACAD_REACTORS
330
25A
102
}
330
25A
100
AcDbXrecord
280
     1
340
1E
  0
XRECORD
  5
262
102
{ACAD_REACTORS
330
25A
102
}
330
25A
100
AcDbXrecord
280
     1
 90
    10752
  0
XRECORD
  5
260
102
{ACAD_REACTORS
330
25A
102
}
330
25A
100
AcDbXrecord
280
     1
340
22
  0
XRECORD
  5
261
102
{ACAD_REACTORS
330
25A
102
}
330
25A
100
AcDbXrecord
280
     1
340
1F
  0
XRECORD
  5
267
102
{ACAD_REACTORS
330
25A
102
}
330
25A
100
AcDbXrecord
280
     1
 40
0.0
  0
XRECORD
  5
26B
102
{ACAD_REACTORS
330
25A
102
}
330
25A
100
AcDbXrecord
280
     1
340
0
  0
XRECORD
  5
271
102
{ACAD_REACTORS
330
25A
102
}
330
25A
100
AcDbXrecord
280
     1
 10
0.0
 20
0.0
 30
0.0
  0
XRECORD
  5
26D
102
{ACAD_REACTORS
330
25A
102
}
330
25A
100
AcDbXrecord
280
     1
 10
0.0
 20
0.0
 30
0.0
  0
XRECORD
  5
270
102
{ACAD_REACTORS
330
25A
102
}
330
25A
100
AcDbXrecord
280
     1
 10
0.0
 20
0.0
 30
0.0
  0
XRECORD
  5
26E
102
{ACAD_REACTORS
330
25A
102
}
330
25A
100
AcDbXrecord
280
     1
 10
0.0
 20
0.0
 30
0.0
  0
XRECORD
  5
26F
102
{ACAD_REACTORS
330
25A
102
}
330
25A
100
AcDbXrecord
280
     1
 10
0.0
 20
0.0
 30
0.0
  0
XRECORD
  5
26C
102
{ACAD_REACTORS
330
25A
102
}
330
25A
100
AcDbXrecord
280
     1
 10
0.0
 20
0.0
 30
0.0
  0
XRECORD
  5
269
102
{ACAD_REACTORS
330
25A
102
}
330
25A
100
AcDbXrecord
280
     1
340
0
  0
XRECORD
  5
26A
102
{ACAD_REACTORS
330
25A
102
}
330
25A
100
AcDbXrecord
280
     1
 70
     0
  0
XRECORD
  5
25E
102
{ACAD_REACTORS
330
25A
102
}
330
25A
100
AcDbXrecord
280
     1
  1

  0
XRECORD
  5
25B
102
{ACAD_REACTORS
330
25A
102
}
330
25A
100
AcDbXrecord
280
     1
 90
        1
  0
XRECORD
  5
25C
102
{ACAD_REACTORS
330
25A
102
}
330
25A
100
AcDbXrecord
280
     1
 90
       70
  0
XRECORD
  5
274
102
{ACAD_REACTORS
330
25A
102
}
330
25A
100
AcDbXrecord
280
     1
340
0
  0
XRECORD
  5
27A
102
{ACAD_REACTORS
330
25A
102
}
330
25A
100
AcDbXrecord
280
     1
 10
0.0
 20
0.0
 30
0.0
  0
XRECORD
  5
276
102
{ACAD_REACTORS
330
25A
102
}
330
25A
100
AcDbXrecord
280
     1
 10
0.0
 20
0.0
 30
0.0
  0
XRECORD
  5
279
102
{ACAD_REACTORS
330
25A
102
}
330
25A
100
AcDbXrecord
280
     1
 10
0.0
 20
0.0
 30
0.0
  0
XRECORD
  5
277
102
{ACAD_REACTORS
330
25A
102
}
330
25A
100
AcDbXrecord
280
     1
 10
0.0
 20
0.0
 30
0.0
  0
XRECORD
  5
278
102
{ACAD_REACTORS
330
25A
102
}
330
25A
100
AcDbXrecord
280
     1
 10
0.0
 20
0.0
 30
0.0
  0
XRECORD
  5
275
102
{ACAD_REACTORS
330
25A
102
}
330
25A
100
AcDbXrecord
280
     1
 10
0.0
 20
0.0
 30
0.0
  0
XRECORD
  5
272
102
{ACAD_REACTORS
330
25A
102
}
330
25A
100
AcDbXrecord
280
     1
340
0
  0
XRECORD
  5
273
102
{ACAD_REACTORS
330
25A
102
}
330
25A
100
AcDbXrecord
280
     1
 70
     0
  0
XRECORD
  5
266
102
{ACAD_REACTORS
330
25A
102
}
330
25A
100
AcDbXrecord
280
     1
  1
{18F5459D-4FF4-4F18-87A2-B9A7918F44DF}
  0
DICTIONARYVAR
  5
170
102
{ACAD_REACTORS
330
16F
102
}
330
16F
100
DictionaryVariables
280
     0
  1
STANDARD
  0
DICTIONARYVAR
  5
171
102
{ACAD_REACTORS
330
16F
102
}
330
16F
100
DictionaryVariables
280
     0
  1
1
  0
DICTIONARYVAR
  5
172
102
{ACAD_REACTORS
330
16F
102
}
330
16F
100
DictionaryVariables
280
     0
  1

  0
DICTIONARY
  5
184
330
21
100
AcDbDictionary
280
     1
281
     1
  3
ACAD_XREC_ROUNDTRIP
360
185
  0
DICTIONARY
  5
182
330
20
100
AcDbDictionary
280
     1
281
     1
  3
ACAD_XREC_ROUNDTRIP
360
183
  0
XRECORD
  5
185
102
{ACAD_REACTORS
330
184
102
}
330
184
100
AcDbXrecord
280
     1
102
SHADEPLOT
 70
     0
102
SHADEPLOTRESLEVEL
 70
     2
102
SHADEPLOTCUSTOMDPI
 70
   300
  0
XRECORD
  5
183
102
{ACAD_REACTORS
330
182
102
}
330
182
100
AcDbXrecord
280
     1
102
SHADEPLOT
 70
     0
102
SHADEPLOTRESLEVEL
 70
     2
102
SHADEPLOTCUSTOMDPI
 70
   300
  0
ENDSEC
  0
EOF
