  0
SECTION
  2
HEADER
  9
$ACADVER
  1
AC1015
  9
$ACADMAINTVER
 70
    10
  9
$DWGCODEPAGE
  3
ANSI_932
  9
$INSBASE
 10
0.0
 20
0.0
 30
0.0
  9
$EXTMIN
 10
9.827381655805879
 20
14.77323613590863
 30
-0.0000000000112498
  9
$EXTMAX
 10
214.9679887938762
 20
290.0000084849402
 30
0.0000000000002956
  9
$LIMMIN
 10
-13.766774
 20
-25.52609
  9
$LIMMAX
 10
216.4009169999999
 20
309.4953209999999
  9
$ORTHOMODE
 70
     1
  9
$REGENMODE
 70
     1
  9
$FILLMODE
 70
     1
  9
$QTEXTMODE
 70
     0
  9
$MIRRTEXT
 70
     1
  9
$LTSCALE
 40
1.0
  9
$ATTMODE
 70
     1
  9
$TEXTSIZE
 40
0.0
  9
$TRACEWID
 40
0.05
  9
$TEXTSTYLE
  7
Standard
  9
$CLAYER
  8
0
  9
$CELTYPE
  6
Continuous
  9
$CECOLOR
 62
   256
  9
$CELTSCALE
 40
1.0
  9
$DISPSILH
 70
     0
  9
$DIMSCALE
 40
1.0
  9
$DIMASZ
 40
0.18
  9
$DIMEXO
 40
0.0625
  9
$DIMDLI
 40
0.38
  9
$DIMRND
 40
0.0
  9
$DIMDLE
 40
0.0
  9
$DIMEXE
 40
0.18
  9
$DIMTP
 40
0.0
  9
$DIMTM
 40
0.0
  9
$DIMTXT
 40
0.18
  9
$DIMCEN
 40
0.09
  9
$DIMTSZ
 40
0.0
  9
$DIMTOL
 70
     0
  9
$DIMLIM
 70
     0
  9
$DIMTIH
 70
     1
  9
$DIMTOH
 70
     1
  9
$DIMSE1
 70
     0
  9
$DIMSE2
 70
     0
  9
$DIMTAD
 70
     0
  9
$DIMZIN
 70
     0
  9
$DIMBLK
  1

  9
$DIMASO
 70
     1
  9
$DIMSHO
 70
     1
  9
$DIMPOST
  1

  9
$DIMAPOST
  1

  9
$DIMALT
 70
     0
  9
$DIMALTD
 70
     2
  9
$DIMALTF
 40
25.4
  9
$DIMLFAC
 40
1.0
  9
$DIMTOFL
 70
     0
  9
$DIMTVP
 40
0.0
  9
$DIMTIX
 70
     0
  9
$DIMSOXD
 70
     0
  9
$DIMSAH
 70
     0
  9
$DIMBLK1
  1

  9
$DIMBLK2
  1

  9
$DIMSTYLE
  2
Standard
  9
$DIMCLRD
 70
     0
  9
$DIMCLRE
 70
     0
  9
$DIMCLRT
 70
     0
  9
$DIMTFAC
 40
1.0
  9
$DIMGAP
 40
0.09
  9
$DIMJUST
 70
     0
  9
$DIMSD1
 70
     0
  9
$DIMSD2
 70
     0
  9
$DIMTOLJ
 70
     1
  9
$DIMTZIN
 70
     0
  9
$DIMALTZ
 70
     0
  9
$DIMALTTZ
 70
     0
  9
$DIMUPT
 70
     0
  9
$DIMDEC
 70
     4
  9
$DIMTDEC
 70
     4
  9
$DIMALTU
 70
     2
  9
$DIMALTTD
 70
     2
  9
$DIMTXSTY
  7
Standard
  9
$DIMAUNIT
 70
     0
  9
$DIMADEC
 70
     0
  9
$DIMALTRND
 40
0.0
  9
$DIMAZIN
 70
     0
  9
$DIMDSEP
 70
     0
  9
$DIMATFIT
 70
     3
  9
$DIMFRAC
 70
     0
  9
$DIMLDRBLK
  1

  9
$DIMLUNIT
 70
     2
  9
$DIMLWD
 70
     0
  9
$DIMLWE
 70
     0
  9
$DIMTMOVE
 70
     0
  9
$LUNITS
 70
     2
  9
$LUPREC
 70
     4
  9
$SKETCHINC
 40
0.1
  9
$FILLETRAD
 40
0.0
  9
$AUNITS
 70
     0
  9
$AUPREC
 70
     0
  9
$MENU
  1
acad
  9
$ELEVATION
 40
0.0
  9
$PELEVATION
 40
0.0
  9
$THICKNESS
 40
0.0
  9
$LIMCHECK
 70
     0
  9
$CHAMFERA
 40
0.0
  9
$CHAMFERB
 40
0.0
  9
$CHAMFERC
 40
0.0
  9
$CHAMFERD
 40
0.0
  9
$SKPOLY
 70
     0
  9
$TDCREATE
 40
2454651.438581088
  9
$TDUCREATE
 40
2454651.063581088
  9
$TDUPDATE
 40
2454882.558084491
  9
$TDUUPDATE
 40
2454882.183084491
  9
$TDINDWG
 40
0.0132825231
  9
$TDUSRTIMER
 40
0.0132816204
  9
$USRTIMER
 70
     1
  9
$ANGBASE
 50
0.0
  9
$ANGDIR
 70
     0
  9
$PDMODE
 70
     0
  9
$PDSIZE
 40
0.0
  9
$PLINEWID
 40
0.0
  9
$SPLFRAME
 70
     0
  9
$SPLINETYPE
 70
     6
  9
$SPLINESEGS
 70
     8
  9
$HANDSEED
  5
1D9
  9
$SURFTAB1
 70
     6
  9
$SURFTAB2
 70
     6
  9
$SURFTYPE
 70
     6
  9
$SURFU
 70
     6
  9
$SURFV
 70
     6
  9
$UCSBASE
  2

  9
$UCSNAME
  2

  9
$UCSORG
 10
0.0
 20
0.0
 30
0.0
  9
$UCSXDIR
 10
1.0
 20
0.0
 30
0.0
  9
$UCSYDIR
 10
0.0
 20
1.0
 30
0.0
  9
$UCSORTHOREF
  2

  9
$UCSORTHOVIEW
 70
     0
  9
$UCSORGTOP
 10
0.0
 20
0.0
 30
0.0
  9
$UCSORGBOTTOM
 10
0.0
 20
0.0
 30
0.0
  9
$UCSORGLEFT
 10
0.0
 20
0.0
 30
0.0
  9
$UCSORGRIGHT
 10
0.0
 20
0.0
 30
0.0
  9
$UCSORGFRONT
 10
0.0
 20
0.0
 30
0.0
  9
$UCSORGBACK
 10
0.0
 20
0.0
 30
0.0
  9
$PUCSBASE
  2

  9
$PUCSNAME
  2

  9
$PUCSORG
 10
0.0
 20
0.0
 30
0.0
  9
$PUCSXDIR
 10
1.0
 20
0.0
 30
0.0
  9
$PUCSYDIR
 10
0.0
 20
1.0
 30
0.0
  9
$PUCSORTHOREF
  2

  9
$PUCSORTHOVIEW
 70
     0
  9
$PUCSORGTOP
 10
0.0
 20
0.0
 30
0.0
  9
$PUCSORGBOTTOM
 10
0.0
 20
0.0
 30
0.0
  9
$PUCSORGLEFT
 10
0.0
 20
0.0
 30
0.0
  9
$PUCSORGRIGHT
 10
0.0
 20
0.0
 30
0.0
  9
$PUCSORGFRONT
 10
0.0
 20
0.0
 30
0.0
  9
$PUCSORGBACK
 10
0.0
 20
0.0
 30
0.0
  9
$USERI1
 70
     0
  9
$USERI2
 70
     0
  9
$USERI3
 70
     0
  9
$USERI4
 70
     0
  9
$USERI5
 70
     0
  9
$USERR1
 40
0.0
  9
$USERR2
 40
0.0
  9
$USERR3
 40
0.0
  9
$USERR4
 40
0.0
  9
$USERR5
 40
0.0
  9
$WORLDVIEW
 70
     1
  9
$SHADEDGE
 70
     3
  9
$SHADEDIF
 70
    70
  9
$TILEMODE
 70
     1
  9
$MAXACTVP
 70
    16
  9
$PINSBASE
 10
0.0
 20
0.0
 30
0.0
  9
$PLIMCHECK
 70
     0
  9
$PEXTMIN
 10
1.000000000000000E+20
 20
1.000000000000000E+20
 30
1.000000000000000E+20
  9
$PEXTMAX
 10
-1.000000000000000E+20
 20
-1.000000000000000E+20
 30
-1.000000000000000E+20
  9
$PLIMMIN
 10
0.0
 20
0.0
  9
$PLIMMAX
 10
12.0
 20
9.0
  9
$UNITMODE
 70
     0
  9
$VISRETAIN
 70
     0
  9
$PLINEGEN
 70
     1
  9
$PSLTSCALE
 70
     0
  9
$TREEDEPTH
 70
  3020
  9
$CMLSTYLE
  2
Standard
  9
$CMLJUST
 70
     0
  9
$CMLSCALE
 40
1.0
  9
$PROXYGRAPHICS
 70
     0
  9
$MEASUREMENT
 70
     0
  9
$CELWEIGHT
370
     0
  9
$ENDCAPS
280
     0
  9
$JOINSTYLE
280
     0
  9
$LWDISPLAY
290
     0
  9
$INSUNITS
 70
     0
  9
$HYPERLINKBASE
  1

  9
$STYLESHEET
  1

  9
$XEDIT
290
     1
  9
$CEPSNTYPE
380
     0
  9
$PSTYLEMODE
290
     1
  9
$FINGERPRINTGUID
  2

  9
$VERSIONGUID
  2
{1B9AA91E-A15B-4CE5-B552-5E73DB973248}
  9
$EXTNAMES
290
     1
  9
$PSVPSCALE
 40
0.0
  9
$OLESTARTUP
290
     0
  0
ENDSEC
  0
SECTION
  2
CLASSES
  0
CLASS
  1
IMAGE
  2
AcDbRasterImage
  3
ISM
 90
    32895
280
     0
281
     1
  0
CLASS
  1
DICTIONARYVAR
  2
AcDbDictionaryVar
  3
AutoCAD 2000
 90
        0
280
     0
281
     0
  0
CLASS
  1
RASTERVARIABLES
  2
AcDbRasterVariables
  3
ISM
 90
    32768
280
     0
281
     0
  0
CLASS
  1
IMAGEDEF
  2
AcDbRasterImageDef
  3
ISM
 90
    32768
280
     0
281
     0
  0
CLASS
  1
IMAGEDEF_REACTOR
  2
AcDbRasterImageDefReactor
  3
ISM
 90
    32769
280
     0
281
     0
  0
CLASS
  1
IDBUFFER
  2
AcDbIdBuffer
  3
AutoCAD 2000
 90
    32768
280
     0
281
     0
  0
CLASS
  1
SPATIAL_FILTER
  2
AcDbSpatialFilter
  3
AutoCAD 2000
 90
    32768
280
     0
281
     0
  0
CLASS
  1
SORTENTSTABLE
  2
AcDbSortentsTable
  3
AutoCAD 2000
 90
    32768
280
     0
281
     0
  0
CLASS
  1
LAYER_INDEX
  2
AcDbLayerIndex
  3
AutoCAD 2000
 90
    32768
280
     0
281
     0
  0
CLASS
  1
SPATIAL_INDEX
  2
AcDbSpatialIndex
  3
AutoCAD 2000
 90
    32768
280
     0
281
     0
  0
CLASS
  1
OBJECT_PTR
  2
CAseDLPNTableRecord
  3
"ASE-LPNTableRecord"
 90
    32769
280
     0
281
     0
  0
CLASS
  1
LAYOUT
  2
AcDbLayout
  3
AutoCAD 2000
 90
        0
280
     0
281
     0
  0
CLASS
  1
PLOTSETTINGS
  2
AcDbPlotSettings
  3
AutoCAD 2000
 90
    32768
280
     0
281
     0
  0
CLASS
  1
ACDBDICTIONARYWDFLT
  2
AcDbDictionaryWithDefault
  3
AutoCAD 2000
 90
        0
280
     0
281
     0
  0
CLASS
  1
ACDBPLACEHOLDER
  2
AcDbPlaceHolder
  3
AutoCAD 2000
 90
        0
280
     0
281
     0
  0
CLASS
  1
VBA_PROJECT
  2
AcDbVbaProject
  3
acad
 90
    32768
280
     0
281
     0
  0
CLASS
  1
WIPEOUT
  2
AcDbWipeout
  3
"WipeOut|Product Desc: Object Enabler for WipeOut entity^I^I^I^I^I^I|Company: Autodesk, Inc.^I^I^I^I^I^I|WEB Address: www.autodesk.com"
 90
    32895
280
     0
281
     1
  0
CLASS
  1
WIPEOUTVARIABLES
  2
AcDbWipeoutVariables
  3
"WipeOut|Product Desc:     WipeOut Dbx Application|Company:          Autodesk, Inc.|WEB Address:      www.autodesk.com"
 90
        0
280
     0
281
     0
  0
CLASS
  1
RTEXT
  2
RText
  3
RText|AutoCAD Express Tool|expresstools@autodesk.com
 90
    32768
280
     0
281
     1
  0
CLASS
  1
ARCALIGNEDTEXT
  2
AcDbArcAlignedText
  3
ATEXT|AutoCAD Express Tool|expresstools@autodesk.com
 90
    32768
280
     0
281
     1
  0
CLASS
  1
TABLESTYLE
  2
AcDbTableStyle
  3
ObjectDBX Classes
 90
     2047
280
     0
281
     0
  0
ENDSEC
  0
SECTION
  2
TABLES
  0
TABLE
  2
VPORT
  5
7
330
0
100
AcDbSymbolTable
 70
     2
  0
VPORT
  5
1B7
330
7
100
AcDbSymbolTableRecord
100
AcDbViewportTableRecord
  2
*Active
 70
     0
 10
0.0
 20
0.0
 11
1.0
 21
1.0
 12
112.397685224841
 22
152.3866223104244
 13
0.0
 23
0.0
 14
1.0
 24
1.0
 15
0.0
 25
0.0
 16
0.0
 26
0.0
 36
1.0
 17
0.0
 27
0.0
 37
0.0
 40
277.3996152886293
 41
1.550724637681159
 42
50.0
 43
0.0
 44
0.0
 50
0.0
 51
0.0
 71
     0
 72
   100
 73
     1
 74
     1
 75
     0
 76
     0
 77
     0
 78
     0
281
     0
 65
     0
110
0.0
120
0.0
130
0.0
111
1.0
121
0.0
131
0.0
112
0.0
122
1.0
132
0.0
 79
     0
146
0.0
  0
ENDTAB
  0
TABLE
  2
LTYPE
  5
4
330
0
100
AcDbSymbolTable
 70
     1
  0
LTYPE
  5
11
330
4
100
AcDbSymbolTableRecord
100
AcDbLinetypeTableRecord
  2
ByBlock
 70
     0
  3

 72
    65
 73
     0
 40
0.0
  0
LTYPE
  5
12
330
4
100
AcDbSymbolTableRecord
100
AcDbLinetypeTableRecord
  2
ByLayer
 70
     0
  3

 72
    65
 73
     0
 40
0.0
  0
LTYPE
  5
13
330
4
100
AcDbSymbolTableRecord
100
AcDbLinetypeTableRecord
  2
Continuous
 70
     0
  3
Solid line
 72
    65
 73
     0
 40
0.0
  0
ENDTAB
  0
TABLE
  2
LAYER
  5
2
330
0
100
AcDbSymbolTable
 70
     6
  0
LAYER
  5
14
330
2
100
AcDbSymbolTableRecord
100
AcDbLayerTableRecord
  2
0
 70
     0
 62
     7
  6
Continuous
370
    -3
390
1D
  0
LAYER
  5
28
330
2
100
AcDbSymbolTableRecord
100
AcDbLayerTableRecord
  2
レイヤー_5
 70
     0
 62
     2
  6
Continuous
370
    -3
390
1F
  0
LAYER
  5
2D
330
2
100
AcDbSymbolTableRecord
100
AcDbLayerTableRecord
  2
VPORT-BORDERS
 70
     0
 62
     5
  6
Continuous
370
    -3
390
1F
  0
LAYER
  5
F5
330
2
100
AcDbSymbolTableRecord
100
AcDbLayerTableRecord
  2
23
 70
     0
 62
     3
  6
Continuous
370
    -3
390
1D
  0
LAYER
  5
F6
330
2
100
AcDbSymbolTableRecord
100
AcDbLayerTableRecord
  2
24
 70
     0
 62
     1
  6
Continuous
370
    -3
390
1D
  0
LAYER
  5
F7
330
2
100
AcDbSymbolTableRecord
100
AcDbLayerTableRecord
  2
200
 70
     0
 62
     1
  6
Continuous
370
    -3
390
1D
  0
ENDTAB
  0
TABLE
  2
STYLE
  5
3
330
0
100
AcDbSymbolTable
 70
     3
  0
STYLE
  5
17
330
3
100
AcDbSymbolTableRecord
100
AcDbTextStyleTableRecord
  2
Standard
 70
     0
 40
0.0
 41
1.0
 50
0.0
 71
     0
 42
0.0
  3
txt
  4

  0
STYLE
  5
24
330
3
100
AcDbSymbolTableRecord
100
AcDbTextStyleTableRecord
  2
STD
 70
     0
 40
0.0
 41
1.0
 50
0.0
 71
     0
 42
0.0
  3
txt
  4

  0
STYLE
  5
26
330
3
100
AcDbSymbolTableRecord
100
AcDbTextStyleTableRecord
  2
KANJISTD
 70
     0
 40
0.0
 41
1.0
 50
0.0
 71
     0
 42
0.0
  3
txt
  4
extfont
  0
ENDTAB
  0
TABLE
  2
VIEW
  5
5
330
0
100
AcDbSymbolTable
 70
     0
  0
ENDTAB
  0
TABLE
  2
UCS
  5
6
330
0
100
AcDbSymbolTable
 70
     0
  0
ENDTAB
  0
TABLE
  2
APPID
  5
8
330
0
100
AcDbSymbolTable
 70
     1
  0
APPID
  5
16
330
8
100
AcDbSymbolTableRecord
100
AcDbRegAppTableRecord
  2
ACAD
 70
     0
  0
ENDTAB
  0
TABLE
  2
DIMSTYLE
  5
9
330
0
100
AcDbSymbolTable
 70
     1
100
AcDbDimStyleTable
 71
     0
  0
DIMSTYLE
105
18
330
9
100
AcDbSymbolTableRecord
100
AcDbDimStyleTableRecord
  2
Standard
 70
     0
340
17
  0
ENDTAB
  0
TABLE
  2
BLOCK_RECORD
  5
1
330
0
100
AcDbSymbolTable
 70
     4
  0
BLOCK_RECORD
  5
A
330
1
100
AcDbSymbolTableRecord
100
AcDbBlockTableRecord
  2
*MODEL_SPACE
340
20
  0
BLOCK_RECORD
  5
B
330
1
100
AcDbSymbolTableRecord
100
AcDbBlockTableRecord
  2
*PAPER_SPACE
340
21
  0
BLOCK_RECORD
  5
2E
330
1
100
AcDbSymbolTableRecord
100
AcDbBlockTableRecord
  2
AI9-BLK1
340
0
102
{BLKREFS
331
2F
102
}
  0
BLOCK_RECORD
  5
39
330
1
100
AcDbSymbolTableRecord
100
AcDbBlockTableRecord
  2
AI9-BLK2
340
0
102
{BLKREFS
331
3A
102
}
  0
BLOCK_RECORD
  5
44
330
1
100
AcDbSymbolTableRecord
100
AcDbBlockTableRecord
  2
AI9-BLK3
340
0
102
{BLKREFS
331
45
102
}
  0
BLOCK_RECORD
  5
F8
330
1
100
AcDbSymbolTableRecord
100
AcDbBlockTableRecord
  2
A$C54C04C6C
340
0
102
{BLKREFS
331
17F
102
}
  0
ENDTAB
  0
ENDSEC
  0
SECTION
  2
BLOCKS
  0
BLOCK
  5
D
330
A
100
AcDbEntity
  8
0
100
AcDbBlockBegin
  2
*MODEL_SPACE
 70
     0
 10
0.0
 20
0.0
 30
0.0
  3
*MODEL_SPACE
  1

  0
ENDBLK
  5
E
330
A
100
AcDbEntity
  8
0
100
AcDbBlockEnd
  0
BLOCK
  5
F
330
B
100
AcDbEntity
 67
     1
  8
0
100
AcDbBlockBegin
  2
*PAPER_SPACE
 70
     0
 10
0.0
 20
0.0
 30
0.0
  3
*PAPER_SPACE
  1

  0
ENDBLK
  5
10
330
B
100
AcDbEntity
 67
     1
  8
0
100
AcDbBlockEnd
  0
BLOCK
  5
30
330
2E
100
AcDbEntity
  8
VPORT-BORDERS
 62
     7
100
AcDbBlockBegin
  2
AI9-BLK1
 70
     0
 10
0.0
 20
0.0
 30
0.0
  3
AI9-BLK1
  1

  0
POLYLINE
  5
32
330
2E
100
AcDbEntity
  8
VPORT-BORDERS
 62
     7
100
AcDb2dPolyline
 66
     1
 10
0.0
 20
0.0
 30
0.0
 70
     1
  0
VERTEX
  5
33
330
32
100
AcDbEntity
  8
VPORT-BORDERS
 62
     7
100
AcDbVertex
100
AcDb2dVertex
 10
4.314981999999997
 20
-2.057755999999999
 30
0.0
  0
VERTEX
  5
34
330
32
100
AcDbEntity
  8
VPORT-BORDERS
 62
     7
100
AcDbVertex
100
AcDb2dVertex
 10
-4.314981999999997
 20
-2.057755999999999
 30
0.0
  0
VERTEX
  5
35
330
32
100
AcDbEntity
  8
VPORT-BORDERS
 62
     7
100
AcDbVertex
100
AcDb2dVertex
 10
-4.314981999999997
 20
2.057755999999999
 30
0.0
  0
VERTEX
  5
36
330
32
100
AcDbEntity
  8
VPORT-BORDERS
 62
     7
100
AcDbVertex
100
AcDb2dVertex
 10
4.314981999999997
 20
2.057755999999999
 30
0.0
  0
SEQEND
  5
37
330
32
100
AcDbEntity
  8
VPORT-BORDERS
 62
     7
  0
MTEXT
  5
31
330
2E
100
AcDbEntity
  8
VPORT-BORDERS
 62
     7
100
AcDbMText
 10
-3.527778
 20
1.396657999999999
 30
0.0
 40
2.624835
 41
0.0
 71
     1
 72
     2
  1
\fGothicBBB Medium|b0|i0|c128;×10
  7
KANJISTD
 73
     1
 44
1.0
1001
ACAD
1000
MTEXTBEGIN
1070
    73
1070
     1
1070
    44
1040
1.0
1070
    74
1070
     0
1000
MTEXTEND
  0
ENDBLK
  5
38
330
2E
100
AcDbEntity
  8
VPORT-BORDERS
100
AcDbBlockEnd
  0
BLOCK
  5
3B
330
39
100
AcDbEntity
  8
VPORT-BORDERS
 62
     7
100
AcDbBlockBegin
  2
AI9-BLK2
 70
     0
 10
0.0
 20
0.0
 30
0.0
  3
AI9-BLK2
  1

  0
POLYLINE
  5
3D
330
39
100
AcDbEntity
  8
VPORT-BORDERS
 62
     7
100
AcDb2dPolyline
 66
     1
 10
0.0
 20
0.0
 30
0.0
 70
     1
  0
VERTEX
  5
3E
330
3D
100
AcDbEntity
  8
VPORT-BORDERS
 62
     7
100
AcDbVertex
100
AcDb2dVertex
 10
3.498321999999998
 20
-2.057755999999999
 30
0.0
  0
VERTEX
  5
3F
330
3D
100
AcDbEntity
  8
VPORT-BORDERS
 62
     7
100
AcDbVertex
100
AcDb2dVertex
 10
-3.498321999999998
 20
-2.057755999999999
 30
0.0
  0
VERTEX
  5
40
330
3D
100
AcDbEntity
  8
VPORT-BORDERS
 62
     7
100
AcDbVertex
100
AcDb2dVertex
 10
-3.498321999999998
 20
2.057755999999999
 30
0.0
  0
VERTEX
  5
41
330
3D
100
AcDbEntity
  8
VPORT-BORDERS
 62
     7
100
AcDbVertex
100
AcDb2dVertex
 10
3.498321999999998
 20
2.057755999999999
 30
0.0
  0
SEQEND
  5
42
330
3D
100
AcDbEntity
  8
VPORT-BORDERS
 62
     7
  0
MTEXT
  5
3C
330
39
100
AcDbEntity
  8
VPORT-BORDERS
 62
     7
100
AcDbMText
 10
-2.645833
 20
1.396657999999999
 30
0.0
 40
2.624835
 41
0.0
 71
     1
 72
     2
  1
\fGothicBBB Medium|b0|i0|c128;×5
  7
KANJISTD
 73
     1
 44
1.0
1001
ACAD
1000
MTEXTBEGIN
1070
    73
1070
     1
1070
    44
1040
1.0
1070
    74
1070
     0
1000
MTEXTEND
  0
ENDBLK
  5
43
330
39
100
AcDbEntity
  8
VPORT-BORDERS
100
AcDbBlockEnd
  0
BLOCK
  5
46
330
44
100
AcDbEntity
  8
VPORT-BORDERS
 62
     7
100
AcDbBlockBegin
  2
AI9-BLK3
 70
     0
 10
0.0
 20
0.0
 30
0.0
  3
AI9-BLK3
  1

  0
LINE
  5
49
330
44
100
AcDbEntity
  8
VPORT-BORDERS
 62
     7
100
AcDbLine
 10
-6.502876
 20
0.000345
 30
0.0
 11
6.502876
 21
0.000345
 31
0.0
  0
HATCH
  5
48
330
44
100
AcDbEntity
  8
VPORT-BORDERS
 62
     7
100
AcDbHatch
 10
0.0
 20
0.0
 30
0.0
210
0.0
220
0.0
230
1.0
  2
SOLID
 70
     1
 71
     0
 91
        1
 92
        3
 72
     0
 73
     1
 93
        3
 10
-5.315179443359373
 20
-1.117244466145832
 10
-6.608640543619791
 20
0.0003445095486111
 10
-5.315179443359373
 20
1.117244466145832
 97
        0
 75
     0
 76
     1
 98
        1
 10
0.0
 20
0.0
  0
HATCH
  5
47
330
44
100
AcDbEntity
  8
VPORT-BORDERS
 62
     7
100
AcDbHatch
 10
0.0
 20
0.0
 30
0.0
210
0.0
220
0.0
230
1.0
  2
SOLID
 70
     1
 71
     0
 91
        1
 92
        3
 72
     0
 73
     1
 93
        3
 10
5.209587266710068
 20
-1.117244466145832
 10
6.50287611219618
 20
0.0003445095486111
 10
5.209587266710068
 20
1.117244466145832
 97
        0
 75
     0
 76
     1
 98
        1
 10
0.0
 20
0.0
  0
ENDBLK
  5
4A
330
44
100
AcDbEntity
  8
VPORT-BORDERS
100
AcDbBlockEnd
  0
BLOCK
  5
17D
330
F8
100
AcDbEntity
  8
0
370
     0
100
AcDbBlockBegin
  2
A$C54C04C6C
 70
     0
 10
0.0
 20
0.0
 30
0.0
  3
A$C54C04C6C
  1

  0
TEXT
  5
F9
330
F8
100
AcDbEntity
  8
23
  6
Continuous
 62
     3
100
AcDbText
 10
43.3999349999998
 20
276.6340526666665
 30
0.0
 40
3.910714999999981
  1
Time/Current characteristic curves
 41
0.7
 11
43.3999349999998
 21
275.3304809999999
 31
0.0
100
AcDbText
 73
     1
  0
LINE
  5
FA
330
F8
100
AcDbEntity
  8
24
  6
Continuous
 62
     1
100
AcDbLine
 10
181.2428559999998
 20
0.0
 30
0.0
 11
0.0
 21
0.0
 31
0.0
  0
LINE
  5
FB
330
F8
100
AcDbEntity
  8
24
  6
Continuous
 62
     1
100
AcDbLine
 10
181.2428559999998
 20
13.06518099999999
 30
0.0
 11
0.0
 21
13.06518099999999
 31
0.0
  0
LINE
  5
FC
330
F8
100
AcDbEntity
  8
24
  6
Continuous
 62
     1
100
AcDbLine
 10
181.2428559999998
 20
20.707091
 30
0.0
 11
0.0
 21
20.707091
 31
0.0
  0
LINE
  5
FD
330
F8
100
AcDbEntity
  8
24
  6
Continuous
 62
     1
100
AcDbLine
 10
181.2428559999998
 20
26.12967199999999
 30
0.0
 11
0.0
 21
26.12967199999999
 31
0.0
  0
LINE
  5
FE
330
F8
100
AcDbEntity
  8
24
  6
Continuous
 62
     1
100
AcDbLine
 10
181.2428559999998
 20
30.33544399999999
 30
0.0
 11
0.0
 21
30.33544399999999
 31
0.0
  0
LINE
  5
FF
330
F8
100
AcDbEntity
  8
24
  6
Continuous
 62
     1
100
AcDbLine
 10
181.2428559999998
 20
33.77227199999999
 30
0.0
 11
0.0
 21
33.77227199999999
 31
0.0
  0
LINE
  5
100
330
F8
100
AcDbEntity
  8
24
  6
Continuous
 62
     1
100
AcDbLine
 10
181.2428559999998
 20
39.194163
 30
0.0
 11
0.0
 21
39.194163
 31
0.0
  0
LINE
  5
101
330
F8
100
AcDbEntity
  8
24
  6
Continuous
 62
     1
100
AcDbLine
 10
181.2428559999998
 20
43.40062399999996
 30
0.0
 11
0.0
 21
43.40062399999996
 31
0.0
  0
LINE
  5
102
330
F8
100
AcDbEntity
  8
24
  6
Continuous
 62
     1
100
AcDbLine
 10
181.2428559999998
 20
56.46511600000001
 30
0.0
 11
0.0
 21
56.46511600000001
 31
0.0
  0
LINE
  5
103
330
F8
100
AcDbEntity
  8
24
  6
Continuous
 62
     1
100
AcDbLine
 10
181.2428559999998
 20
64.107026
 30
0.0
 11
0.0
 21
64.107026
 31
0.0
  0
LINE
  5
104
330
F8
100
AcDbEntity
  8
24
  6
Continuous
 62
     1
100
AcDbLine
 10
181.2428559999998
 20
69.529607
 30
0.0
 11
0.0
 21
69.529607
 31
0.0
  0
LINE
  5
105
330
F8
100
AcDbEntity
  8
24
  6
Continuous
 62
     1
100
AcDbLine
 10
181.2428559999998
 20
73.73537899999991
 30
0.0
 11
0.0
 21
73.73537899999991
 31
0.0
  0
LINE
  5
106
330
F8
100
AcDbEntity
  8
24
  6
Continuous
 62
     1
100
AcDbLine
 10
181.2428559999998
 20
77.17220599999997
 30
0.0
 11
0.0
 21
77.17220599999997
 31
0.0
  0
LINE
  5
107
330
F8
100
AcDbEntity
  8
24
  6
Continuous
 62
     1
100
AcDbLine
 10
181.2428559999998
 20
82.594098
 30
0.0
 11
0.0
 21
82.594098
 31
0.0
  0
LINE
  5
108
330
F8
100
AcDbEntity
  8
24
  6
Continuous
 62
     1
100
AcDbLine
 10
181.2428559999998
 20
86.80055899999997
 30
0.0
 11
0.0
 21
86.80055899999997
 31
0.0
  0
LINE
  5
109
330
F8
100
AcDbEntity
  8
24
  6
Continuous
 62
     1
100
AcDbLine
 10
181.2428559999998
 20
99.8657389999999
 30
0.0
 11
0.0
 21
99.8657389999999
 31
0.0
  0
LINE
  5
10A
330
F8
100
AcDbEntity
  8
24
  6
Continuous
 62
     1
100
AcDbLine
 10
181.2428559999998
 20
107.5076499999999
 30
0.0
 11
0.0
 21
107.5076499999999
 31
0.0
  0
LINE
  5
10B
330
F8
100
AcDbEntity
  8
24
  6
Continuous
 62
     1
100
AcDbLine
 10
181.2428559999998
 20
112.9302309999999
 30
0.0
 11
0.0
 21
112.9302309999999
 31
0.0
  0
LINE
  5
10C
330
F8
100
AcDbEntity
  8
24
  6
Continuous
 62
     1
100
AcDbLine
 10
181.2428559999998
 20
117.1360029999999
 30
0.0
 11
0.0
 21
117.1360029999999
 31
0.0
  0
LINE
  5
10D
330
F8
100
AcDbEntity
  8
24
  6
Continuous
 62
     1
100
AcDbLine
 10
181.2428559999998
 20
120.5728299999998
 30
0.0
 11
0.0
 21
120.5728299999998
 31
0.0
  0
LINE
  5
10E
330
F8
100
AcDbEntity
  8
24
  6
Continuous
 62
     1
100
AcDbLine
 10
181.2428559999998
 20
125.9948939999999
 30
0.0
 11
0.0
 21
125.9948939999999
 31
0.0
  0
LINE
  5
10F
330
F8
100
AcDbEntity
  8
24
  6
Continuous
 62
     1
100
AcDbLine
 10
181.2428559999998
 20
130.2006659999997
 30
0.0
 11
0.0
 21
130.2006659999997
 31
0.0
  0
LINE
  5
110
330
F8
100
AcDbEntity
  8
24
  6
Continuous
 62
     1
100
AcDbLine
 10
181.2428559999998
 20
143.265502
 30
0.0
 11
0.0
 21
143.265502
 31
0.0
  0
LINE
  5
111
330
F8
100
AcDbEntity
  8
24
  6
Continuous
 62
     1
100
AcDbLine
 10
181.2428559999998
 20
150.907757
 30
0.0
 11
0.0
 21
150.907757
 31
0.0
  0
LINE
  5
112
330
F8
100
AcDbEntity
  8
24
  6
Continuous
 62
     1
100
AcDbLine
 10
181.2428559999998
 20
156.329993
 30
0.0
 11
0.0
 21
156.329993
 31
0.0
  0
LINE
  5
113
330
F8
100
AcDbEntity
  8
24
  6
Continuous
 62
     1
100
AcDbLine
 10
181.2428559999998
 20
160.53611
 30
0.0
 11
0.0
 21
160.53611
 31
0.0
  0
LINE
  5
114
330
F8
100
AcDbEntity
  8
24
  6
Continuous
 62
     1
100
AcDbLine
 10
181.2428559999998
 20
163.9725929999999
 30
0.0
 11
0.0
 21
163.9725929999999
 31
0.0
  0
LINE
  5
115
330
F8
100
AcDbEntity
  8
24
  6
Continuous
 62
     1
100
AcDbLine
 10
181.2428559999998
 20
169.3948289999999
 30
0.0
 11
0.0
 21
169.3948289999999
 31
0.0
  0
LINE
  5
116
330
F8
100
AcDbEntity
  8
24
  6
Continuous
 62
     1
100
AcDbLine
 10
181.2428559999998
 20
173.6006009999999
 30
0.0
 11
0.0
 21
173.6006009999999
 31
0.0
  0
LINE
  5
117
330
F8
100
AcDbEntity
  8
24
  6
Continuous
 62
     1
100
AcDbLine
 10
181.2428559999998
 20
186.6654369999999
 30
0.0
 11
0.0
 21
186.6654369999999
 31
0.0
  0
LINE
  5
118
330
F8
100
AcDbEntity
  8
24
  6
Continuous
 62
     1
100
AcDbLine
 10
181.2428559999998
 20
194.3076919999999
 30
0.0
 11
0.0
 21
194.3076919999999
 31
0.0
  0
LINE
  5
119
330
F8
100
AcDbEntity
  8
24
  6
Continuous
 62
     1
100
AcDbLine
 10
181.2428559999998
 20
199.730273
 30
0.0
 11
0.0
 21
199.730273
 31
0.0
  0
LINE
  5
11A
330
F8
100
AcDbEntity
  8
24
  6
Continuous
 62
     1
100
AcDbLine
 10
181.2428559999998
 20
203.9360449999999
 30
0.0
 11
0.0
 21
203.9360449999999
 31
0.0
  0
LINE
  5
11B
330
F8
100
AcDbEntity
  8
24
  6
Continuous
 62
     1
100
AcDbLine
 10
181.2428559999998
 20
207.3725279999999
 30
0.0
 11
0.0
 21
207.3725279999999
 31
0.0
  0
LINE
  5
11C
330
F8
100
AcDbEntity
  8
24
  6
Continuous
 62
     1
100
AcDbLine
 10
181.2428559999998
 20
212.7947639999999
 30
0.0
 11
0.0
 21
212.7947639999999
 31
0.0
  0
LINE
  5
11D
330
F8
100
AcDbEntity
  8
24
  6
Continuous
 62
     1
100
AcDbLine
 10
181.2428559999998
 20
217.0008809999999
 30
0.0
 11
0.0
 21
217.0008809999999
 31
0.0
  0
LINE
  5
11E
330
F8
100
AcDbEntity
  8
24
  6
Continuous
 62
     1
100
AcDbLine
 10
181.2428559999998
 20
230.0653719999999
 30
0.0
 11
0.0
 21
230.0653719999999
 31
0.0
  0
LINE
  5
11F
330
F8
100
AcDbEntity
  8
24
  6
Continuous
 62
     1
100
AcDbLine
 10
181.2428559999998
 20
256.1946989999996
 30
0.0
 11
0.0
 21
256.1946989999996
 31
0.0
  0
LINE
  5
120
330
F8
100
AcDbEntity
  8
24
  6
Continuous
 62
     1
100
AcDbLine
 10
181.2428559999998
 20
260.4008159999998
 30
0.0
 11
0.0
 21
260.4008159999998
 31
0.0
  0
LINE
  5
121
330
F8
100
AcDbEntity
  8
24
  6
Continuous
 62
     1
100
AcDbLine
 10
117.1358309999999
 20
250.7724629999998
 30
0.0
 11
0.0
 21
250.7724629999998
 31
0.0
  0
LINE
  5
122
330
F8
100
AcDbEntity
  8
24
  6
Continuous
 62
     1
100
AcDbLine
 10
117.1358309999999
 20
247.3359799999998
 30
0.0
 11
0.0
 21
247.3359799999998
 31
0.0
  0
LINE
  5
123
330
F8
100
AcDbEntity
  8
24
  6
Continuous
 62
     1
100
AcDbLine
 10
117.1358309999999
 20
243.130207
 30
0.0
 11
0.0
 21
243.130207
 31
0.0
  0
LINE
  5
124
330
F8
100
AcDbEntity
  8
24
  6
Continuous
 62
     1
100
AcDbLine
 10
117.1358309999999
 20
237.707972
 30
0.0
 11
0.0
 21
237.707972
 31
0.0
  0
TEXT
  5
125
330
F8
100
AcDbEntity
  8
24
  6
Continuous
 62
     1
100
AcDbText
 10
32.42523899999999
 20
-19.82829600000002
 30
0.0
 40
3.421865999999998
  1
Current (A)
 41
0.7
 11
32.42523899999999
 21
-20.96891800000002
 31
0.0
100
AcDbText
 73
     1
  0
LINE
  5
126
330
F8
100
AcDbEntity
  8
24
  6
Continuous
 62
     1
100
AcDbLine
 10
0.0
 20
260.4008159999998
 30
0.0
 11
0.0
 21
0.0
 31
0.0
  0
LINE
  5
127
330
F8
100
AcDbEntity
  8
24
  6
Continuous
 62
     1
100
AcDbLine
 10
7.642600000000001
 20
260.4008159999998
 30
0.0
 11
7.642600000000001
 21
0.0
 31
0.0
  0
LINE
  5
128
330
F8
100
AcDbEntity
  8
24
  6
Continuous
 62
     1
100
AcDbLine
 10
17.27060799999988
 20
260.4008159999998
 30
0.0
 11
17.27060799999988
 21
0.0
 31
0.0
  0
LINE
  5
129
330
F8
100
AcDbEntity
  8
24
  6
Continuous
 62
     1
100
AcDbLine
 10
26.12932699999999
 20
260.4008159999998
 30
0.0
 11
26.12932699999999
 21
0.0
 31
0.0
  0
LINE
  5
12A
330
F8
100
AcDbEntity
  8
24
  6
Continuous
 62
     1
100
AcDbLine
 10
30.33544399999989
 20
260.4008159999998
 30
0.0
 11
30.33544399999989
 21
0.0
 31
0.0
  0
LINE
  5
12B
330
F8
100
AcDbEntity
  8
24
  6
Continuous
 62
     1
100
AcDbLine
 10
43.3999349999998
 20
260.4008159999998
 30
0.0
 11
43.3999349999998
 21
0.0
 31
0.0
  0
TEXT
  5
12C
330
F8
100
AcDbEntity
  8
24
  6
Continuous
 62
     1
100
AcDbText
 10
-13.546066
 20
88.392882
 30
0.0
 40
3.421865999999993
  1
Operating time (sec)
 50
90.0
 41
0.7
 11
-12.405444
 21
88.392882
 31
0.0
100
AcDbText
 73
     1
  0
TEXT
  5
12D
330
F8
100
AcDbEntity
  8
200
  6
Continuous
 62
     1
100
AcDbText
 10
-9.258413555151079
 20
19.45709099999987
 30
0.0
 40
2.5
  1
0.03
 41
0.6
 72
     2
 11
-5.258413555151078
 21
20.70709099999987
 31
0.0
100
AcDbText
 73
     2
  0
TEXT
  5
12E
330
F8
100
AcDbEntity
  8
200
  6
Continuous
 62
     1
100
AcDbText
 10
1.249999999999957
 20
-5.166666666666666
 30
0.0
 40
2.5
  1
2
 50
90.0
 41
0.7
 72
     2
 11
-0.0000000000000426
 21
-4.0
 31
0.0
100
AcDbText
 73
     2
  0
TEXT
  5
12F
330
F8
100
AcDbEntity
  8
200
  6
Continuous
 62
     1
100
AcDbText
 10
-9.259367750161601
 20
11.81518099999985
 30
0.0
 40
2.5
  1
0.02
 41
0.6
 72
     2
 11
-5.259367750161601
 21
13.06518099999985
 31
0.0
100
AcDbText
 73
     2
  0
TEXT
  5
130
330
F8
100
AcDbEntity
  8
200
  6
Continuous
 62
     1
100
AcDbText
 10
-8.760999113331507
 20
-1.250000000000142
 30
0.0
 40
2.5
  1
0.01
 41
0.6
 72
     2
 11
-5.260999113331506
 21
-0.0000000000001421
 31
0.0
100
AcDbText
 73
     2
  0
TEXT
  5
131
330
F8
100
AcDbEntity
  8
200
  6
Continuous
 62
     1
100
AcDbText
 10
27.3793269999999
 20
-5.166666666666666
 30
0.0
 40
2.5
  1
8
 50
90.0
 41
0.7
 72
     2
 11
26.1293269999999
 21
-4.0
 31
0.0
100
AcDbText
 73
     2
  0
TEXT
  5
132
330
F8
100
AcDbEntity
  8
200
  6
Continuous
 62
     1
100
AcDbText
 10
18.52060799999988
 20
-5.166666666666666
 30
0.0
 40
2.5
  1
5
 50
90.0
 41
0.7
 72
     2
 11
17.27060799999988
 21
-4.0
 31
0.0
100
AcDbText
 73
     2
  0
TEXT
  5
133
330
F8
100
AcDbEntity
  8
200
  6
Continuous
 62
     1
100
AcDbText
 10
8.892599999999902
 20
-5.166666666666666
 30
0.0
 40
2.5
  1
3
 50
90.0
 41
0.7
 72
     2
 11
7.642599999999902
 21
-4.0
 31
0.0
100
AcDbText
 73
     2
  0
TEXT
  5
134
330
F8
100
AcDbEntity
  8
200
  6
Continuous
 62
     1
100
AcDbText
 10
44.64993499999989
 20
-6.625
 30
0.0
 40
2.5
  1
20
 50
90.0
 41
0.7
 72
     2
 11
43.39993499999989
 21
-4.0
 31
0.0
100
AcDbText
 73
     2
  0
TEXT
  5
135
330
F8
100
AcDbEntity
  8
200
  6
Continuous
 62
     1
100
AcDbText
 10
31.58544399999989
 20
-6.041666666666666
 30
0.0
 40
2.5
  1
10
 50
90.0
 41
0.7
 72
     2
 11
30.33544399999989
 21
-4.0
 31
0.0
100
AcDbText
 73
     2
  0
TEXT
  5
136
330
F8
100
AcDbEntity
  8
200
  6
Continuous
 62
     1
100
AcDbText
 10
-8.002317408877701
 20
68.27960699999978
 30
0.0
 40
2.5
  1
0.4
 41
0.6
 72
     2
 11
-5.252317408877701
 21
69.52960699999978
 31
0.0
100
AcDbText
 73
     2
  0
TEXT
  5
137
330
F8
100
AcDbEntity
  8
200
  6
Continuous
 62
     1
100
AcDbText
 10
-9.25773647314746
 20
24.87967199999988
 30
0.0
 40
2.5
  1
0.04
 41
0.6
 72
     2
 11
-5.25773647314746
 21
26.12967199999988
 31
0.0
100
AcDbText
 73
     2
  0
TEXT
  5
138
330
F8
100
AcDbEntity
  8
200
  6
Continuous
 62
     1
100
AcDbText
 10
-9.257211326075875
 20
29.08544399999984
 30
0.0
 40
2.5
  1
0.05
 41
0.6
 72
     2
 11
-5.257211326075875
 21
30.33544399999984
 31
0.0
100
AcDbText
 73
     2
  0
TEXT
  5
139
330
F8
100
AcDbEntity
  8
200
  6
Continuous
 62
     1
100
AcDbText
 10
-7.505579963030853
 20
42.15062399999984
 30
0.0
 40
2.5
  1
0.1
 41
0.6
 72
     2
 11
-5.255579963030853
 21
43.40062399999984
 31
0.0
100
AcDbText
 73
     2
  0
TEXT
  5
13A
330
F8
100
AcDbEntity
  8
200
  6
Continuous
 62
     1
100
AcDbText
 10
-8.003948685891828
 20
55.21511599999985
 30
0.0
 40
2.5
  1
0.2
 41
0.6
 72
     2
 11
-5.253948685891828
 21
56.46511599999985
 31
0.0
100
AcDbText
 73
     2
  0
TEXT
  5
13B
330
F8
100
AcDbEntity
  8
200
  6
Continuous
 62
     1
100
AcDbText
 10
-8.002994490881292
 20
62.85702599999979
 30
0.0
 40
2.5
  1
0.3
 41
0.6
 72
     2
 11
-5.252994490881292
 21
64.10702599999979
 31
0.0
100
AcDbText
 73
     2
  0
TEXT
  5
13C
330
F8
100
AcDbEntity
  8
200
  6
Continuous
 62
     1
100
AcDbText
 10
-8.00179226180613
 20
72.48537899999971
 30
0.0
 40
2.5
  1
0.5
 41
0.6
 72
     2
 11
-5.251792261806129
 21
73.73537899999971
 31
0.0
100
AcDbText
 73
     2
  0
TEXT
  5
13D
330
F8
100
AcDbEntity
  8
200
  6
Continuous
 62
     1
100
AcDbText
 10
-5.748529535716001
 20
85.5505589999999
 30
0.0
 40
2.5
  1
1
 41
0.6
 72
     2
 11
-5.248529535716001
 21
86.8005589999999
 31
0.0
100
AcDbText
 73
     2
  0
TEXT
  5
13E
330
F8
100
AcDbEntity
  8
200
  6
Continuous
 62
     1
100
AcDbText
 10
-6.247575340580623
 20
106.2576499999997
 30
0.0
 40
2.5
  1
3
 41
0.6
 72
     2
 11
-5.247575340580623
 21
107.5076499999997
 31
0.0
100
AcDbText
 73
     2
  0
TEXT
  5
13F
330
F8
100
AcDbEntity
  8
200
  6
Continuous
 62
     1
100
AcDbText
 10
-6.248529535716001
 20
98.6157389999998
 30
0.0
 40
2.5
  1
2
 41
0.6
 72
     2
 11
-5.248529535716001
 21
99.8657389999998
 31
0.0
100
AcDbText
 73
     2
  0
TEXT
  5
140
330
F8
100
AcDbEntity
  8
200
  6
Continuous
 62
     1
100
AcDbText
 10
-6.24689825857699
 20
111.6802309999999
 30
0.0
 40
2.5
  1
4
 41
0.6
 72
     2
 11
-5.24689825857699
 21
112.9302309999999
 31
0.0
100
AcDbText
 73
     2
  0
TEXT
  5
141
330
F8
100
AcDbEntity
  8
200
  6
Continuous
 62
     1
100
AcDbText
 10
-6.24637311150542
 20
115.8860029999997
 30
0.0
 40
2.5
  1
5
 41
0.6
 72
     2
 11
-5.24637311150542
 21
117.1360029999997
 31
0.0
100
AcDbText
 73
     2
  0
TEXT
  5
142
330
F8
100
AcDbEntity
  8
200
  6
Continuous
 62
     1
100
AcDbText
 10
-6.994741813014782
 20
128.9506659999997
 30
0.0
 40
2.5
  1
10
 41
0.6
 72
     2
 11
-5.244741813014782
 21
130.2006659999997
 31
0.0
100
AcDbText
 73
     2
  0
TEXT
  5
143
330
F8
100
AcDbEntity
  8
200
  6
Continuous
 62
     1
100
AcDbText
 10
-7.493110492922723
 20
142.0155019999997
 30
0.0
 40
2.5
  1
20
 41
0.6
 72
     2
 11
-5.243110492922723
 21
143.2655019999998
 31
0.0
100
AcDbText
 73
     2
  0
TEXT
  5
144
330
F8
100
AcDbEntity
  8
200
  6
Continuous
 62
     1
100
AcDbText
 10
-7.49215625483437
 20
149.6577569999998
 30
0.0
 40
2.5
  1
30
 41
0.6
 72
     2
 11
-5.24215625483437
 21
150.9077569999998
 31
0.0
100
AcDbText
 73
     2
  0
TEXT
  5
145
330
F8
100
AcDbEntity
  8
200
  6
Continuous
 62
     1
100
AcDbText
 10
-7.491479215908582
 20
155.0799929999998
 30
0.0
 40
2.5
  1
40
 41
0.6
 72
     2
 11
-5.241479215908582
 21
156.3299929999998
 31
0.0
100
AcDbText
 73
     2
  0
TEXT
  5
146
330
F8
100
AcDbEntity
  8
200
  6
Continuous
 62
     1
100
AcDbText
 10
-7.490524934742295
 20
162.7225929999998
 30
0.0
 40
2.5
  1
60
 41
0.6
 72
     2
 11
-5.240524934742295
 21
163.9725929999998
 31
0.0
100
AcDbText
 73
     2
  0
TEXT
  5
147
330
F8
100
AcDbEntity
  8
200
  6
Continuous
 62
     1
100
AcDbText
 10
-7.490954025759123
 20
159.2861099999998
 30
0.0
 40
2.5
  1
50
 41
0.6
 72
     2
 11
-5.240954025759123
 21
160.5361099999998
 31
0.0
100
AcDbText
 73
     2
  0
TEXT
  5
148
330
F8
100
AcDbEntity
  8
200
  6
Continuous
 62
     1
100
AcDbText
 10
-8.736737190564554
 20
193.0576919999996
 30
0.0
 40
2.5
  1
300
 41
0.6
 72
     2
 11
-5.236737190564554
 21
194.3076919999996
 31
0.0
100
AcDbText
 73
     2
  0
TEXT
  5
149
330
F8
100
AcDbEntity
  8
200
  6
Continuous
 62
     1
100
AcDbText
 10
-8.239322748744982
 20
172.3506009999998
 30
0.0
 40
2.5
  1
100
 41
0.6
 72
     2
 11
-5.239322748744981
 21
173.6006009999998
 31
0.0
100
AcDbText
 73
     2
  0
TEXT
  5
14A
330
F8
100
AcDbEntity
  8
200
  6
Continuous
 62
     1
100
AcDbText
 10
-8.737691428652951
 20
185.4154369999998
 30
0.0
 40
2.5
  1
200
 41
0.6
 72
     2
 11
-5.237691428652951
 21
186.6654369999998
 31
0.0
100
AcDbText
 73
     2
  0
TEXT
  5
14B
330
F8
100
AcDbEntity
  8
200
  6
Continuous
 62
     1
100
AcDbText
 10
-9.483903641397304
 20
215.7508809999997
 30
0.0
 40
2.5
  1
1000
 41
0.6
 72
     2
 11
-5.233903641397303
 21
217.0008809999997
 31
0.0
100
AcDbText
 73
     2
  0
TEXT
  5
14C
330
F8
100
AcDbEntity
  8
200
  6
Continuous
 62
     1
100
AcDbText
 10
-8.735534961489364
 20
202.6860449999999
 30
0.0
 40
2.5
  1
500
 41
0.6
 72
     2
 11
-5.235534961489363
 21
203.9360449999999
 31
0.0
100
AcDbText
 73
     2
  0
TEXT
  5
14D
330
F8
100
AcDbEntity
  8
200
  6
Continuous
 62
     1
100
AcDbText
 10
-8.736060108560934
 20
198.4802729999998
 30
0.0
 40
2.5
  1
400
 41
0.6
 72
     2
 11
-5.236060108560933
 21
199.7302729999998
 31
0.0
100
AcDbText
 73
     2
  0
TEXT
  5
14E
330
F8
100
AcDbEntity
  8
23
  6
Continuous
 62
     3
100
AcDbText
 10
0.0000000000000001
 20
276.6340526666665
 30
0.0
 40
3.910714999999981
  1
TemBreak2
 41
0.7
 11
0.0
 21
275.3304809999999
 31
0.0
100
AcDbText
 73
     1
  0
TEXT
  5
14F
330
F8
100
AcDbEntity
  8
200
  6
Continuous
 62
     1
100
AcDbText
 10
-9.980771491001688
 20
241.872855374364
 30
0.0
 40
2.5
  1
4000
 41
0.6
 72
     2
 11
-5.230771491001688
 21
243.1228553743641
 31
0.0
100
AcDbText
 73
     2
  0
TEXT
  5
150
330
F8
100
AcDbEntity
  8
200
  6
Continuous
 62
     1
100
AcDbText
 10
-9.981448551393356
 20
236.4506203743641
 30
0.0
 40
2.5
  1
3000
 41
0.6
 72
     2
 11
-5.231448551393356
 21
237.7006203743642
 31
0.0
100
AcDbText
 73
     2
  0
TEXT
  5
151
330
F8
100
AcDbEntity
  8
200
  6
Continuous
 62
     1
100
AcDbText
 10
-9.982272364383163
 20
228.8153719999998
 30
0.0
 40
2.5
  1
2000
 41
0.6
 72
     2
 11
-5.232272364383162
 21
230.0653719999997
 31
0.0
100
AcDbText
 73
     2
  0
TEXT
  5
152
330
F8
100
AcDbEntity
  8
200
  6
Continuous
 62
     1
100
AcDbText
 10
-10.72850376865692
 20
258.9971158246214
 30
0.0
 40
2.5
  1
10000
 41
0.6
 72
     2
 11
-5.228503768656921
 21
260.2471158246213
 31
0.0
100
AcDbText
 73
     2
  0
TEXT
  5
153
330
F8
100
AcDbEntity
  8
200
  6
Continuous
 62
     1
100
AcDbText
 10
-9.980246322336924
 20
246.078628374364
 30
0.0
 40
2.5
  1
5000
 41
0.6
 72
     2
 11
-5.230246322336924
 21
247.328628374364
 31
0.0
100
AcDbText
 73
     2
  0
LINE
  5
154
330
F8
100
AcDbEntity
  8
24
  6
Continuous
 62
     1
100
AcDbLine
 10
51.042535
 20
260.4008159999998
 30
0.0
 11
51.042535
 21
0.0
 31
0.0
  0
LINE
  5
155
330
F8
100
AcDbEntity
  8
24
  6
Continuous
 62
     1
100
AcDbLine
 10
60.67054299999998
 20
260.4008159999998
 30
0.0
 11
60.67054299999998
 21
0.0
 31
0.0
  0
LINE
  5
156
330
F8
100
AcDbEntity
  8
24
  6
Continuous
 62
     1
100
AcDbLine
 10
69.52960600000001
 20
260.4008159999998
 30
0.0
 11
69.52960600000001
 21
0.0
 31
0.0
  0
LINE
  5
157
330
F8
100
AcDbEntity
  8
24
  6
Continuous
 62
     1
100
AcDbLine
 10
73.73572299999991
 20
260.4008159999998
 30
0.0
 11
73.73572299999991
 21
0.0
 31
0.0
  0
LINE
  5
158
330
F8
100
AcDbEntity
  8
24
  6
Continuous
 62
     1
100
AcDbLine
 10
86.80038699999995
 20
260.4008159999998
 30
0.0
 11
86.80038699999995
 21
0.0
 31
0.0
  0
LINE
  5
159
330
F8
100
AcDbEntity
  8
24
  6
Continuous
 62
     1
100
AcDbLine
 10
94.44298699999992
 20
260.4008159999998
 30
0.0
 11
94.44298699999992
 21
0.0
 31
0.0
  0
LINE
  5
15A
330
F8
100
AcDbEntity
  8
24
  6
Continuous
 62
     1
100
AcDbLine
 10
104.0706499999999
 20
260.4008159999998
 30
0.0
 11
104.0706499999999
 21
0.0
 31
0.0
  0
LINE
  5
15B
330
F8
100
AcDbEntity
  8
24
  6
Continuous
 62
     1
100
AcDbLine
 10
112.9300579999999
 20
260.4008159999998
 30
0.0
 11
112.9300579999999
 21
0.0
 31
0.0
  0
LINE
  5
15C
330
F8
100
AcDbEntity
  8
24
  6
Continuous
 62
     1
100
AcDbLine
 10
117.1358309999999
 20
260.4008159999998
 30
0.0
 11
117.1358309999999
 21
0.0
 31
0.0
  0
LINE
  5
15D
330
F8
100
AcDbEntity
  8
24
  6
Continuous
 62
     1
100
AcDbLine
 10
181.2428559999998
 20
260.4008159999998
 30
0.0
 11
181.2428559999998
 21
0.0
 31
0.0
  0
LINE
  5
15E
330
F8
100
AcDbEntity
  8
24
  6
Continuous
 62
     1
100
AcDbLine
 10
130.2003219999999
 20
230.0653719999999
 30
0.0
 11
130.2003219999999
 21
0.0
 31
0.0
  0
LINE
  5
15F
330
F8
100
AcDbEntity
  8
24
  6
Continuous
 62
     1
100
AcDbLine
 10
137.8429209999999
 20
230.0653719999999
 30
0.0
 11
137.8429209999999
 21
0.0
 31
0.0
  0
LINE
  5
160
330
F8
100
AcDbEntity
  8
24
  6
Continuous
 62
     1
100
AcDbLine
 10
147.471274
 20
230.0653719999999
 30
0.0
 11
147.471274
 21
0.0
 31
0.0
  0
LINE
  5
161
330
F8
100
AcDbEntity
  8
24
  6
Continuous
 62
     1
100
AcDbLine
 10
156.3299929999999
 20
230.0653719999999
 30
0.0
 11
156.3299929999999
 21
0.0
 31
0.0
  0
LINE
  5
162
330
F8
100
AcDbEntity
  8
24
  6
Continuous
 62
     1
100
AcDbLine
 10
160.5357649999999
 20
230.0653719999999
 30
0.0
 11
160.5357649999999
 21
0.0
 31
0.0
  0
LINE
  5
163
330
F8
100
AcDbEntity
  8
24
  6
Continuous
 62
     1
100
AcDbLine
 10
173.600257
 20
230.0653719999999
 30
0.0
 11
173.600257
 21
0.0
 31
0.0
  0
TEXT
  5
164
330
F8
100
AcDbEntity
  8
23
  6
Continuous
 62
     3
100
AcDbText
 10
78.428632
 20
-38.21649633333334
 30
0.0
 40
3.910714999999998
  1
TERASAKI ELECTRIC CO.,LTD.
 41
0.7
 11
78.428632
 21
-39.520068
 31
0.0
100
AcDbText
 73
     1
  0
TEXT
  5
165
330
F8
100
AcDbEntity
  8
24
  6
Continuous
 62
     1
100
AcDbText
 10
91.790263
 20
-20.06220266666666
 30
0.0
 40
2.444193999999999
  1
primary ==== 6.6kV
 41
0.7
 11
91.790263
 21
-20.876934
 31
0.0
100
AcDbText
 73
     1
  0
TEXT
  5
166
330
F8
100
AcDbEntity
  8
24
  6
Continuous
 62
     1
100
AcDbText
 10
91.790263
 20
-23.91933166666667
 30
0.0
 40
2.444193999999999
  1
secondary == 110,220,440V
 41
0.7
 11
91.790263
 21
-24.73406300000001
 31
0.0
100
AcDbText
 73
     1
  0
TEXT
  5
167
330
F8
100
AcDbEntity
  8
200
  6
Continuous
 62
     1
100
AcDbText
 10
74.98572299999991
 20
-7.499999999999999
 30
0.0
 40
2.5
  1
100
 50
90.0
 41
0.7
 72
     2
 11
73.73572299999991
 21
-4.0
 31
0.0
100
AcDbText
 73
     2
  0
TEXT
  5
168
330
F8
100
AcDbEntity
  8
200
  6
Continuous
 62
     1
100
AcDbText
 10
70.7796059999999
 20
-6.625
 30
0.0
 40
2.5
  1
80
 50
90.0
 41
0.7
 72
     2
 11
69.5296059999999
 21
-4.0
 31
0.0
100
AcDbText
 73
     2
  0
TEXT
  5
169
330
F8
100
AcDbEntity
  8
200
  6
Continuous
 62
     1
100
AcDbText
 10
61.9205429999999
 20
-6.625
 30
0.0
 40
2.5
  1
50
 50
90.0
 41
0.7
 72
     2
 11
60.6705429999999
 21
-4.0
 31
0.0
100
AcDbText
 73
     2
  0
TEXT
  5
16A
330
F8
100
AcDbEntity
  8
200
  6
Continuous
 62
     1
100
AcDbText
 10
52.29253499999988
 20
-6.625
 30
0.0
 40
2.5
  1
30
 50
90.0
 41
0.7
 72
     2
 11
51.04253499999988
 21
-4.0
 31
0.0
100
AcDbText
 73
     2
  0
TEXT
  5
16B
330
F8
100
AcDbEntity
  8
200
  6
Continuous
 62
     1
100
AcDbText
 10
95.69298699999992
 20
-8.083333333333332
 30
0.0
 40
2.5
  1
300
 50
90.0
 41
0.7
 72
     2
 11
94.44298699999992
 21
-4.0
 31
0.0
100
AcDbText
 73
     2
  0
TEXT
  5
16C
330
F8
100
AcDbEntity
  8
200
  6
Continuous
 62
     1
100
AcDbText
 10
88.05038699999995
 20
-8.083333333333332
 30
0.0
 40
2.5
  1
200
 50
90.0
 41
0.7
 72
     2
 11
86.80038699999995
 21
-4.0
 31
0.0
100
AcDbText
 73
     2
  0
TEXT
  5
16D
330
F8
100
AcDbEntity
  8
200
  6
Continuous
 62
     1
100
AcDbText
 10
118.3858309999999
 20
-8.958333333333332
 30
0.0
 40
2.5
  1
1000
 50
90.0
 41
0.7
 72
     2
 11
117.1358309999999
 21
-4.0
 31
0.0
100
AcDbText
 73
     2
  0
TEXT
  5
16E
330
F8
100
AcDbEntity
  8
200
  6
Continuous
 62
     1
100
AcDbText
 10
114.1800579999997
 20
-8.083333333333332
 30
0.0
 40
2.5
  1
800
 50
90.0
 41
0.7
 72
     2
 11
112.9300579999997
 21
-4.0
 31
0.0
100
AcDbText
 73
     2
  0
TEXT
  5
16F
330
F8
100
AcDbEntity
  8
200
  6
Continuous
 62
     1
100
AcDbText
 10
105.3206499999999
 20
-8.083333333333332
 30
0.0
 40
2.5
  1
500
 50
90.0
 41
0.7
 72
     2
 11
104.0706499999999
 21
-4.0
 31
0.0
100
AcDbText
 73
     2
  0
TEXT
  5
170
330
F8
100
AcDbEntity
  8
200
  6
Continuous
 62
     1
100
AcDbText
 10
139.0929209999999
 20
-9.541666666666667
 30
0.0
 40
2.5
  1
3000
 50
90.0
 41
0.7
 72
     2
 11
137.8429209999999
 21
-4.0
 31
0.0
100
AcDbText
 73
     2
  0
TEXT
  5
171
330
F8
100
AcDbEntity
  8
200
  6
Continuous
 62
     1
100
AcDbText
 10
131.4503219999997
 20
-9.541666666666667
 30
0.0
 40
2.5
  1
2000
 50
90.0
 41
0.7
 72
     2
 11
130.2003219999998
 21
-4.0
 31
0.0
100
AcDbText
 73
     2
  0
TEXT
  5
172
330
F8
100
AcDbEntity
  8
200
  6
Continuous
 62
     1
100
AcDbText
 10
161.8726395661999
 20
-10.48817402477792
 30
0.0
 40
2.5
  1
10000
 50
90.0
 41
0.7
 72
     2
 11
160.6226395661999
 21
-4.071507358111261
 31
0.0
100
AcDbText
 73
     2
  0
TEXT
  5
173
330
F8
100
AcDbEntity
  8
200
  6
Continuous
 62
     1
100
AcDbText
 10
148.7212739999999
 20
-9.541666666666667
 30
0.0
 40
2.5
  1
5000
 50
90.0
 41
0.7
 72
     2
 11
147.4712739999999
 21
-4.0
 31
0.0
100
AcDbText
 73
     2
  0
TEXT
  5
174
330
F8
100
AcDbEntity
  8
200
  6
Continuous
 62
     1
100
AcDbText
 10
157.5799929999999
 20
-9.541666666666667
 30
0.0
 40
2.5
  1
8000
 50
90.0
 41
0.7
 72
     2
 11
156.3299929999999
 21
-4.0
 31
0.0
100
AcDbText
 73
     2
  0
TEXT
  5
175
330
F8
100
AcDbEntity
  8
200
  6
Continuous
 62
     1
100
AcDbText
 10
182.5797305662
 20
-11.07150735811126
 30
0.0
 40
2.5
  1
30000
 50
90.0
 41
0.7
 72
     2
 11
181.3297305662
 21
-4.071507358111261
 31
0.0
100
AcDbText
 73
     2
  0
TEXT
  5
176
330
F8
100
AcDbEntity
  8
200
  6
Continuous
 62
     1
100
AcDbText
 10
174.9371315661998
 20
-11.07150735811126
 30
0.0
 40
2.5
  1
20000
 50
90.0
 41
0.7
 72
     2
 11
173.6871315661998
 21
-4.071507358111261
 31
0.0
100
AcDbText
 73
     2
  0
LINE
  5
177
330
F8
100
AcDbEntity
  8
24
  6
Continuous
 62
     1
100
AcDbLine
 10
130.2003219999999
 20
260.4008159999998
 30
0.0
 11
130.2003219999999
 21
256.1946989999996
 31
0.0
  0
LINE
  5
178
330
F8
100
AcDbEntity
  8
24
  6
Continuous
 62
     1
100
AcDbLine
 10
137.8429209999999
 20
260.4008159999998
 30
0.0
 11
137.8429209999999
 21
256.1946989999996
 31
0.0
  0
LINE
  5
179
330
F8
100
AcDbEntity
  8
24
  6
Continuous
 62
     1
100
AcDbLine
 10
147.471274
 20
260.4008159999998
 30
0.0
 11
147.471274
 21
256.1946989999996
 31
0.0
  0
LINE
  5
17A
330
F8
100
AcDbEntity
  8
24
  6
Continuous
 62
     1
100
AcDbLine
 10
156.3299929999999
 20
260.4008159999998
 30
0.0
 11
156.3299929999999
 21
256.1946989999996
 31
0.0
  0
LINE
  5
17B
330
F8
100
AcDbEntity
  8
24
  6
Continuous
 62
     1
100
AcDbLine
 10
160.5357649999999
 20
260.4008159999998
 30
0.0
 11
160.5357649999999
 21
256.1946989999996
 31
0.0
  0
LINE
  5
17C
330
F8
100
AcDbEntity
  8
24
  6
Continuous
 62
     1
100
AcDbLine
 10
173.600257
 20
260.4008159999998
 30
0.0
 11
173.600257
 21
256.1946989999996
 31
0.0
  0
ENDBLK
  5
17E
330
F8
100
AcDbEntity
  8
0
370
     0
100
AcDbBlockEnd
  0
ENDSEC
  0
SECTION
  2
ENTITIES
  0
MTEXT
  5
54
330
A
100
AcDbEntity
  8
VPORT-BORDERS
 62
     7
100
AcDbMText
 10
32.26531599999999
 20
14.792551
 30
0.0
 40
2.444193999999999
 41
0.0
 71
     1
 72
     2
  1
\fOsaka|b0|i0|c128;220V
  7
STD
 11
0.0
 21
1.0
 31
0.0
 73
     1
 44
1.0
1001
ACAD
1000
MTEXTBEGIN
1070
    73
1070
     1
1070
    44
1040
1.0
1070
    74
1070
     0
1000
MTEXTEND
  0
MTEXT
  5
53
330
A
100
AcDbEntity
  8
VPORT-BORDERS
 62
     7
100
AcDbMText
 10
19.16534
 20
14.792551
 30
0.0
 40
2.444193999999999
 41
0.0
 71
     1
 72
     2
  1
\fOsaka|b0|i0|c128;440V
  7
STD
 11
0.0
 21
1.0
 31
0.0
 73
     1
 44
1.0
1001
ACAD
1000
MTEXTBEGIN
1070
    73
1070
     1
1070
    44
1040
1.0
1070
    74
1070
     0
1000
MTEXTEND
  0
MTEXT
  5
52
330
A
100
AcDbEntity
  8
VPORT-BORDERS
 62
     7
100
AcDbMText
 10
45.84725999999998
 20
14.792551
 30
0.0
 40
2.444193999999999
 41
0.0
 71
     1
 72
     2
  1
\fOsaka|b0|i0|c128;110V
  7
STD
 11
0.0
 21
1.0
 31
0.0
 73
     1
 44
1.0
1001
ACAD
1000
MTEXTBEGIN
1070
    73
1070
     1
1070
    44
1040
1.0
1070
    74
1070
     0
1000
MTEXTEND
  0
LINE
  5
51
330
A
100
AcDbEntity
  8
VPORT-BORDERS
 62
     7
100
AcDbLine
 10
33.709398
 20
289.978338
 30
0.0
 11
33.709398
 21
29.57786699999999
 31
0.0
  0
LINE
  5
50
330
A
100
AcDbEntity
  8
VPORT-BORDERS
 62
     7
100
AcDbLine
 10
46.809374
 20
289.978338
 30
0.0
 11
46.809374
 21
29.57786699999999
 31
0.0
  0
LINE
  5
4F
330
A
100
AcDbEntity
  8
VPORT-BORDERS
 62
     7
100
AcDbLine
 10
20.60942199999999
 20
289.978338
 30
0.0
 11
20.60942199999999
 21
29.57786699999999
 31
0.0
  0
LINE
  5
4E
330
A
100
AcDbEntity
  8
VPORT-BORDERS
 62
     7
100
AcDbLine
 10
214.95191
 20
29.57786699999999
 30
0.0
 11
20.60942199999999
 21
29.57786699999999
 31
0.0
  0
MTEXT
  5
4D
330
A
100
AcDbEntity
  8
VPORT-BORDERS
 62
     7
100
AcDbMText
 10
9.837987
 20
31.01815999999999
 30
0.0
 40
2.444193999999999
 41
0.0
 71
     1
 72
     2
  1
\W1.02;\fOsaka|b0|i0|c128;0.01S
  7
STD
 73
     1
 44
1.0
1001
ACAD
1000
MTEXTBEGIN
1070
    73
1070
     1
1070
    44
1040
1.0
1070
    74
1070
     0
1000
MTEXTEND
  0
SPLINE
  5
4C
330
A
100
AcDbEntity
  8
VPORT-BORDERS
 62
     7
100
AcDbSpline
210
0.0
220
0.0
230
1.0
 70
     8
 71
     3
 72
    29
 73
    25
 74
     0
 42
0.0000000001
 43
0.0000000001
 40
0.0
 40
0.0
 40
0.0
 40
0.0
 40
1.0
 40
1.0
 40
1.0
 40
2.0
 40
2.0
 40
2.0
 40
3.0
 40
3.0
 40
3.0
 40
4.0
 40
4.0
 40
4.0
 40
5.0
 40
5.0
 40
5.0
 40
6.0
 40
6.0
 40
6.0
 40
7.0
 40
7.0
 40
7.0
 40
8.0
 40
8.0
 40
8.0
 40
8.0
 10
76.60290391710069
 20
289.8510416666666
 30
0.0
 10
76.60290391710069
 20
289.8510416666666
 30
0.0
 10
76.9198527018229
 20
283.0325086805554
 30
0.0
 10
76.9198527018229
 20
283.0325086805554
 30
0.0
 10
77.55598958333333
 20
272.8141832139757
 30
0.0
 10
80.7861111111111
 20
252.4321370442708
 30
0.0
 10
83.84346110026042
 20
240.8492092556424
 30
0.0
 10
87.61136203342012
 20
226.5741115993924
 30
0.0
 10
90.91710340711804
 20
218.2709147135415
 30
0.0
 10
96.7787611219618
 20
205.277392578125
 30
0.0
 10
100.3065388997395
 20
197.4573703342013
 30
0.0
 10
105.5391221788194
 20
186.7565592447914
 30
0.0
 10
114.4763888888888
 20
170.8815592447916
 30
0.0
 10
115.6783827039928
 20
168.7462890624999
 30
0.0
 10
116.9458333333333
 20
165.4135036892359
 30
0.0
 10
116.9458333333333
 20
162.003375922309
 30
0.0
 10
116.9458333333333
 20
162.003375922309
 30
0.0
 10
116.9458333333333
 20
59.2863037109375
 30
0.0
 10
116.9458333333333
 20
59.2863037109375
 30
0.0
 10
116.9458333333333
 20
49.58491482204861
 30
0.0
 10
124.7069444444444
 20
43.23491482204859
 30
0.0
 10
147.1672444661458
 20
43.23491482204859
 30
0.0
 10
147.1672444661458
 20
43.23491482204859
 30
0.0
 10
156.1041666666666
 20
43.23491482204859
 30
0.0
 10
156.1041666666666
 20
43.23491482204859
 30
0.0
  0
SPLINE
  5
4B
330
A
100
AcDbEntity
  8
VPORT-BORDERS
 62
     7
100
AcDbSpline
210
0.0
220
0.0
230
1.0
 70
     8
 71
     3
 72
    17
 73
    13
 74
     0
 42
0.0000000001
 43
0.0000000001
 40
0.0
 40
0.0
 40
0.0
 40
0.0
 40
1.0
 40
1.0
 40
1.0
 40
2.0
 40
2.0
 40
2.0
 40
3.0
 40
3.0
 40
3.0
 40
4.0
 40
4.0
 40
4.0
 40
4.0
 10
101.1883110894095
 20
195.8698703342013
 30
0.0
 10
103.3637166341143
 20
191.1661092122394
 30
0.0
 10
103.4815388997395
 20
188.9908759223089
 30
0.0
 10
103.8343166775173
 20
181.0533759223089
 30
0.0
 10
103.8343166775173
 20
181.0533759223089
 30
0.0
 10
103.8343166775173
 20
68.62010091145832
 30
0.0
 10
103.8343166775173
 20
68.62010091145832
 30
0.0
 10
103.8343166775173
 20
54.52380371093749
 30
0.0
 10
106.3625
 20
48.46767035590278
 30
0.0
 10
113.7708333333333
 20
45.82183702256942
 30
0.0
 10
118.709033203125
 20
44.05829264322917
 30
0.0
 10
129.2930555555555
 20
43.52878146701389
 30
0.0
 10
141.4638888888888
 20
43.23491482204859
 30
0.0
  0
INSERT
  5
45
330
A
100
AcDbEntity
  8
VPORT-BORDERS
 62
     7
100
AcDbBlockReference
  2
AI9-BLK3
 10
110.442957
 20
89.330981
 30
0.0
  0
INSERT
  5
3A
330
A
100
AcDbEntity
  8
VPORT-BORDERS
 62
     7
100
AcDbBlockReference
  2
AI9-BLK2
 10
99.513133
 20
80.296563
 30
0.0
  0
INSERT
  5
2F
330
A
100
AcDbEntity
  8
VPORT-BORDERS
 62
     7
100
AcDbBlockReference
  2
AI9-BLK1
 10
121.973261
 20
80.296563
 30
0.0
  0
MTEXT
  5
2B
330
A
100
AcDbEntity
  8
レイヤー_5
 62
     7
100
AcDbMText
 10
167.3561929999999
 20
269.6656089999998
 30
0.0
 40
2.444193999999999
 41
0.0
 71
     1
 72
     2
  1
\W1.02;\fOsaka|b0|i0|c128;ZS630-NF, ZAS630-NF
  7
STD
 73
     1
 44
1.0
1001
ACAD
1000
MTEXTBEGIN
1070
    73
1070
     1
1070
    44
1040
1.0
1070
    74
1070
     0
1000
MTEXTEND
  0
MTEXT
  5
2A
330
A
100
AcDbEntity
  8
レイヤー_5
 62
     7
100
AcDbMText
 10
167.3561929999999
 20
273.635048
 30
0.0
 40
2.444193999999999
 41
0.0
 71
     1
 72
     2
  1
\W1.02;\fOsaka|b0|i0|c128;ZS630-CF, ZAS630-CF
  7
STD
 73
     1
 44
1.0
1001
ACAD
1000
MTEXTBEGIN
1070
    73
1070
     1
1070
    44
1040
1.0
1070
    74
1070
     0
1000
MTEXTEND
  0
MTEXT
  5
29
330
A
100
AcDbEntity
  8
レイヤー_5
 62
     7
100
AcDbMText
 10
154.8835689999999
 20
281.780804
 30
0.0
 40
2.444193999999999
 41
0.0
 71
     1
 72
     2
  1
\W1.02;\fOsaka|b0|i0|c128;500A
  7
STD
 73
     1
 44
1.0
1001
ACAD
1000
MTEXTBEGIN
1070
    73
1070
     1
1070
    44
1040
1.0
1070
    74
1070
     0
1000
MTEXTEND
  0
SPLINE
  5
185
330
A
100
AcDbEntity
  8
VPORT-BORDERS
 62
     7
100
AcDbSpline
210
0.0
220
0.0
230
1.0
 70
     8
 71
     3
 72
    11
 73
     7
 74
     0
 42
0.0000000001
 43
0.0000000001
 40
0.0
 40
0.0
 40
0.0
 40
0.0
 40
1.0
 40
1.0
 40
1.0
 40
1.742024282544179
 40
1.742024282544179
 40
1.742024282544179
 40
1.742024282544179
 10
104.7633924118924
 20
188.8272875914989
 30
0.0
 10
106.9387979565971
 20
184.1235264695372
 30
0.0
 10
107.056620222222
 20
181.9482931796065
 30
0.0
 10
107.409398
 20
174.0107931796065
 30
0.0
 10
107.409398
 20
174.0107931796065
 30
0.0
 10
107.409398
 20
115.9826742347975
 30
0.0
 10
107.409398
 20
86.04298300000001
 30
0.0
  0
SPLINE
  5
189
330
A
100
AcDbEntity
  8
VPORT-BORDERS
 62
     7
100
AcDbSpline
210
0.0
220
0.0
230
1.0
 70
     8
 71
     3
 72
    11
 73
     7
 74
     0
 42
0.0000000001
 43
0.0000000001
 40
0.0
 40
0.0
 40
0.0
 40
0.0
 40
1.0
 40
1.0
 40
1.0
 40
1.734134938124045
 40
1.734134938124045
 40
1.734134938124045
 40
1.734134938124045
 10
107.6633924118924
 20
183.299643068349
 30
0.0
 10
109.8387979565971
 20
178.5958819463871
 30
0.0
 10
109.9566202222221
 20
176.4206486564565
 30
0.0
 10
110.3093979999999
 20
168.4831486564565
 30
0.0
 10
110.3093979999999
 20
168.4831486564565
 30
0.0
 10
110.3093979999999
 20
114.6615488993643
 30
0.0
 10
110.3093979999999
 20
86.04298299999999
 30
0.0
  0
SPLINE
  5
18A
330
A
100
AcDbEntity
  8
VPORT-BORDERS
 62
     7
100
AcDbSpline
210
0.0
220
0.0
230
1.0
 70
     8
 71
     3
 72
    11
 73
     7
 74
     0
 42
0.0000000001
 43
0.0000000001
 40
0.0
 40
0.0
 40
0.0
 40
0.0
 40
1.0
 40
1.0
 40
1.0
 40
1.726644817523758
 40
1.726644817523758
 40
1.726644817523758
 40
1.726644817523758
 10
110.2633924118924
 20
178.4788104000403
 30
0.0
 10
112.4387979565971
 20
173.7750492780785
 30
0.0
 10
112.5566202222221
 20
171.5998159881479
 30
0.0
 10
112.9093979999999
 20
163.6623159881478
 30
0.0
 10
112.9093979999999
 20
163.6623159881478
 30
0.0
 10
112.9093979999999
 20
113.4788202626682
 30
0.0
 10
112.9093979999999
 20
86.04298299999998
 30
0.0
  0
SPLINE
  5
18B
330
A
100
AcDbEntity
  8
VPORT-BORDERS
 62
     7
100
AcDbSpline
210
0.0
220
0.0
230
1.0
 70
     8
 71
     3
 72
    11
 73
     7
 74
     0
 42
0.0000000001
 43
0.0000000001
 40
0.0
 40
0.0
 40
0.0
 40
0.0
 40
1.0
 40
1.0
 40
1.0
 40
1.71994831296274
 40
1.71994831296274
 40
1.71994831296274
 40
1.71994831296274
 10
112.4633924118924
 20
174.4849672965148
 30
0.0
 10
114.6387979565971
 20
169.7812061745531
 30
0.0
 10
114.7566202222221
 20
167.6059728846225
 30
0.0
 10
115.1093979999999
 20
159.6684728846225
 30
0.0
 10
115.1093979999999
 20
159.6684728846225
 30
0.0
 10
115.1093979999999
 20
112.4757732801501
 30
0.0
 10
115.1093979999999
 20
86.04298299999999
 30
0.0
  0
SPLINE
  5
1B3
330
A
100
AcDbEntity
  8
VPORT-BORDERS
 62
     7
100
AcDbSpline
210
0.0
220
0.0
230
1.0
 70
     8
 71
     3
 72
    14
 73
    10
 74
     0
 42
0.0000000001
 43
0.0000000001
 40
5.665744910522764
 40
5.665744910522764
 40
5.665744910522764
 40
5.665744910522764
 40
6.0
 40
6.0
 40
6.0
 40
7.0
 40
7.0
 40
7.0
 40
8.0
 40
8.0
 40
8.0
 40
8.0
 10
115.1093979999999
 20
86.04298300000008
 30
0.0
 10
115.1093979999999
 20
70.76251906797641
 30
0.0
 10
115.1093979999999
 20
59.28630371093753
 30
0.0
 10
115.1093979999999
 20
59.28630371093753
 30
0.0
 10
115.1093979999999
 20
49.58491482204864
 30
0.0
 10
122.8705091111111
 20
43.23491482204862
 30
0.0
 10
145.3308091328125
 20
43.23491482204862
 30
0.0
 10
145.3308091328125
 20
43.23491482204862
 30
0.0
 10
154.2677313333333
 20
43.23491482204862
 30
0.0
 10
154.2677313333333
 20
43.23491482204862
 30
0.0
  0
SPLINE
  5
1B4
330
A
100
AcDbEntity
  8
VPORT-BORDERS
 62
     7
100
AcDbSpline
210
0.0
220
0.0
230
1.0
 70
     8
 71
     3
 72
    14
 73
    10
 74
     0
 42
0.0000000001
 43
0.0000000001
 40
5.665744910522764
 40
5.665744910522764
 40
5.665744910522764
 40
5.665744910522764
 40
6.0
 40
6.0
 40
6.0
 40
7.0
 40
7.0
 40
7.0
 40
8.0
 40
8.0
 40
8.0
 40
8.0
 10
112.909398
 20
86.04298300000003
 30
0.0
 10
112.909398
 20
70.76251906797637
 30
0.0
 10
112.909398
 20
59.28630371093749
 30
0.0
 10
112.9093979999999
 20
59.28630371093749
 30
0.0
 10
112.9093979999999
 20
49.58491482204859
 30
0.0
 10
120.6705091111111
 20
43.23491482204858
 30
0.0
 10
143.1308091328125
 20
43.23491482204858
 30
0.0
 10
143.1308091328125
 20
43.23491482204858
 30
0.0
 10
152.0677313333333
 20
43.23491482204858
 30
0.0
 10
152.0677313333333
 20
43.23491482204858
 30
0.0
  0
SPLINE
  5
1B5
330
A
100
AcDbEntity
  8
VPORT-BORDERS
 62
     7
100
AcDbSpline
210
0.0
220
0.0
230
1.0
 70
     8
 71
     3
 72
    14
 73
    10
 74
     0
 42
0.0000000001
 43
0.0000000001
 40
5.665744910522764
 40
5.665744910522764
 40
5.665744910522764
 40
5.665744910522764
 40
6.0
 40
6.0
 40
6.0
 40
7.0
 40
7.0
 40
7.0
 40
8.0
 40
8.0
 40
8.0
 40
8.0
 10
110.3093979999999
 20
86.04298300000003
 30
0.0
 10
110.3093979999999
 20
70.76251906797637
 30
0.0
 10
110.3093979999999
 20
59.28630371093749
 30
0.0
 10
110.3093979999999
 20
59.28630371093749
 30
0.0
 10
110.3093979999999
 20
49.58491482204859
 30
0.0
 10
118.070509111111
 20
43.23491482204858
 30
0.0
 10
140.5308091328124
 20
43.23491482204858
 30
0.0
 10
140.5308091328124
 20
43.23491482204858
 30
0.0
 10
149.4677313333331
 20
43.23491482204858
 30
0.0
 10
149.4677313333331
 20
43.23491482204858
 30
0.0
  0
SPLINE
  5
1B6
330
A
100
AcDbEntity
  8
VPORT-BORDERS
 62
     7
100
AcDbSpline
210
0.0
220
0.0
230
1.0
 70
     8
 71
     3
 72
    14
 73
    10
 74
     0
 42
0.0000000001
 43
0.0000000001
 40
5.665744910522764
 40
5.665744910522764
 40
5.665744910522764
 40
5.665744910522764
 40
6.0
 40
6.0
 40
6.0
 40
7.0
 40
7.0
 40
7.0
 40
8.0
 40
8.0
 40
8.0
 40
8.0
 10
107.409398
 20
86.04298300000005
 30
0.0
 10
107.409398
 20
70.76251906797638
 30
0.0
 10
107.409398
 20
59.2863037109375
 30
0.0
 10
107.409398
 20
59.2863037109375
 30
0.0
 10
107.409398
 20
49.58491482204861
 30
0.0
 10
115.1705091111111
 20
43.23491482204859
 30
0.0
 10
137.6308091328125
 20
43.23491482204859
 30
0.0
 10
137.6308091328125
 20
43.23491482204859
 30
0.0
 10
146.5677313333333
 20
43.23491482204859
 30
0.0
 10
146.5677313333333
 20
43.23491482204859
 30
0.0
  0
ENDSEC
  0
SECTION
  2
OBJECTS
  0
DICTIONARY
  5
19
330
0
100
AcDbDictionary
281
     1
  3
ACAD_COLOR
350
DF
  3
ACAD_GROUP
350
1A
  3
ACAD_LAYOUT
350
1E
  3
ACAD_MATERIAL
350
DE
  3
ACAD_MLINESTYLE
350
1B
  3
ACAD_PLOTSETTINGS
350
22
  3
ACAD_PLOTSTYLENAME
350
1F
  3
ACAD_TABLESTYLE
350
E0
  3
ACAD_WIPEOUT_VARS
350
23
  3
ACDBHEADERROUNDTRIPXREC
350
1B8
  3
AcDbVariableDictionary
350
E6
  0
DICTIONARY
  5
DF
102
{ACAD_REACTORS
330
19
102
}
330
19
100
AcDbDictionary
281
     1
  0
DICTIONARY
  5
1A
102
{ACAD_REACTORS
330
19
102
}
330
19
100
AcDbDictionary
281
     1
  0
DICTIONARY
  5
1E
102
{ACAD_REACTORS
330
19
102
}
330
19
100
AcDbDictionary
281
     1
  3
Layout1
350
21
  3
Model
350
20
  0
DICTIONARY
  5
DE
102
{ACAD_REACTORS
330
19
102
}
330
19
100
AcDbDictionary
281
     1
  0
DICTIONARY
  5
1B
102
{ACAD_REACTORS
330
19
102
}
330
19
100
AcDbDictionary
281
     1
  3
Standard
350
1C
  0
DICTIONARY
  5
22
102
{ACAD_REACTORS
330
19
102
}
330
19
100
AcDbDictionary
281
     1
  0
ACDBDICTIONARYWDFLT
  5
1F
102
{ACAD_REACTORS
330
19
102
}
330
19
100
AcDbDictionary
281
     1
  3
Normal
350
1D
100
AcDbDictionaryWithDefault
340
1D
  0
DICTIONARY
  5
E0
102
{ACAD_REACTORS
330
19
102
}
330
19
100
AcDbDictionary
281
     1
  3
Standard
350
E1
  0
WIPEOUTVARIABLES
  5
23
330
19
100
AcDbWipeoutVariables
 70
     1
  0
DICTIONARY
  5
1B8
102
{ACAD_REACTORS
330
19
102
}
330
19
100
AcDbDictionary
281
     1
  3
CEPSNTYPE
350
1C2
  3
DIMSTYLEDATA
350
1C6
  3
FINGERPRINTGUID
350
1C3
  3
HYPERLINKBASE
350
1BB
  3
INSUNITS
350
1C1
  3
LAYOUTDICT
350
1BD
  3
LWETCUNION
350
1C0
  3
PLOTSETDICT
350
1BE
  3
PLOTSTYLNAMDICT
350
1BF
  3
PSVPSCALE
350
1C5
  3
PUCSBASE
350
1C9
  3
PUCSORGBACK
350
1CF
  3
PUCSORGBOTTOM
350
1CB
  3
PUCSORGFRONT
350
1CE
  3
PUCSORGLEFT
350
1CC
  3
PUCSORGRIGHT
350
1CD
  3
PUCSORGTOP
350
1CA
  3
PUCSORTHOREF
350
1C7
  3
PUCSORTHOVIEW
350
1C8
  3
STYLESHEET
350
1BC
  3
TSTACKALIGN
350
1B9
  3
TSTACKSIZE
350
1BA
  3
UCSBASE
350
1D2
  3
UCSORGBACK
350
1D8
  3
UCSORGBOTTOM
350
1D4
  3
UCSORGFRONT
350
1D7
  3
UCSORGLEFT
350
1D5
  3
UCSORGRIGHT
350
1D6
  3
UCSORGTOP
350
1D3
  3
UCSORTHOREF
350
1D0
  3
UCSORTHOVIEW
350
1D1
  3
VERSIONGUID
350
1C4
  0
DICTIONARY
  5
E6
102
{ACAD_REACTORS
330
19
102
}
330
19
100
AcDbDictionary
281
     1
  3
CTABLESTYLE
350
E7
  3
DIMASSOC
350
E8
  3
PROJECTNAME
350
E9
  0
LAYOUT
  5
21
102
{ACAD_XDICTIONARY
360
EE
102
}
102
{ACAD_REACTORS
330
1E
102
}
330
1E
100
AcDbPlotSettings
  1

  2

  4

  6

 40
0.0
 41
0.0
 42
0.0
 43
0.0
 44
0.0
 45
0.0
 46
0.0
 47
0.0
 48
0.0
 49
0.0
140
0.0
141
0.0
142
1.0
143
1.0
 70
     0
 72
     0
 73
     0
 74
     0
  7

 75
     0
147
1.0
148
0.0
149
0.0
100
AcDbLayout
  1
Layout1
 70
     0
 71
     1
 10
0.0
 20
0.0
 11
12.0
 21
9.0
 12
0.0
 22
0.0
 32
0.0
 14
1.000000000000000E+20
 24
1.000000000000000E+20
 34
1.000000000000000E+20
 15
-1.000000000000000E+20
 25
-1.000000000000000E+20
 35
-1.000000000000000E+20
146
0.0
 13
0.0
 23
0.0
 33
0.0
 16
1.0
 26
0.0
 36
0.0
 17
0.0
 27
1.0
 37
0.0
 76
     0
330
B
  0
LAYOUT
  5
20
102
{ACAD_XDICTIONARY
360
EC
102
}
102
{ACAD_REACTORS
330
1E
102
}
330
1E
100
AcDbPlotSettings
  1

  2

  4

  6

 40
0.0
 41
0.0
 42
0.0
 43
0.0
 44
0.0
 45
0.0
 46
0.0
 47
0.0
 48
0.0
 49
0.0
140
0.0
141
0.0
142
1.0
143
1.0
 70
  1024
 72
     0
 73
     0
 74
     0
  7

 75
     0
147
1.0
148
0.0
149
0.0
100
AcDbLayout
  1
Model
 70
     0
 71
     0
 10
0.0
 20
0.0
 11
0.0
 21
0.0
 12
0.0
 22
0.0
 32
0.0
 14
0.0
 24
0.0
 34
0.0
 15
0.0
 25
0.0
 35
0.0
146
0.0
 13
0.0
 23
0.0
 33
0.0
 16
0.0
 26
0.0
 36
0.0
 17
0.0
 27
0.0
 37
0.0
 76
     0
330
A
  0
MLINESTYLE
  5
1C
102
{ACAD_REACTORS
330
1B
102
}
330
1B
100
AcDbMlineStyle
  2
STANDARD
 70
     0
  3

 62
     0
 51
90.0
 52
90.0
 71
     2
 49
0.5
 62
   256
  6
BYLAYER
 49
-0.5
 62
   256
  6
BYLAYER
  0
ACDBPLACEHOLDER
  5
1D
102
{ACAD_REACTORS
330
1F
102
}
330
1F
  0
TABLESTYLE
  5
E1
102
{ACAD_REACTORS
330
E0
102
}
330
E0
100
AcDbTableStyle
  3
Standard
 70
     0
 71
     0
 40
0.06
 41
0.06
280
     0
281
     0
  7
Standard
140
0.18
170
     2
 62
     0
 63
     7
283
     0
274
    -2
284
     1
 64
     0
275
    -2
285
     1
 65
     0
276
    -2
286
     1
 66
     0
277
    -2
287
     1
 67
     0
278
    -2
288
     1
 68
     0
279
    -2
289
     1
 69
     0
  7
Standard
140
0.25
170
     5
 62
     0
 63
     7
283
     0
274
    -2
284
     1
 64
     0
275
    -2
285
     1
 65
     0
276
    -2
286
     1
 66
     0
277
    -2
287
     1
 67
     0
278
    -2
288
     1
 68
     0
279
    -2
289
     1
 69
     0
  7
Standard
140
0.18
170
     5
 62
     0
 63
     7
283
     0
274
    -2
284
     1
 64
     0
275
    -2
285
     1
 65
     0
276
    -2
286
     1
 66
     0
277
    -2
287
     1
 67
     0
278
    -2
288
     1
 68
     0
279
    -2
289
     1
 69
     0
  0
XRECORD
  5
1C2
102
{ACAD_REACTORS
330
1B8
102
}
330
1B8
100
AcDbXrecord
280
     1
 90
        0
  0
XRECORD
  5
1C6
102
{ACAD_REACTORS
330
1B8
102
}
330
1B8
100
AcDbXrecord
280
     1
1000
DSTYLE
1002
{
1070
   278
 70
     0
1070
   371
 70
     0
1070
   372
 70
     0
1002
}
  0
XRECORD
  5
1C3
102
{ACAD_REACTORS
330
1B8
102
}
330
1B8
100
AcDbXrecord
280
     1
  1

  0
XRECORD
  5
1BB
102
{ACAD_REACTORS
330
1B8
102
}
330
1B8
100
AcDbXrecord
280
     1
  1

  0
XRECORD
  5
1C1
102
{ACAD_REACTORS
330
1B8
102
}
330
1B8
100
AcDbXrecord
280
     1
 90
        0
  0
XRECORD
  5
1BD
102
{ACAD_REACTORS
330
1B8
102
}
330
1B8
100
AcDbXrecord
280
     1
340
1E
  0
XRECORD
  5
1C0
102
{ACAD_REACTORS
330
1B8
102
}
330
1B8
100
AcDbXrecord
280
     1
 90
    10752
  0
XRECORD
  5
1BE
102
{ACAD_REACTORS
330
1B8
102
}
330
1B8
100
AcDbXrecord
280
     1
340
22
  0
XRECORD
  5
1BF
102
{ACAD_REACTORS
330
1B8
102
}
330
1B8
100
AcDbXrecord
280
     1
340
1F
  0
XRECORD
  5
1C5
102
{ACAD_REACTORS
330
1B8
102
}
330
1B8
100
AcDbXrecord
280
     1
 40
0.0
  0
XRECORD
  5
1C9
102
{ACAD_REACTORS
330
1B8
102
}
330
1B8
100
AcDbXrecord
280
     1
340
0
  0
XRECORD
  5
1CF
102
{ACAD_REACTORS
330
1B8
102
}
330
1B8
100
AcDbXrecord
280
     1
 10
0.0
 20
0.0
 30
0.0
  0
XRECORD
  5
1CB
102
{ACAD_REACTORS
330
1B8
102
}
330
1B8
100
AcDbXrecord
280
     1
 10
0.0
 20
0.0
 30
0.0
  0
XRECORD
  5
1CE
102
{ACAD_REACTORS
330
1B8
102
}
330
1B8
100
AcDbXrecord
280
     1
 10
0.0
 20
0.0
 30
0.0
  0
XRECORD
  5
1CC
102
{ACAD_REACTORS
330
1B8
102
}
330
1B8
100
AcDbXrecord
280
     1
 10
0.0
 20
0.0
 30
0.0
  0
XRECORD
  5
1CD
102
{ACAD_REACTORS
330
1B8
102
}
330
1B8
100
AcDbXrecord
280
     1
 10
0.0
 20
0.0
 30
0.0
  0
XRECORD
  5
1CA
102
{ACAD_REACTORS
330
1B8
102
}
330
1B8
100
AcDbXrecord
280
     1
 10
0.0
 20
0.0
 30
0.0
  0
XRECORD
  5
1C7
102
{ACAD_REACTORS
330
1B8
102
}
330
1B8
100
AcDbXrecord
280
     1
340
0
  0
XRECORD
  5
1C8
102
{ACAD_REACTORS
330
1B8
102
}
330
1B8
100
AcDbXrecord
280
     1
 70
     0
  0
XRECORD
  5
1BC
102
{ACAD_REACTORS
330
1B8
102
}
330
1B8
100
AcDbXrecord
280
     1
  1

  0
XRECORD
  5
1B9
102
{ACAD_REACTORS
330
1B8
102
}
330
1B8
100
AcDbXrecord
280
     1
 90
        1
  0
XRECORD
  5
1BA
102
{ACAD_REACTORS
330
1B8
102
}
330
1B8
100
AcDbXrecord
280
     1
 90
       70
  0
XRECORD
  5
1D2
102
{ACAD_REACTORS
330
1B8
102
}
330
1B8
100
AcDbXrecord
280
     1
340
0
  0
XRECORD
  5
1D8
102
{ACAD_REACTORS
330
1B8
102
}
330
1B8
100
AcDbXrecord
280
     1
 10
0.0
 20
0.0
 30
0.0
  0
XRECORD
  5
1D4
102
{ACAD_REACTORS
330
1B8
102
}
330
1B8
100
AcDbXrecord
280
     1
 10
0.0
 20
0.0
 30
0.0
  0
XRECORD
  5
1D7
102
{ACAD_REACTORS
330
1B8
102
}
330
1B8
100
AcDbXrecord
280
     1
 10
0.0
 20
0.0
 30
0.0
  0
XRECORD
  5
1D5
102
{ACAD_REACTORS
330
1B8
102
}
330
1B8
100
AcDbXrecord
280
     1
 10
0.0
 20
0.0
 30
0.0
  0
XRECORD
  5
1D6
102
{ACAD_REACTORS
330
1B8
102
}
330
1B8
100
AcDbXrecord
280
     1
 10
0.0
 20
0.0
 30
0.0
  0
XRECORD
  5
1D3
102
{ACAD_REACTORS
330
1B8
102
}
330
1B8
100
AcDbXrecord
280
     1
 10
0.0
 20
0.0
 30
0.0
  0
XRECORD
  5
1D0
102
{ACAD_REACTORS
330
1B8
102
}
330
1B8
100
AcDbXrecord
280
     1
340
0
  0
XRECORD
  5
1D1
102
{ACAD_REACTORS
330
1B8
102
}
330
1B8
100
AcDbXrecord
280
     1
 70
     0
  0
XRECORD
  5
1C4
102
{ACAD_REACTORS
330
1B8
102
}
330
1B8
100
AcDbXrecord
280
     1
  1
{1B9AA91E-A15B-4CE5-B552-5E73DB973248}
  0
DICTIONARYVAR
  5
E7
102
{ACAD_REACTORS
330
E6
102
}
330
E6
100
DictionaryVariables
280
     0
  1
STANDARD
  0
DICTIONARYVAR
  5
E8
102
{ACAD_REACTORS
330
E6
102
}
330
E6
100
DictionaryVariables
280
     0
  1
1
  0
DICTIONARYVAR
  5
E9
102
{ACAD_REACTORS
330
E6
102
}
330
E6
100
DictionaryVariables
280
     0
  1

  0
DICTIONARY
  5
EE
330
21
100
AcDbDictionary
280
     1
281
     1
  3
ACAD_XREC_ROUNDTRIP
360
EF
  0
DICTIONARY
  5
EC
330
20
100
AcDbDictionary
280
     1
281
     1
  3
ACAD_XREC_ROUNDTRIP
360
ED
  0
XRECORD
  5
EF
102
{ACAD_REACTORS
330
EE
102
}
330
EE
100
AcDbXrecord
280
     1
102
SHADEPLOT
 70
     0
102
SHADEPLOTRESLEVEL
 70
     2
102
SHADEPLOTCUSTOMDPI
 70
   300
  0
XRECORD
  5
ED
102
{ACAD_REACTORS
330
EC
102
}
330
EC
100
AcDbXrecord
280
     1
102
SHADEPLOT
 70
     0
102
SHADEPLOTRESLEVEL
 70
     2
102
SHADEPLOTCUSTOMDPI
 70
   300
  0
ENDSEC
  0
EOF
