  0
SECTION
  2
HEADER
  9
$ACADVER
  1
AC1015
  9
$ACADMAINTVER
 70
    20
  9
$DWGCODEPAGE
  3
ANSI_932
  9
$INSBASE
 10
0.0
 20
0.0
 30
0.0
  9
$EXTMIN
 10
-10.78159975995027
 20
-14.78713842012416
 30
-0.000000000000013
  9
$EXTMAX
 10
194.3446699757995
 20
260.4227109857498
 30
0.0000000000000023
  9
$LIMMIN
 10
0.0
 20
0.0
  9
$LIMMAX
 10
420.0
 20
297.0
  9
$ORTHOMODE
 70
     1
  9
$REGENMODE
 70
     1
  9
$FILLMODE
 70
     1
  9
$QTEXTMODE
 70
     0
  9
$MIRRTEXT
 70
     1
  9
$LTSCALE
 40
1.0
  9
$ATTMODE
 70
     1
  9
$TEXTSIZE
 40
2.5
  9
$TRACEWID
 40
1.0
  9
$TEXTSTYLE
  7
Standard
  9
$CLAYER
  8
0
  9
$CELTYPE
  6
ByLayer
  9
$CECOLOR
 62
   256
  9
$CELTSCALE
 40
1.0
  9
$DISPSILH
 70
     0
  9
$DIMSCALE
 40
1.0
  9
$DIMASZ
 40
2.5
  9
$DIMEXO
 40
0.625
  9
$DIMDLI
 40
3.75
  9
$DIMRND
 40
0.0
  9
$DIMDLE
 40
0.0
  9
$DIMEXE
 40
1.25
  9
$DIMTP
 40
0.0
  9
$DIMTM
 40
0.0
  9
$DIMTXT
 40
2.5
  9
$DIMCEN
 40
2.5
  9
$DIMTSZ
 40
0.0
  9
$DIMTOL
 70
     0
  9
$DIMLIM
 70
     0
  9
$DIMTIH
 70
     0
  9
$DIMTOH
 70
     0
  9
$DIMSE1
 70
     0
  9
$DIMSE2
 70
     0
  9
$DIMTAD
 70
     1
  9
$DIMZIN
 70
     8
  9
$DIMBLK
  1

  9
$DIMASO
 70
     1
  9
$DIMSHO
 70
     1
  9
$DIMPOST
  1

  9
$DIMAPOST
  1

  9
$DIMALT
 70
     0
  9
$DIMALTD
 70
     3
  9
$DIMALTF
 40
0.03937007874016
  9
$DIMLFAC
 40
1.0
  9
$DIMTOFL
 70
     1
  9
$DIMTVP
 40
0.0
  9
$DIMTIX
 70
     0
  9
$DIMSOXD
 70
     0
  9
$DIMSAH
 70
     0
  9
$DIMBLK1
  1

  9
$DIMBLK2
  1

  9
$DIMSTYLE
  2
ISO-25
  9
$DIMCLRD
 70
     0
  9
$DIMCLRE
 70
     0
  9
$DIMCLRT
 70
     0
  9
$DIMTFAC
 40
1.0
  9
$DIMGAP
 40
0.625
  9
$DIMJUST
 70
     0
  9
$DIMSD1
 70
     0
  9
$DIMSD2
 70
     0
  9
$DIMTOLJ
 70
     0
  9
$DIMTZIN
 70
     8
  9
$DIMALTZ
 70
     0
  9
$DIMALTTZ
 70
     0
  9
$DIMUPT
 70
     0
  9
$DIMDEC
 70
     2
  9
$DIMTDEC
 70
     2
  9
$DIMALTU
 70
     2
  9
$DIMALTTD
 70
     3
  9
$DIMTXSTY
  7
Standard
  9
$DIMAUNIT
 70
     0
  9
$DIMADEC
 70
     0
  9
$DIMALTRND
 40
0.0
  9
$DIMAZIN
 70
     0
  9
$DIMDSEP
 70
    44
  9
$DIMATFIT
 70
     3
  9
$DIMFRAC
 70
     0
  9
$DIMLDRBLK
  1

  9
$DIMLUNIT
 70
     2
  9
$DIMLWD
 70
    -2
  9
$DIMLWE
 70
    -2
  9
$DIMTMOVE
 70
     0
  9
$LUNITS
 70
     2
  9
$LUPREC
 70
     4
  9
$SKETCHINC
 40
1.0
  9
$FILLETRAD
 40
0.0
  9
$AUNITS
 70
     0
  9
$AUPREC
 70
     0
  9
$MENU
  1
.
  9
$ELEVATION
 40
0.0
  9
$PELEVATION
 40
0.0
  9
$THICKNESS
 40
0.0
  9
$LIMCHECK
 70
     0
  9
$CHAMFERA
 40
10.0
  9
$CHAMFERB
 40
10.0
  9
$CHAMFERC
 40
20.0
  9
$CHAMFERD
 40
0.0
  9
$SKPOLY
 70
     0
  9
$TDCREATE
 40
2453249.553566794
  9
$TDUCREATE
 40
2453249.178566794
  9
$TDUPDATE
 40
2456722.503702430
  9
$TDUUPDATE
 40
2456722.128702431
  9
$TDINDWG
 40
0.1994556829
  9
$TDUSRTIMER
 40
0.1994471991
  9
$USRTIMER
 70
     1
  9
$ANGBASE
 50
0.0
  9
$ANGDIR
 70
     0
  9
$PDMODE
 70
     0
  9
$PDSIZE
 40
0.0
  9
$PLINEWID
 40
0.0
  9
$SPLFRAME
 70
     0
  9
$SPLINETYPE
 70
     6
  9
$SPLINESEGS
 70
     8
  9
$HANDSEED
  5
660
  9
$SURFTAB1
 70
     6
  9
$SURFTAB2
 70
     6
  9
$SURFTYPE
 70
     6
  9
$SURFU
 70
     6
  9
$SURFV
 70
     6
  9
$UCSBASE
  2

  9
$UCSNAME
  2

  9
$UCSORG
 10
0.0
 20
0.0
 30
0.0
  9
$UCSXDIR
 10
1.0
 20
0.0
 30
0.0
  9
$UCSYDIR
 10
0.0
 20
1.0
 30
0.0
  9
$UCSORTHOREF
  2

  9
$UCSORTHOVIEW
 70
     0
  9
$UCSORGTOP
 10
0.0
 20
0.0
 30
0.0
  9
$UCSORGBOTTOM
 10
0.0
 20
0.0
 30
0.0
  9
$UCSORGLEFT
 10
0.0
 20
0.0
 30
0.0
  9
$UCSORGRIGHT
 10
0.0
 20
0.0
 30
0.0
  9
$UCSORGFRONT
 10
0.0
 20
0.0
 30
0.0
  9
$UCSORGBACK
 10
0.0
 20
0.0
 30
0.0
  9
$PUCSBASE
  2

  9
$PUCSNAME
  2

  9
$PUCSORG
 10
0.0
 20
0.0
 30
0.0
  9
$PUCSXDIR
 10
1.0
 20
0.0
 30
0.0
  9
$PUCSYDIR
 10
0.0
 20
1.0
 30
0.0
  9
$PUCSORTHOREF
  2

  9
$PUCSORTHOVIEW
 70
     0
  9
$PUCSORGTOP
 10
0.0
 20
0.0
 30
0.0
  9
$PUCSORGBOTTOM
 10
0.0
 20
0.0
 30
0.0
  9
$PUCSORGLEFT
 10
0.0
 20
0.0
 30
0.0
  9
$PUCSORGRIGHT
 10
0.0
 20
0.0
 30
0.0
  9
$PUCSORGFRONT
 10
0.0
 20
0.0
 30
0.0
  9
$PUCSORGBACK
 10
0.0
 20
0.0
 30
0.0
  9
$USERI1
 70
     0
  9
$USERI2
 70
     0
  9
$USERI3
 70
     0
  9
$USERI4
 70
     0
  9
$USERI5
 70
     0
  9
$USERR1
 40
0.0
  9
$USERR2
 40
0.0
  9
$USERR3
 40
0.0
  9
$USERR4
 40
0.0
  9
$USERR5
 40
0.0
  9
$WORLDVIEW
 70
     1
  9
$SHADEDGE
 70
     3
  9
$SHADEDIF
 70
    70
  9
$TILEMODE
 70
     1
  9
$MAXACTVP
 70
    64
  9
$PINSBASE
 10
0.0
 20
0.0
 30
0.0
  9
$PLIMCHECK
 70
     0
  9
$PEXTMIN
 10
26.66076962115562
 20
20.31135699206657
 30
-0.0015258207003583
  9
$PEXTMAX
 10
240.039213369355
 20
182.8886381005154
 30
0.0000000349246037
  9
$PLIMMIN
 10
-6.350006103515625
 20
-6.349999904632567
  9
$PLIMMAX
 10
273.0499877929687
 20
209.5499939918517
  9
$UNITMODE
 70
     0
  9
$VISRETAIN
 70
     1
  9
$PLINEGEN
 70
     0
  9
$PSLTSCALE
 70
     1
  9
$TREEDEPTH
 70
  3020
  9
$CMLSTYLE
  2
Standard
  9
$CMLJUST
 70
     0
  9
$CMLSCALE
 40
20.0
  9
$PROXYGRAPHICS
 70
     1
  9
$MEASUREMENT
 70
     1
  9
$CELWEIGHT
370
    -1
  9
$ENDCAPS
280
     0
  9
$JOINSTYLE
280
     0
  9
$LWDISPLAY
290
     0
  9
$INSUNITS
 70
     4
  9
$HYPERLINKBASE
  1

  9
$STYLESHEET
  1
MONOCHROME.CTB
  9
$XEDIT
290
     1
  9
$CEPSNTYPE
380
     0
  9
$PSTYLEMODE
290
     1
  9
$FINGERPRINTGUID
  2
{FDEAD578-A652-11D2-9A35-0060089B3A3F}
  9
$VERSIONGUID
  2
{F183C825-0530-4282-B4D7-F31366985917}
  9
$EXTNAMES
290
     1
  9
$PSVPSCALE
 40
0.0
  9
$OLESTARTUP
290
     0
  0
ENDSEC
  0
SECTION
  2
CLASSES
  0
CLASS
  1
ACDBDICTIONARYWDFLT
  2
AcDbDictionaryWithDefault
  3
ObjectDBX Classes
 90
        0
280
     0
281
     0
  0
CLASS
  1
ACDBPLACEHOLDER
  2
AcDbPlaceHolder
  3
ObjectDBX Classes
 90
        0
280
     0
281
     0
  0
CLASS
  1
LAYOUT
  2
AcDbLayout
  3
ObjectDBX Classes
 90
        0
280
     0
281
     0
  0
CLASS
  1
DICTIONARYVAR
  2
AcDbDictionaryVar
  3
ObjectDBX Classes
 90
        0
280
     0
281
     0
  0
CLASS
  1
TABLESTYLE
  2
AcDbTableStyle
  3
ObjectDBX Classes
 90
     4095
280
     0
281
     0
  0
CLASS
  1
SORTENTSTABLE
  2
AcDbSortentsTable
  3
ObjectDBX Classes
 90
        0
280
     0
281
     0
  0
CLASS
  1
MATERIAL
  2
AcDbMaterial
  3
ObjectDBX Classes
 90
     1153
280
     0
281
     0
  0
CLASS
  1
VISUALSTYLE
  2
AcDbVisualStyle
  3
ObjectDBX Classes
 90
     4095
280
     0
281
     0
  0
CLASS
  1
SCALE
  2
AcDbScale
  3
ObjectDBX Classes
 90
     1153
280
     0
281
     0
  0
CLASS
  1
MLEADERSTYLE
  2
AcDbMLeaderStyle
  3
ACDB_MLEADERSTYLE_CLASS
 90
     4095
280
     0
281
     0
  0
CLASS
  1
AEC_REFEDIT_STATUS_TRACKER
  2
AecDbRefEditStatusTracker
  3
AecArchBase60|Product Desc: Autodesk Architectural Desktop 2007 |Company: Autodesk,Inc. |WEB Address: www.autodesk.com
 90
    32897
280
     0
281
     0
  0
CLASS
  1
NPOCOLLECTION
  2
AcDbImpNonPersistentObjectsCollection
  3
ObjectDBX Classes
 90
    33921
280
     0
281
     0
  0
CLASS
  1
CELLSTYLEMAP
  2
AcDbCellStyleMap
  3
ObjectDBX Classes
 90
     1152
280
     0
281
     0
  0
ENDSEC
  0
SECTION
  2
TABLES
  0
TABLE
  2
VPORT
  5
8
330
0
100
AcDbSymbolTable
 70
     1
  0
VPORT
  5
3FB
330
8
100
AcDbSymbolTableRecord
100
AcDbViewportTableRecord
  2
*Active
 70
     0
 10
0.0
 20
0.0
 11
1.0
 21
1.0
 12
91.78153510792464
 22
122.8177862828128
 13
0.0
 23
0.0
 14
10.0
 24
10.0
 15
10.0
 25
10.0
 16
0.0
 26
0.0
 36
1.0
 17
0.0
 27
0.0
 37
0.0
 40
277.1343938073137
 41
1.737456242707117
 42
50.0
 43
0.0
 44
0.0
 50
0.0
 51
0.0
 71
     0
 72
   100
 73
     1
 74
     3
 75
     0
 76
     0
 77
     0
 78
     0
281
     0
 65
     1
110
0.0
120
0.0
130
0.0
111
1.0
121
0.0
131
0.0
112
0.0
122
1.0
132
0.0
 79
     0
146
0.0
  0
ENDTAB
  0
TABLE
  2
LTYPE
  5
5
330
0
100
AcDbSymbolTable
 70
     1
  0
LTYPE
  5
14
330
5
100
AcDbSymbolTableRecord
100
AcDbLinetypeTableRecord
  2
ByBlock
 70
     0
  3

 72
    65
 73
     0
 40
0.0
  0
LTYPE
  5
15
330
5
100
AcDbSymbolTableRecord
100
AcDbLinetypeTableRecord
  2
ByLayer
 70
     0
  3

 72
    65
 73
     0
 40
0.0
  0
LTYPE
  5
16
330
5
100
AcDbSymbolTableRecord
100
AcDbLinetypeTableRecord
  2
Continuous
 70
     0
  3
Solid line
 72
    65
 73
     0
 40
0.0
  0
ENDTAB
  0
TABLE
  2
LAYER
  5
2
330
0
100
AcDbSymbolTable
 70
     6
  0
LAYER
  5
10
102
{ACAD_XDICTIONARY
360
485
102
}
330
2
100
AcDbSymbolTableRecord
100
AcDbLayerTableRecord
  2
0
 70
     0
 62
     7
  6
Continuous
370
    -3
390
F
  0
LAYER
  5
86
102
{ACAD_XDICTIONARY
360
487
102
}
330
2
100
AcDbSymbolTableRecord
100
AcDbLayerTableRecord
  2
レイヤー_5
 70
     0
 62
     2
  6
Continuous
370
    -3
390
F
  0
LAYER
  5
87
102
{ACAD_XDICTIONARY
360
489
102
}
330
2
100
AcDbSymbolTableRecord
100
AcDbLayerTableRecord
  2
VPORT-BORDERS
 70
     0
 62
     5
  6
Continuous
370
    -3
390
F
  0
LAYER
  5
CE
102
{ACAD_XDICTIONARY
360
48B
102
}
330
2
100
AcDbSymbolTableRecord
100
AcDbLayerTableRecord
  2
23
 70
     0
 62
     3
  6
Continuous
370
    -3
390
F
  0
LAYER
  5
CF
102
{ACAD_XDICTIONARY
360
48D
102
}
330
2
100
AcDbSymbolTableRecord
100
AcDbLayerTableRecord
  2
24
 70
     0
 62
     1
  6
Continuous
370
    -3
390
F
  0
LAYER
  5
D0
102
{ACAD_XDICTIONARY
360
48F
102
}
330
2
100
AcDbSymbolTableRecord
100
AcDbLayerTableRecord
  2
200
 70
     0
 62
     1
  6
Continuous
370
    -3
390
F
  0
ENDTAB
  0
TABLE
  2
STYLE
  5
3
330
0
100
AcDbSymbolTable
 70
     2
  0
STYLE
  5
11
330
3
100
AcDbSymbolTableRecord
100
AcDbTextStyleTableRecord
  2
Standard
 70
     0
 40
0.0
 41
1.0
 50
0.0
 71
     0
 42
2.5
  3
txt
  4

  0
STYLE
  5
88
330
3
100
AcDbSymbolTableRecord
100
AcDbTextStyleTableRecord
  2
STD
 70
     0
 40
0.0
 41
1.0
 50
0.0
 71
     0
 42
0.0
  3
txt
  4

  0
ENDTAB
  0
TABLE
  2
VIEW
  5
6
330
0
100
AcDbSymbolTable
 70
     0
  0
ENDTAB
  0
TABLE
  2
UCS
  5
7
330
0
100
AcDbSymbolTable
 70
     0
  0
ENDTAB
  0
TABLE
  2
APPID
  5
9
330
0
100
AcDbSymbolTable
 70
     3
  0
APPID
  5
12
330
9
100
AcDbSymbolTableRecord
100
AcDbRegAppTableRecord
  2
ACAD
 70
     0
  0
APPID
  5
3B3
330
9
100
AcDbSymbolTableRecord
100
AcDbRegAppTableRecord
  2
ACAD_EXEMPT_FROM_CAD_STANDARDS
 70
     0
  0
APPID
  5
559
330
9
100
AcDbSymbolTableRecord
100
AcDbRegAppTableRecord
  2
ACAD_MLEADERVER
 70
     0
  0
ENDTAB
  0
TABLE
  2
DIMSTYLE
  5
A
330
0
100
AcDbSymbolTable
 70
     2
100
AcDbDimStyleTable
 71
     1
340
27
  0
DIMSTYLE
105
27
330
A
100
AcDbSymbolTableRecord
100
AcDbDimStyleTableRecord
  2
ISO-25
 70
     0
 41
2.5
 42
0.625
 43
3.75
 44
1.25
 73
     0
 74
     0
 77
     1
 78
     8
140
2.5
141
2.5
143
0.03937007874016
147
0.625
171
     3
172
     1
271
     2
272
     2
274
     3
278
    44
283
     0
284
     8
340
11
  0
DIMSTYLE
105
89
330
A
100
AcDbSymbolTableRecord
100
AcDbDimStyleTableRecord
  2
Standard
 70
     0
340
11
  0
ENDTAB
  0
TABLE
  2
BLOCK_RECORD
  5
1
330
0
100
AcDbSymbolTable
 70
     6
  0
BLOCK_RECORD
  5
1F
102
{ACAD_XDICTIONARY
360
206
102
}
330
1
100
AcDbSymbolTableRecord
100
AcDbBlockTableRecord
  2
*Model_Space
340
22
  0
BLOCK_RECORD
  5
55
330
1
100
AcDbSymbolTableRecord
100
AcDbBlockTableRecord
  2
*Paper_Space
340
56
  0
BLOCK_RECORD
  5
50
330
1
100
AcDbSymbolTableRecord
100
AcDbBlockTableRecord
  2
*Paper_Space0
340
51
  0
BLOCK_RECORD
  5
AC
330
1
100
AcDbSymbolTableRecord
100
AcDbBlockTableRecord
  2
A$C4A47233A
340
0
  0
BLOCK_RECORD
  5
D1
330
1
100
AcDbSymbolTableRecord
100
AcDbBlockTableRecord
  2
A$C29F15CBE
340
0
  0
BLOCK_RECORD
  5
25A
330
1
100
AcDbSymbolTableRecord
100
AcDbBlockTableRecord
  2
A$C563C75BC
340
0
1001
ACAD
1000
DesignCenter Data
1002
{
1070
     1
1070
     4
1002
}
  0
BLOCK_RECORD
  5
25E
102
{ACAD_XDICTIONARY
360
260
102
}
330
1
100
AcDbSymbolTableRecord
100
AcDbBlockTableRecord
  2
A$C5E035E10
340
0
  0
BLOCK_RECORD
  5
3C3
102
{ACAD_XDICTIONARY
360
3C5
102
}
330
1
100
AcDbSymbolTableRecord
100
AcDbBlockTableRecord
  2
A$C73C334B0
340
0
1001
ACAD
1000
DesignCenter Data
1002
{
1070
     1
1070
     4
1002
}
  0
ENDTAB
  0
ENDSEC
  0
SECTION
  2
BLOCKS
  0
BLOCK
  5
20
330
1F
100
AcDbEntity
  8
0
100
AcDbBlockBegin
  2
*Model_Space
 70
     0
 10
0.0
 20
0.0
 30
0.0
  3
*Model_Space
  1

  0
ENDBLK
  5
21
330
1F
100
AcDbEntity
  8
0
100
AcDbBlockEnd
  0
BLOCK
  5
57
330
55
100
AcDbEntity
 67
     1
  8
0
100
AcDbBlockBegin
  2
*Paper_Space
 70
     0
 10
0.0
 20
0.0
 30
0.0
  3
*Paper_Space
  1

  0
ENDBLK
  5
58
330
55
100
AcDbEntity
 67
     1
  8
0
100
AcDbBlockEnd
  0
BLOCK
  5
52
330
50
100
AcDbEntity
 67
     1
  8
0
100
AcDbBlockBegin
  2
*Paper_Space0
 70
     0
 10
0.0
 20
0.0
 30
0.0
  3
*Paper_Space0
  1

  0
VIEWPORT
  5
6B
102
{ACAD_XDICTIONARY
360
631
102
}
330
50
100
AcDbEntity
 67
     1
  8
0
100
AcDbViewport
 10
133.3499908447265
 20
101.5999970436096
 30
0.0
 40
381.3957395593833
 41
218.2856291881582
 68
     0
 69
     0
 12
133.3499908447265
 22
101.5999970436096
 13
0.0
 23
0.0
 14
10.0
 24
10.0
 15
10.0
 25
10.0
 16
0.0
 26
0.0
 36
1.0
 17
0.0
 27
0.0
 37
0.0
 42
50.0
 43
0.0
 44
0.0
 45
218.2856291881582
 50
0.0
 51
0.0
 72
   100
 90
    32800
  1

281
     0
 71
     1
 74
     0
110
0.0
120
0.0
130
0.0
111
1.0
121
0.0
131
0.0
112
0.0
122
1.0
132
0.0
 79
     0
146
0.0
  0
VIEWPORT
  5
6D
102
{ACAD_XDICTIONARY
360
633
102
}
330
50
100
AcDbEntity
 67
     1
  8
0
100
AcDbViewport
 10
133.3499939441677
 20
101.5999939441678
 30
0.0
 40
213.3599903106689
 41
162.5599903106689
 68
     0
 69
     0
 12
210.0
 22
148.5
 13
0.0
 23
0.0
 14
10.0
 24
10.0
 15
10.0
 25
10.0
 16
0.0
 26
0.0
 36
1.0
 17
0.0
 27
0.0
 37
0.0
 42
50.0
 43
0.0
 44
0.0
 45
324.0677920111345
 50
0.0
 51
0.0
 72
   100
 90
    32864
  1

281
     0
 71
     1
 74
     0
110
0.0
120
0.0
130
0.0
111
1.0
121
0.0
131
0.0
112
0.0
122
1.0
132
0.0
 79
     0
146
0.0
  0
ENDBLK
  5
53
330
50
100
AcDbEntity
 67
     1
  8
0
100
AcDbBlockEnd
  0
BLOCK
  5
BC
330
AC
100
AcDbEntity
  8
0
100
AcDbBlockBegin
  2
A$C4A47233A
 70
     0
 10
0.0
 20
0.0
 30
0.0
  3
A$C4A47233A
  1

  0
MTEXT
  5
AD
330
AC
100
AcDbEntity
  8
レイヤー_5
 62
     7
100
AcDbMText
 10
168.6503431279469
 20
305.964341141238
 30
0.0
 40
2.444193999999999
 41
0.0
 71
     1
 72
     2
  1
\W1.02;\fOsaka|b0|i0|c128;250A
  7
STD
 73
     1
 44
1.0
1001
ACAD
1000
MTEXTBEGIN
1070
    73
1070
     1
1070
    44
1040
1.0
1070
    74
1070
     0
1000
MTEXTEND
  0
MTEXT
  5
AE
330
AC
100
AcDbEntity
  8
レイヤー_5
 62
     7
100
AcDbMText
 10
199.3344311279468
 20
298.8836361412378
 30
0.0
 40
2.444193999999999
 41
0.0
 71
     1
 72
     2
  1
\W1.02;\fOsaka|b0|i0|c128;S400-NF
  7
STD
 73
     1
 44
1.0
1001
ACAD
1000
MTEXTBEGIN
1070
    73
1070
     1
1070
    44
1040
1.0
1070
    74
1070
     0
1000
MTEXTEND
  0
MTEXT
  5
AF
330
AC
100
AcDbEntity
  8
レイヤー_5
 62
     7
100
AcDbMText
 10
182.4982491279468
 20
293.5339201412379
 30
0.0
 40
2.444193999999999
 41
0.0
 71
     1
 72
     2
  1
\W1.02;\fOsaka|b0|i0|c128;S400-GF
  7
STD
 73
     1
 44
1.0
1001
ACAD
1000
MTEXTBEGIN
1070
    73
1070
     1
1070
    44
1040
1.0
1070
    74
1070
     0
1000
MTEXTEND
  0
MTEXT
  5
B0
330
AC
100
AcDbEntity
  8
レイヤー_5
 62
     7
100
AcDbMText
 10
182.4982491279468
 20
298.8836361412378
 30
0.0
 40
2.444193999999999
 41
0.0
 71
     1
 72
     2
  1
\W1.02;\fOsaka|b0|i0|c128;S400-CF,
  7
STD
 73
     1
 44
1.0
1001
ACAD
1000
MTEXTBEGIN
1070
    73
1070
     1
1070
    44
1040
1.0
1070
    74
1070
     0
1000
MTEXTEND
  0
MTEXT
  5
B1
330
AC
100
AcDbEntity
  8
レイヤー_5
 62
     7
100
AcDbMText
 10
0.0000001279469739
 20
7.306595141238047
 30
0.0
 40
7.306594999999997
 41
0.0
 71
     1
 72
     2
  1
\fRyumin Light|b0|i0|c128;SX4250
  7
STD
 73
     1
 44
1.0
1001
ACAD
1000
MTEXTBEGIN
1070
    73
1070
     1
1070
    44
1040
1.0
1070
    74
1070
     0
1000
MTEXTEND
  0
SPLINE
  5
B2
330
AC
100
AcDbEntity
  8
VPORT-BORDERS
 62
     7
100
AcDbSpline
210
0.0
220
0.0
230
1.0
 70
     8
 71
     3
 72
    17
 73
    13
 74
     0
 42
0.0000000001
 43
0.0000000001
 40
0.0
 40
0.0
 40
0.0
 40
0.0
 40
1.0
 40
1.0
 40
1.0
 40
2.0
 40
2.0
 40
2.0
 40
3.0
 40
3.0
 40
3.0
 40
4.0
 40
4.0
 40
4.0
 40
4.0
 10
159.9146148397523
 20
66.83037416380748
 30
0.0
 10
150.4685075263844
 20
67.28478225842554
 30
0.0
 10
144.4220204387105
 20
67.79706795721027
 30
0.0
 10
133.4573150350649
 20
69.23195022717554
 30
0.0
 10
119.8684803996483
 20
71.0103085171061
 30
0.0
 10
108.1572228041622
 20
75.07310962387693
 30
0.0
 10
108.1572228041622
 20
96.18327672457136
 30
0.0
 10
108.1572228041622
 20
110.6471656134601
 30
0.0
 10
108.1572228041622
 20
163.4914852749186
 30
0.0
 10
108.1572228041622
 20
170.547040830474
 30
0.0
 10
108.1572228041622
 20
177.6024241312553
 30
0.0
 10
106.9600521227384
 20
183.9525963860297
 30
0.0
 10
103.9614410116274
 20
189.9498186082519
 30
0.0
  0
SPLINE
  5
B3
330
AC
100
AcDbEntity
  8
VPORT-BORDERS
 62
     7
100
AcDbSpline
210
0.0
220
0.0
230
1.0
 70
     8
 71
     3
 72
    23
 73
    19
 74
     0
 42
0.0000000001
 43
0.0000000001
 40
0.0
 40
0.0
 40
0.0
 40
0.0
 40
1.0
 40
1.0
 40
1.0
 40
2.0
 40
2.0
 40
2.0
 40
3.0
 40
3.0
 40
3.0
 40
4.0
 40
4.0
 40
4.0
 40
5.0
 40
5.0
 40
5.0
 40
6.0
 40
6.0
 40
6.0
 40
6.0
 10
76.43857317308586
 20
314.1275963860296
 30
0.0
 10
76.43857317308586
 20
314.1275963860296
 30
0.0
 10
76.43857317308586
 20
308.1891130418457
 30
0.0
 10
76.43857317308586
 20
300.6043908196232
 30
0.0
 10
76.43857317308586
 20
286.0228519198837
 30
0.0
 10
81.20658532586363
 20
257.9802914272623
 30
0.0
 10
83.02352868523863
 20
250.9803741638071
 30
0.0
 10
88.40338979634973
 20
230.254679719363
 30
0.0
 10
98.51440053853723
 20
201.2387074971408
 30
0.0
 10
103.9614410116274
 20
189.9498186082519
 30
0.0
 10
114.4996435940927
 20
168.1092912645019
 30
0.0
 10
121.1876074612803
 20
166.6075741421058
 30
0.0
 10
121.1876074612803
 20
153.3784074754394
 30
0.0
 10
121.1876074612803
 20
140.1492408087727
 30
0.0
 10
121.1876074612803
 20
106.5092614250919
 30
0.0
 10
121.1876074612803
 20
94.33842809175889
 30
0.0
 10
121.1876074612803
 20
76.9176137471408
 30
0.0
 10
121.9799794230858
 20
71.69105938516165
 30
0.0
 10
131.4078277303775
 20
69.53925274453665
 30
0.0
  0
MTEXT
  5
B4
330
AC
100
AcDbEntity
  8
VPORT-BORDERS
 62
     7
100
AcDbMText
 10
23.60476112794696
 20
55.20169714123804
 30
0.0
 40
2.444193999999999
 41
0.0
 71
     1
 72
     2
  1
\W1.02;\fOsaka|b0|i0|c128;0.01S
  7
STD
 73
     1
 44
1.0
1001
ACAD
1000
MTEXTBEGIN
1070
    73
1070
     1
1070
    44
1040
1.0
1070
    74
1070
     0
1000
MTEXTEND
  0
LINE
  5
B5
330
AC
100
AcDbEntity
  8
VPORT-BORDERS
 62
     7
100
AcDbLine
 10
228.7186841279468
 20
53.76140414123804
 30
0.0
 11
34.37619612794696
 21
53.76140414123804
 31
0.0
  0
LINE
  5
B6
330
AC
100
AcDbEntity
  8
VPORT-BORDERS
 62
     7
100
AcDbLine
 10
34.37619612794696
 20
314.161875141238
 30
0.0
 11
34.37619612794696
 21
53.76140414123804
 31
0.0
  0
LINE
  5
B7
330
AC
100
AcDbEntity
  8
VPORT-BORDERS
 62
     7
100
AcDbLine
 10
60.57614812794696
 20
314.161875141238
 30
0.0
 11
60.57614812794696
 21
53.76140414123804
 31
0.0
  0
LINE
  5
B8
330
AC
100
AcDbEntity
  8
VPORT-BORDERS
 62
     7
100
AcDbLine
 10
47.47617212794696
 20
314.161875141238
 30
0.0
 11
47.47617212794696
 21
53.76140414123804
 31
0.0
  0
MTEXT
  5
B9
330
AC
100
AcDbEntity
  8
VPORT-BORDERS
 62
     7
100
AcDbMText
 10
59.61403412794695
 20
38.97608814123805
 30
0.0
 40
2.444193999999999
 41
0.0
 71
     1
 72
     2
  1
\fOsaka|b0|i0|c128;110V
  7
STD
 11
0.0
 21
1.0
 31
0.0
 73
     1
 44
1.0
1001
ACAD
1000
MTEXTBEGIN
1070
    73
1070
     1
1070
    44
1040
1.0
1070
    74
1070
     0
1000
MTEXTEND
  0
MTEXT
  5
BA
330
AC
100
AcDbEntity
  8
VPORT-BORDERS
 62
     7
100
AcDbMText
 10
32.93211412794696
 20
38.97608814123805
 30
0.0
 40
2.444193999999999
 41
0.0
 71
     1
 72
     2
  1
\fOsaka|b0|i0|c128;440V
  7
STD
 11
0.0
 21
1.0
 31
0.0
 73
     1
 44
1.0
1001
ACAD
1000
MTEXTBEGIN
1070
    73
1070
     1
1070
    44
1040
1.0
1070
    74
1070
     0
1000
MTEXTEND
  0
MTEXT
  5
BB
330
AC
100
AcDbEntity
  8
VPORT-BORDERS
 62
     7
100
AcDbMText
 10
46.03209012794695
 20
38.97608814123805
 30
0.0
 40
2.444193999999999
 41
0.0
 71
     1
 72
     2
  1
\fOsaka|b0|i0|c128;220V
  7
STD
 11
0.0
 21
1.0
 31
0.0
 73
     1
 44
1.0
1001
ACAD
1000
MTEXTBEGIN
1070
    73
1070
     1
1070
    44
1040
1.0
1070
    74
1070
     0
1000
MTEXTEND
  0
ENDBLK
  5
BD
330
AC
100
AcDbEntity
  8
0
100
AcDbBlockEnd
  0
BLOCK
  5
156
330
D1
100
AcDbEntity
  8
0
100
AcDbBlockBegin
  2
A$C29F15CBE
 70
     0
 10
0.0
 20
0.0
 30
0.0
  3
A$C29F15CBE
  1

  0
TEXT
  5
D2
330
D1
100
AcDbEntity
  8
23
  6
Continuous
 62
     3
100
AcDbText
 10
43.39993499999979
 20
276.6340526666665
 30
0.0
 40
3.910714999999981
  1
Time/Current characteristic curves
 41
0.7
 11
43.39993499999979
 21
275.3304809999999
 31
0.0
100
AcDbText
 73
     1
  0
LINE
  5
D3
330
D1
100
AcDbEntity
  8
24
  6
Continuous
 62
     1
100
AcDbLine
 10
181.2428559999998
 20
0.0
 30
0.0
 11
0.0
 21
0.0
 31
0.0
  0
LINE
  5
D4
330
D1
100
AcDbEntity
  8
24
  6
Continuous
 62
     1
100
AcDbLine
 10
181.2428559999998
 20
13.06518099999999
 30
0.0
 11
0.0
 21
13.06518099999999
 31
0.0
  0
LINE
  5
D5
330
D1
100
AcDbEntity
  8
24
  6
Continuous
 62
     1
100
AcDbLine
 10
181.2428559999998
 20
20.707091
 30
0.0
 11
0.0
 21
20.707091
 31
0.0
  0
LINE
  5
D6
330
D1
100
AcDbEntity
  8
24
  6
Continuous
 62
     1
100
AcDbLine
 10
181.2428559999998
 20
26.12967199999999
 30
0.0
 11
0.0
 21
26.12967199999999
 31
0.0
  0
LINE
  5
D7
330
D1
100
AcDbEntity
  8
24
  6
Continuous
 62
     1
100
AcDbLine
 10
181.2428559999998
 20
30.33544399999999
 30
0.0
 11
0.0
 21
30.33544399999999
 31
0.0
  0
LINE
  5
D8
330
D1
100
AcDbEntity
  8
24
  6
Continuous
 62
     1
100
AcDbLine
 10
181.2428559999998
 20
33.772272
 30
0.0
 11
0.0
 21
33.772272
 31
0.0
  0
LINE
  5
D9
330
D1
100
AcDbEntity
  8
24
  6
Continuous
 62
     1
100
AcDbLine
 10
181.2428559999998
 20
39.194163
 30
0.0
 11
0.0
 21
39.194163
 31
0.0
  0
LINE
  5
DA
330
D1
100
AcDbEntity
  8
24
  6
Continuous
 62
     1
100
AcDbLine
 10
181.2428559999998
 20
43.40062399999996
 30
0.0
 11
0.0
 21
43.40062399999996
 31
0.0
  0
LINE
  5
DB
330
D1
100
AcDbEntity
  8
24
  6
Continuous
 62
     1
100
AcDbLine
 10
181.2428559999998
 20
56.46511600000001
 30
0.0
 11
0.0
 21
56.46511600000001
 31
0.0
  0
LINE
  5
DC
330
D1
100
AcDbEntity
  8
24
  6
Continuous
 62
     1
100
AcDbLine
 10
181.2428559999998
 20
64.107026
 30
0.0
 11
0.0
 21
64.107026
 31
0.0
  0
LINE
  5
DD
330
D1
100
AcDbEntity
  8
24
  6
Continuous
 62
     1
100
AcDbLine
 10
181.2428559999998
 20
69.529607
 30
0.0
 11
0.0
 21
69.529607
 31
0.0
  0
LINE
  5
DE
330
D1
100
AcDbEntity
  8
24
  6
Continuous
 62
     1
100
AcDbLine
 10
181.2428559999998
 20
73.73537899999991
 30
0.0
 11
0.0
 21
73.73537899999991
 31
0.0
  0
LINE
  5
DF
330
D1
100
AcDbEntity
  8
24
  6
Continuous
 62
     1
100
AcDbLine
 10
181.2428559999998
 20
77.17220599999997
 30
0.0
 11
0.0
 21
77.17220599999997
 31
0.0
  0
LINE
  5
E0
330
D1
100
AcDbEntity
  8
24
  6
Continuous
 62
     1
100
AcDbLine
 10
181.2428559999998
 20
82.594098
 30
0.0
 11
0.0
 21
82.594098
 31
0.0
  0
LINE
  5
E1
330
D1
100
AcDbEntity
  8
24
  6
Continuous
 62
     1
100
AcDbLine
 10
181.2428559999998
 20
86.80055899999997
 30
0.0
 11
0.0
 21
86.80055899999997
 31
0.0
  0
LINE
  5
E2
330
D1
100
AcDbEntity
  8
24
  6
Continuous
 62
     1
100
AcDbLine
 10
181.2428559999998
 20
99.8657389999999
 30
0.0
 11
0.0
 21
99.8657389999999
 31
0.0
  0
LINE
  5
E3
330
D1
100
AcDbEntity
  8
24
  6
Continuous
 62
     1
100
AcDbLine
 10
181.2428559999998
 20
107.5076499999999
 30
0.0
 11
0.0
 21
107.5076499999999
 31
0.0
  0
LINE
  5
E4
330
D1
100
AcDbEntity
  8
24
  6
Continuous
 62
     1
100
AcDbLine
 10
181.2428559999998
 20
112.9302309999999
 30
0.0
 11
0.0
 21
112.9302309999999
 31
0.0
  0
LINE
  5
E5
330
D1
100
AcDbEntity
  8
24
  6
Continuous
 62
     1
100
AcDbLine
 10
181.2428559999998
 20
117.1360029999999
 30
0.0
 11
0.0
 21
117.1360029999999
 31
0.0
  0
LINE
  5
E6
330
D1
100
AcDbEntity
  8
24
  6
Continuous
 62
     1
100
AcDbLine
 10
181.2428559999998
 20
120.5728299999998
 30
0.0
 11
0.0
 21
120.5728299999998
 31
0.0
  0
LINE
  5
E7
330
D1
100
AcDbEntity
  8
24
  6
Continuous
 62
     1
100
AcDbLine
 10
181.2428559999998
 20
125.9948939999999
 30
0.0
 11
0.0
 21
125.9948939999999
 31
0.0
  0
LINE
  5
E8
330
D1
100
AcDbEntity
  8
24
  6
Continuous
 62
     1
100
AcDbLine
 10
181.2428559999998
 20
130.2006659999997
 30
0.0
 11
0.0
 21
130.2006659999997
 31
0.0
  0
LINE
  5
E9
330
D1
100
AcDbEntity
  8
24
  6
Continuous
 62
     1
100
AcDbLine
 10
181.2428559999998
 20
143.265502
 30
0.0
 11
0.0
 21
143.265502
 31
0.0
  0
LINE
  5
EA
330
D1
100
AcDbEntity
  8
24
  6
Continuous
 62
     1
100
AcDbLine
 10
181.2428559999998
 20
150.907757
 30
0.0
 11
0.0
 21
150.907757
 31
0.0
  0
LINE
  5
EB
330
D1
100
AcDbEntity
  8
24
  6
Continuous
 62
     1
100
AcDbLine
 10
181.2428559999998
 20
156.329993
 30
0.0
 11
0.0
 21
156.329993
 31
0.0
  0
LINE
  5
EC
330
D1
100
AcDbEntity
  8
24
  6
Continuous
 62
     1
100
AcDbLine
 10
181.2428559999998
 20
160.53611
 30
0.0
 11
0.0
 21
160.53611
 31
0.0
  0
LINE
  5
ED
330
D1
100
AcDbEntity
  8
24
  6
Continuous
 62
     1
100
AcDbLine
 10
181.2428559999998
 20
163.9725929999999
 30
0.0
 11
0.0
 21
163.9725929999999
 31
0.0
  0
LINE
  5
EE
330
D1
100
AcDbEntity
  8
24
  6
Continuous
 62
     1
100
AcDbLine
 10
181.2428559999998
 20
169.3948289999999
 30
0.0
 11
0.0
 21
169.3948289999999
 31
0.0
  0
LINE
  5
EF
330
D1
100
AcDbEntity
  8
24
  6
Continuous
 62
     1
100
AcDbLine
 10
181.2428559999998
 20
173.6006009999999
 30
0.0
 11
0.0
 21
173.6006009999999
 31
0.0
  0
LINE
  5
F0
330
D1
100
AcDbEntity
  8
24
  6
Continuous
 62
     1
100
AcDbLine
 10
181.2428559999998
 20
186.6654369999999
 30
0.0
 11
0.0
 21
186.6654369999999
 31
0.0
  0
LINE
  5
F1
330
D1
100
AcDbEntity
  8
24
  6
Continuous
 62
     1
100
AcDbLine
 10
181.2428559999998
 20
194.3076919999999
 30
0.0
 11
0.0
 21
194.3076919999999
 31
0.0
  0
LINE
  5
F2
330
D1
100
AcDbEntity
  8
24
  6
Continuous
 62
     1
100
AcDbLine
 10
181.2428559999998
 20
199.730273
 30
0.0
 11
0.0
 21
199.730273
 31
0.0
  0
LINE
  5
F3
330
D1
100
AcDbEntity
  8
24
  6
Continuous
 62
     1
100
AcDbLine
 10
181.2428559999998
 20
203.9360449999999
 30
0.0
 11
0.0
 21
203.9360449999999
 31
0.0
  0
LINE
  5
F4
330
D1
100
AcDbEntity
  8
24
  6
Continuous
 62
     1
100
AcDbLine
 10
181.2428559999998
 20
207.3725279999999
 30
0.0
 11
0.0
 21
207.3725279999999
 31
0.0
  0
LINE
  5
F5
330
D1
100
AcDbEntity
  8
24
  6
Continuous
 62
     1
100
AcDbLine
 10
181.2428559999998
 20
212.7947639999999
 30
0.0
 11
0.0
 21
212.7947639999999
 31
0.0
  0
LINE
  5
F6
330
D1
100
AcDbEntity
  8
24
  6
Continuous
 62
     1
100
AcDbLine
 10
181.2428559999998
 20
217.0008809999999
 30
0.0
 11
0.0
 21
217.0008809999999
 31
0.0
  0
LINE
  5
F7
330
D1
100
AcDbEntity
  8
24
  6
Continuous
 62
     1
100
AcDbLine
 10
181.2428559999998
 20
230.0653719999999
 30
0.0
 11
0.0
 21
230.0653719999999
 31
0.0
  0
LINE
  5
F8
330
D1
100
AcDbEntity
  8
24
  6
Continuous
 62
     1
100
AcDbLine
 10
181.2428559999998
 20
256.1946989999996
 30
0.0
 11
0.0
 21
256.1946989999996
 31
0.0
  0
LINE
  5
F9
330
D1
100
AcDbEntity
  8
24
  6
Continuous
 62
     1
100
AcDbLine
 10
181.2428559999998
 20
260.4008159999998
 30
0.0
 11
0.0
 21
260.4008159999998
 31
0.0
  0
LINE
  5
FA
330
D1
100
AcDbEntity
  8
24
  6
Continuous
 62
     1
100
AcDbLine
 10
117.1358309999999
 20
250.7724629999998
 30
0.0
 11
0.0
 21
250.7724629999998
 31
0.0
  0
LINE
  5
FB
330
D1
100
AcDbEntity
  8
24
  6
Continuous
 62
     1
100
AcDbLine
 10
117.1358309999999
 20
247.3359799999998
 30
0.0
 11
0.0
 21
247.3359799999998
 31
0.0
  0
LINE
  5
FC
330
D1
100
AcDbEntity
  8
24
  6
Continuous
 62
     1
100
AcDbLine
 10
117.1358309999999
 20
243.130207
 30
0.0
 11
0.0
 21
243.130207
 31
0.0
  0
LINE
  5
FD
330
D1
100
AcDbEntity
  8
24
  6
Continuous
 62
     1
100
AcDbLine
 10
117.1358309999999
 20
237.707972
 30
0.0
 11
0.0
 21
237.707972
 31
0.0
  0
TEXT
  5
FE
330
D1
100
AcDbEntity
  8
24
  6
Continuous
 62
     1
100
AcDbText
 10
32.42523899999999
 20
-19.82829600000002
 30
0.0
 40
3.421865999999998
  1
Current (A)
 41
0.7
 11
32.42523899999999
 21
-20.96891800000002
 31
0.0
100
AcDbText
 73
     1
  0
LINE
  5
FF
330
D1
100
AcDbEntity
  8
24
  6
Continuous
 62
     1
100
AcDbLine
 10
0.0
 20
260.4008159999998
 30
0.0
 11
0.0
 21
0.0
 31
0.0
  0
LINE
  5
100
330
D1
100
AcDbEntity
  8
24
  6
Continuous
 62
     1
100
AcDbLine
 10
7.642600000000001
 20
260.4008159999998
 30
0.0
 11
7.642600000000001
 21
0.0
 31
0.0
  0
LINE
  5
101
330
D1
100
AcDbEntity
  8
24
  6
Continuous
 62
     1
100
AcDbLine
 10
17.27060799999988
 20
260.4008159999998
 30
0.0
 11
17.27060799999988
 21
0.0
 31
0.0
  0
LINE
  5
102
330
D1
100
AcDbEntity
  8
24
  6
Continuous
 62
     1
100
AcDbLine
 10
26.12932699999999
 20
260.4008159999998
 30
0.0
 11
26.12932699999999
 21
0.0
 31
0.0
  0
LINE
  5
103
330
D1
100
AcDbEntity
  8
24
  6
Continuous
 62
     1
100
AcDbLine
 10
30.33544399999989
 20
260.4008159999998
 30
0.0
 11
30.33544399999989
 21
0.0
 31
0.0
  0
LINE
  5
104
330
D1
100
AcDbEntity
  8
24
  6
Continuous
 62
     1
100
AcDbLine
 10
43.39993499999979
 20
260.4008159999998
 30
0.0
 11
43.39993499999979
 21
0.0
 31
0.0
  0
TEXT
  5
105
330
D1
100
AcDbEntity
  8
24
  6
Continuous
 62
     1
100
AcDbText
 10
-13.546066
 20
88.392882
 30
0.0
 40
3.421865999999993
  1
Operating time (sec)
 50
90.0
 41
0.7
 11
-12.405444
 21
88.392882
 31
0.0
100
AcDbText
 73
     1
  0
TEXT
  5
106
330
D1
100
AcDbEntity
  8
200
  6
Continuous
 62
     1
100
AcDbText
 10
-9.258413555151078
 20
19.45709099999987
 30
0.0
 40
2.5
  1
0.03
 41
0.6
 72
     2
 11
-5.258413555151078
 21
20.70709099999987
 31
0.0
100
AcDbText
 73
     2
  0
TEXT
  5
107
330
D1
100
AcDbEntity
  8
200
  6
Continuous
 62
     1
100
AcDbText
 10
1.249999999999957
 20
-5.166666666666666
 30
0.0
 40
2.5
  1
2
 50
90.0
 41
0.7
 72
     2
 11
-0.0000000000000426
 21
-4.0
 31
0.0
100
AcDbText
 73
     2
  0
TEXT
  5
108
330
D1
100
AcDbEntity
  8
200
  6
Continuous
 62
     1
100
AcDbText
 10
-9.259367750161601
 20
11.81518099999985
 30
0.0
 40
2.5
  1
0.02
 41
0.6
 72
     2
 11
-5.259367750161601
 21
13.06518099999985
 31
0.0
100
AcDbText
 73
     2
  0
TEXT
  5
109
330
D1
100
AcDbEntity
  8
200
  6
Continuous
 62
     1
100
AcDbText
 10
-8.760999113331504
 20
-1.250000000000142
 30
0.0
 40
2.5
  1
0.01
 41
0.6
 72
     2
 11
-5.260999113331505
 21
-0.0000000000001421
 31
0.0
100
AcDbText
 73
     2
  0
TEXT
  5
10A
330
D1
100
AcDbEntity
  8
200
  6
Continuous
 62
     1
100
AcDbText
 10
27.3793269999999
 20
-5.166666666666666
 30
0.0
 40
2.5
  1
8
 50
90.0
 41
0.7
 72
     2
 11
26.1293269999999
 21
-4.0
 31
0.0
100
AcDbText
 73
     2
  0
TEXT
  5
10B
330
D1
100
AcDbEntity
  8
200
  6
Continuous
 62
     1
100
AcDbText
 10
18.52060799999988
 20
-5.166666666666666
 30
0.0
 40
2.5
  1
5
 50
90.0
 41
0.7
 72
     2
 11
17.27060799999988
 21
-4.0
 31
0.0
100
AcDbText
 73
     2
  0
TEXT
  5
10C
330
D1
100
AcDbEntity
  8
200
  6
Continuous
 62
     1
100
AcDbText
 10
8.892599999999902
 20
-5.166666666666666
 30
0.0
 40
2.5
  1
3
 50
90.0
 41
0.7
 72
     2
 11
7.642599999999902
 21
-4.0
 31
0.0
100
AcDbText
 73
     2
  0
TEXT
  5
10D
330
D1
100
AcDbEntity
  8
200
  6
Continuous
 62
     1
100
AcDbText
 10
44.64993499999989
 20
-6.625
 30
0.0
 40
2.5
  1
20
 50
90.0
 41
0.7
 72
     2
 11
43.39993499999989
 21
-4.0
 31
0.0
100
AcDbText
 73
     2
  0
TEXT
  5
10E
330
D1
100
AcDbEntity
  8
200
  6
Continuous
 62
     1
100
AcDbText
 10
31.58544399999989
 20
-6.041666666666666
 30
0.0
 40
2.5
  1
10
 50
90.0
 41
0.7
 72
     2
 11
30.33544399999989
 21
-4.0
 31
0.0
100
AcDbText
 73
     2
  0
TEXT
  5
10F
330
D1
100
AcDbEntity
  8
200
  6
Continuous
 62
     1
100
AcDbText
 10
-8.002317408877701
 20
68.27960699999978
 30
0.0
 40
2.5
  1
0.4
 41
0.6
 72
     2
 11
-5.252317408877701
 21
69.52960699999978
 31
0.0
100
AcDbText
 73
     2
  0
TEXT
  5
110
330
D1
100
AcDbEntity
  8
200
  6
Continuous
 62
     1
100
AcDbText
 10
-9.25773647314746
 20
24.87967199999988
 30
0.0
 40
2.5
  1
0.04
 41
0.6
 72
     2
 11
-5.25773647314746
 21
26.12967199999988
 31
0.0
100
AcDbText
 73
     2
  0
TEXT
  5
111
330
D1
100
AcDbEntity
  8
200
  6
Continuous
 62
     1
100
AcDbText
 10
-9.257211326075875
 20
29.08544399999984
 30
0.0
 40
2.5
  1
0.05
 41
0.6
 72
     2
 11
-5.257211326075875
 21
30.33544399999984
 31
0.0
100
AcDbText
 73
     2
  0
TEXT
  5
112
330
D1
100
AcDbEntity
  8
200
  6
Continuous
 62
     1
100
AcDbText
 10
-7.505579963030853
 20
42.15062399999984
 30
0.0
 40
2.5
  1
0.1
 41
0.6
 72
     2
 11
-5.255579963030853
 21
43.40062399999984
 31
0.0
100
AcDbText
 73
     2
  0
TEXT
  5
113
330
D1
100
AcDbEntity
  8
200
  6
Continuous
 62
     1
100
AcDbText
 10
-8.003948685891828
 20
55.21511599999985
 30
0.0
 40
2.5
  1
0.2
 41
0.6
 72
     2
 11
-5.253948685891828
 21
56.46511599999985
 31
0.0
100
AcDbText
 73
     2
  0
TEXT
  5
114
330
D1
100
AcDbEntity
  8
200
  6
Continuous
 62
     1
100
AcDbText
 10
-8.002994490881292
 20
62.85702599999979
 30
0.0
 40
2.5
  1
0.3
 41
0.6
 72
     2
 11
-5.252994490881292
 21
64.10702599999979
 31
0.0
100
AcDbText
 73
     2
  0
TEXT
  5
115
330
D1
100
AcDbEntity
  8
200
  6
Continuous
 62
     1
100
AcDbText
 10
-8.001792261806127
 20
72.48537899999971
 30
0.0
 40
2.5
  1
0.5
 41
0.6
 72
     2
 11
-5.251792261806127
 21
73.73537899999971
 31
0.0
100
AcDbText
 73
     2
  0
TEXT
  5
116
330
D1
100
AcDbEntity
  8
200
  6
Continuous
 62
     1
100
AcDbText
 10
-5.748529535716
 20
85.5505589999999
 30
0.0
 40
2.5
  1
1
 41
0.6
 72
     2
 11
-5.248529535716
 21
86.8005589999999
 31
0.0
100
AcDbText
 73
     2
  0
TEXT
  5
117
330
D1
100
AcDbEntity
  8
200
  6
Continuous
 62
     1
100
AcDbText
 10
-6.247575340580623
 20
106.2576499999997
 30
0.0
 40
2.5
  1
3
 41
0.6
 72
     2
 11
-5.247575340580623
 21
107.5076499999997
 31
0.0
100
AcDbText
 73
     2
  0
TEXT
  5
118
330
D1
100
AcDbEntity
  8
200
  6
Continuous
 62
     1
100
AcDbText
 10
-6.248529535716
 20
98.6157389999998
 30
0.0
 40
2.5
  1
2
 41
0.6
 72
     2
 11
-5.248529535716
 21
99.8657389999998
 31
0.0
100
AcDbText
 73
     2
  0
TEXT
  5
119
330
D1
100
AcDbEntity
  8
200
  6
Continuous
 62
     1
100
AcDbText
 10
-6.24689825857699
 20
111.6802309999999
 30
0.0
 40
2.5
  1
4
 41
0.6
 72
     2
 11
-5.24689825857699
 21
112.9302309999999
 31
0.0
100
AcDbText
 73
     2
  0
TEXT
  5
11A
330
D1
100
AcDbEntity
  8
200
  6
Continuous
 62
     1
100
AcDbText
 10
-6.24637311150542
 20
115.8860029999997
 30
0.0
 40
2.5
  1
5
 41
0.6
 72
     2
 11
-5.24637311150542
 21
117.1360029999997
 31
0.0
100
AcDbText
 73
     2
  0
TEXT
  5
11B
330
D1
100
AcDbEntity
  8
200
  6
Continuous
 62
     1
100
AcDbText
 10
-6.994741813014782
 20
128.9506659999997
 30
0.0
 40
2.5
  1
10
 41
0.6
 72
     2
 11
-5.244741813014782
 21
130.2006659999997
 31
0.0
100
AcDbText
 73
     2
  0
TEXT
  5
11C
330
D1
100
AcDbEntity
  8
200
  6
Continuous
 62
     1
100
AcDbText
 10
-7.493110492922721
 20
142.0155019999998
 30
0.0
 40
2.5
  1
20
 41
0.6
 72
     2
 11
-5.243110492922721
 21
143.2655019999998
 31
0.0
100
AcDbText
 73
     2
  0
TEXT
  5
11D
330
D1
100
AcDbEntity
  8
200
  6
Continuous
 62
     1
100
AcDbText
 10
-7.49215625483437
 20
149.6577569999998
 30
0.0
 40
2.5
  1
30
 41
0.6
 72
     2
 11
-5.24215625483437
 21
150.9077569999998
 31
0.0
100
AcDbText
 73
     2
  0
TEXT
  5
11E
330
D1
100
AcDbEntity
  8
200
  6
Continuous
 62
     1
100
AcDbText
 10
-7.491479215908582
 20
155.0799929999998
 30
0.0
 40
2.5
  1
40
 41
0.6
 72
     2
 11
-5.241479215908582
 21
156.3299929999998
 31
0.0
100
AcDbText
 73
     2
  0
TEXT
  5
11F
330
D1
100
AcDbEntity
  8
200
  6
Continuous
 62
     1
100
AcDbText
 10
-7.490524934742293
 20
162.7225929999998
 30
0.0
 40
2.5
  1
60
 41
0.6
 72
     2
 11
-5.240524934742293
 21
163.9725929999998
 31
0.0
100
AcDbText
 73
     2
  0
TEXT
  5
120
330
D1
100
AcDbEntity
  8
200
  6
Continuous
 62
     1
100
AcDbText
 10
-7.490954025759123
 20
159.2861099999998
 30
0.0
 40
2.5
  1
50
 41
0.6
 72
     2
 11
-5.240954025759123
 21
160.5361099999998
 31
0.0
100
AcDbText
 73
     2
  0
TEXT
  5
121
330
D1
100
AcDbEntity
  8
200
  6
Continuous
 62
     1
100
AcDbText
 10
-8.736737190564554
 20
193.0576919999995
 30
0.0
 40
2.5
  1
300
 41
0.6
 72
     2
 11
-5.236737190564554
 21
194.3076919999995
 31
0.0
100
AcDbText
 73
     2
  0
TEXT
  5
122
330
D1
100
AcDbEntity
  8
200
  6
Continuous
 62
     1
100
AcDbText
 10
-8.239322748744982
 20
172.3506009999998
 30
0.0
 40
2.5
  1
100
 41
0.6
 72
     2
 11
-5.239322748744981
 21
173.6006009999998
 31
0.0
100
AcDbText
 73
     2
  0
TEXT
  5
123
330
D1
100
AcDbEntity
  8
200
  6
Continuous
 62
     1
100
AcDbText
 10
-8.737691428652951
 20
185.4154369999998
 30
0.0
 40
2.5
  1
200
 41
0.6
 72
     2
 11
-5.237691428652951
 21
186.6654369999998
 31
0.0
100
AcDbText
 73
     2
  0
TEXT
  5
124
330
D1
100
AcDbEntity
  8
200
  6
Continuous
 62
     1
100
AcDbText
 10
-9.483903641397303
 20
215.7508809999997
 30
0.0
 40
2.5
  1
1000
 41
0.6
 72
     2
 11
-5.233903641397303
 21
217.0008809999997
 31
0.0
100
AcDbText
 73
     2
  0
TEXT
  5
125
330
D1
100
AcDbEntity
  8
200
  6
Continuous
 62
     1
100
AcDbText
 10
-8.735534961489364
 20
202.6860449999999
 30
0.0
 40
2.5
  1
500
 41
0.6
 72
     2
 11
-5.235534961489363
 21
203.9360449999999
 31
0.0
100
AcDbText
 73
     2
  0
TEXT
  5
126
330
D1
100
AcDbEntity
  8
200
  6
Continuous
 62
     1
100
AcDbText
 10
-8.736060108560934
 20
198.4802729999998
 30
0.0
 40
2.5
  1
400
 41
0.6
 72
     2
 11
-5.236060108560933
 21
199.7302729999998
 31
0.0
100
AcDbText
 73
     2
  0
TEXT
  5
127
330
D1
100
AcDbEntity
  8
23
  6
Continuous
 62
     3
100
AcDbText
 10
0.0000000000000001
 20
276.6340526666665
 30
0.0
 40
3.910714999999981
  1
TemBreak2
 41
0.7
 11
0.0
 21
275.3304809999999
 31
0.0
100
AcDbText
 73
     1
  0
TEXT
  5
128
330
D1
100
AcDbEntity
  8
200
  6
Continuous
 62
     1
100
AcDbText
 10
-9.980771491001688
 20
241.8728553743641
 30
0.0
 40
2.5
  1
4000
 41
0.6
 72
     2
 11
-5.230771491001688
 21
243.1228553743641
 31
0.0
100
AcDbText
 73
     2
  0
TEXT
  5
129
330
D1
100
AcDbEntity
  8
200
  6
Continuous
 62
     1
100
AcDbText
 10
-9.981448551393356
 20
236.4506203743642
 30
0.0
 40
2.5
  1
3000
 41
0.6
 72
     2
 11
-5.231448551393356
 21
237.7006203743642
 31
0.0
100
AcDbText
 73
     2
  0
TEXT
  5
12A
330
D1
100
AcDbEntity
  8
200
  6
Continuous
 62
     1
100
AcDbText
 10
-9.98227236438316
 20
228.8153719999997
 30
0.0
 40
2.5
  1
2000
 41
0.6
 72
     2
 11
-5.232272364383161
 21
230.0653719999997
 31
0.0
100
AcDbText
 73
     2
  0
TEXT
  5
12B
330
D1
100
AcDbEntity
  8
200
  6
Continuous
 62
     1
100
AcDbText
 10
-10.72850376865692
 20
258.9971158246213
 30
0.0
 40
2.5
  1
10000
 41
0.6
 72
     2
 11
-5.228503768656921
 21
260.2471158246213
 31
0.0
100
AcDbText
 73
     2
  0
TEXT
  5
12C
330
D1
100
AcDbEntity
  8
200
  6
Continuous
 62
     1
100
AcDbText
 10
-9.980246322336924
 20
246.078628374364
 30
0.0
 40
2.5
  1
5000
 41
0.6
 72
     2
 11
-5.230246322336924
 21
247.328628374364
 31
0.0
100
AcDbText
 73
     2
  0
LINE
  5
12D
330
D1
100
AcDbEntity
  8
24
  6
Continuous
 62
     1
100
AcDbLine
 10
51.042535
 20
260.4008159999998
 30
0.0
 11
51.042535
 21
0.0
 31
0.0
  0
LINE
  5
12E
330
D1
100
AcDbEntity
  8
24
  6
Continuous
 62
     1
100
AcDbLine
 10
60.67054299999998
 20
260.4008159999998
 30
0.0
 11
60.67054299999998
 21
0.0
 31
0.0
  0
LINE
  5
12F
330
D1
100
AcDbEntity
  8
24
  6
Continuous
 62
     1
100
AcDbLine
 10
69.52960600000001
 20
260.4008159999998
 30
0.0
 11
69.52960600000001
 21
0.0
 31
0.0
  0
LINE
  5
130
330
D1
100
AcDbEntity
  8
24
  6
Continuous
 62
     1
100
AcDbLine
 10
73.73572299999991
 20
260.4008159999998
 30
0.0
 11
73.73572299999991
 21
0.0
 31
0.0
  0
LINE
  5
131
330
D1
100
AcDbEntity
  8
24
  6
Continuous
 62
     1
100
AcDbLine
 10
86.80038699999995
 20
260.4008159999998
 30
0.0
 11
86.80038699999995
 21
0.0
 31
0.0
  0
LINE
  5
132
330
D1
100
AcDbEntity
  8
24
  6
Continuous
 62
     1
100
AcDbLine
 10
94.44298699999992
 20
260.4008159999998
 30
0.0
 11
94.44298699999992
 21
0.0
 31
0.0
  0
LINE
  5
133
330
D1
100
AcDbEntity
  8
24
  6
Continuous
 62
     1
100
AcDbLine
 10
104.0706499999999
 20
260.4008159999998
 30
0.0
 11
104.0706499999999
 21
0.0
 31
0.0
  0
LINE
  5
134
330
D1
100
AcDbEntity
  8
24
  6
Continuous
 62
     1
100
AcDbLine
 10
112.9300579999999
 20
260.4008159999998
 30
0.0
 11
112.9300579999999
 21
0.0
 31
0.0
  0
LINE
  5
135
330
D1
100
AcDbEntity
  8
24
  6
Continuous
 62
     1
100
AcDbLine
 10
117.1358309999999
 20
260.4008159999998
 30
0.0
 11
117.1358309999999
 21
0.0
 31
0.0
  0
LINE
  5
136
330
D1
100
AcDbEntity
  8
24
  6
Continuous
 62
     1
100
AcDbLine
 10
181.2428559999998
 20
260.4008159999998
 30
0.0
 11
181.2428559999998
 21
0.0
 31
0.0
  0
LINE
  5
137
330
D1
100
AcDbEntity
  8
24
  6
Continuous
 62
     1
100
AcDbLine
 10
130.2003219999999
 20
230.0653719999999
 30
0.0
 11
130.2003219999999
 21
0.0
 31
0.0
  0
LINE
  5
138
330
D1
100
AcDbEntity
  8
24
  6
Continuous
 62
     1
100
AcDbLine
 10
137.8429209999999
 20
230.0653719999999
 30
0.0
 11
137.8429209999999
 21
0.0
 31
0.0
  0
LINE
  5
139
330
D1
100
AcDbEntity
  8
24
  6
Continuous
 62
     1
100
AcDbLine
 10
147.471274
 20
230.0653719999999
 30
0.0
 11
147.471274
 21
0.0
 31
0.0
  0
LINE
  5
13A
330
D1
100
AcDbEntity
  8
24
  6
Continuous
 62
     1
100
AcDbLine
 10
156.3299929999999
 20
230.0653719999999
 30
0.0
 11
156.3299929999999
 21
0.0
 31
0.0
  0
LINE
  5
13B
330
D1
100
AcDbEntity
  8
24
  6
Continuous
 62
     1
100
AcDbLine
 10
160.5357649999999
 20
230.0653719999999
 30
0.0
 11
160.5357649999999
 21
0.0
 31
0.0
  0
LINE
  5
13C
330
D1
100
AcDbEntity
  8
24
  6
Continuous
 62
     1
100
AcDbLine
 10
173.600257
 20
230.0653719999999
 30
0.0
 11
173.600257
 21
0.0
 31
0.0
  0
TEXT
  5
13D
330
D1
100
AcDbEntity
  8
23
  6
Continuous
 62
     3
100
AcDbText
 10
78.428632
 20
-38.21649633333334
 30
0.0
 40
3.910714999999998
  1
TERASAKI ELECTRIC CO.,LTD.
 41
0.7
 11
78.428632
 21
-39.520068
 31
0.0
100
AcDbText
 73
     1
  0
TEXT
  5
13E
330
D1
100
AcDbEntity
  8
24
  6
Continuous
 62
     1
100
AcDbText
 10
91.790263
 20
-20.06220266666666
 30
0.0
 40
2.444193999999999
  1
primary ==== 6.6kV
 41
0.7
 11
91.790263
 21
-20.876934
 31
0.0
100
AcDbText
 73
     1
  0
TEXT
  5
13F
330
D1
100
AcDbEntity
  8
24
  6
Continuous
 62
     1
100
AcDbText
 10
91.790263
 20
-23.91933166666667
 30
0.0
 40
2.444193999999999
  1
secondary == 110,220,440V
 41
0.7
 11
91.790263
 21
-24.73406300000001
 31
0.0
100
AcDbText
 73
     1
  0
TEXT
  5
140
330
D1
100
AcDbEntity
  8
200
  6
Continuous
 62
     1
100
AcDbText
 10
74.98572299999991
 20
-7.499999999999999
 30
0.0
 40
2.5
  1
100
 50
90.0
 41
0.7
 72
     2
 11
73.73572299999991
 21
-4.0
 31
0.0
100
AcDbText
 73
     2
  0
TEXT
  5
141
330
D1
100
AcDbEntity
  8
200
  6
Continuous
 62
     1
100
AcDbText
 10
70.7796059999999
 20
-6.625
 30
0.0
 40
2.5
  1
80
 50
90.0
 41
0.7
 72
     2
 11
69.5296059999999
 21
-4.0
 31
0.0
100
AcDbText
 73
     2
  0
TEXT
  5
142
330
D1
100
AcDbEntity
  8
200
  6
Continuous
 62
     1
100
AcDbText
 10
61.92054299999989
 20
-6.625
 30
0.0
 40
2.5
  1
50
 50
90.0
 41
0.7
 72
     2
 11
60.67054299999989
 21
-4.0
 31
0.0
100
AcDbText
 73
     2
  0
TEXT
  5
143
330
D1
100
AcDbEntity
  8
200
  6
Continuous
 62
     1
100
AcDbText
 10
52.29253499999988
 20
-6.625
 30
0.0
 40
2.5
  1
30
 50
90.0
 41
0.7
 72
     2
 11
51.04253499999988
 21
-4.0
 31
0.0
100
AcDbText
 73
     2
  0
TEXT
  5
144
330
D1
100
AcDbEntity
  8
200
  6
Continuous
 62
     1
100
AcDbText
 10
95.69298699999992
 20
-8.083333333333332
 30
0.0
 40
2.5
  1
300
 50
90.0
 41
0.7
 72
     2
 11
94.44298699999992
 21
-4.0
 31
0.0
100
AcDbText
 73
     2
  0
TEXT
  5
145
330
D1
100
AcDbEntity
  8
200
  6
Continuous
 62
     1
100
AcDbText
 10
88.05038699999995
 20
-8.083333333333332
 30
0.0
 40
2.5
  1
200
 50
90.0
 41
0.7
 72
     2
 11
86.80038699999995
 21
-4.0
 31
0.0
100
AcDbText
 73
     2
  0
TEXT
  5
146
330
D1
100
AcDbEntity
  8
200
  6
Continuous
 62
     1
100
AcDbText
 10
118.3858309999999
 20
-8.958333333333332
 30
0.0
 40
2.5
  1
1000
 50
90.0
 41
0.7
 72
     2
 11
117.1358309999999
 21
-4.0
 31
0.0
100
AcDbText
 73
     2
  0
TEXT
  5
147
330
D1
100
AcDbEntity
  8
200
  6
Continuous
 62
     1
100
AcDbText
 10
114.1800579999997
 20
-8.083333333333332
 30
0.0
 40
2.5
  1
800
 50
90.0
 41
0.7
 72
     2
 11
112.9300579999997
 21
-4.0
 31
0.0
100
AcDbText
 73
     2
  0
TEXT
  5
148
330
D1
100
AcDbEntity
  8
200
  6
Continuous
 62
     1
100
AcDbText
 10
105.3206499999999
 20
-8.083333333333332
 30
0.0
 40
2.5
  1
500
 50
90.0
 41
0.7
 72
     2
 11
104.0706499999999
 21
-4.0
 31
0.0
100
AcDbText
 73
     2
  0
TEXT
  5
149
330
D1
100
AcDbEntity
  8
200
  6
Continuous
 62
     1
100
AcDbText
 10
139.0929209999999
 20
-9.541666666666667
 30
0.0
 40
2.5
  1
3000
 50
90.0
 41
0.7
 72
     2
 11
137.8429209999999
 21
-4.0
 31
0.0
100
AcDbText
 73
     2
  0
TEXT
  5
14A
330
D1
100
AcDbEntity
  8
200
  6
Continuous
 62
     1
100
AcDbText
 10
131.4503219999998
 20
-9.541666666666667
 30
0.0
 40
2.5
  1
2000
 50
90.0
 41
0.7
 72
     2
 11
130.2003219999998
 21
-4.0
 31
0.0
100
AcDbText
 73
     2
  0
TEXT
  5
14B
330
D1
100
AcDbEntity
  8
200
  6
Continuous
 62
     1
100
AcDbText
 10
161.8726395661999
 20
-10.48817402477792
 30
0.0
 40
2.5
  1
10000
 50
90.0
 41
0.7
 72
     2
 11
160.6226395661999
 21
-4.071507358111261
 31
0.0
100
AcDbText
 73
     2
  0
TEXT
  5
14C
330
D1
100
AcDbEntity
  8
200
  6
Continuous
 62
     1
100
AcDbText
 10
148.7212739999999
 20
-9.541666666666667
 30
0.0
 40
2.5
  1
5000
 50
90.0
 41
0.7
 72
     2
 11
147.4712739999999
 21
-4.0
 31
0.0
100
AcDbText
 73
     2
  0
TEXT
  5
14D
330
D1
100
AcDbEntity
  8
200
  6
Continuous
 62
     1
100
AcDbText
 10
157.5799929999999
 20
-9.541666666666667
 30
0.0
 40
2.5
  1
8000
 50
90.0
 41
0.7
 72
     2
 11
156.3299929999999
 21
-4.0
 31
0.0
100
AcDbText
 73
     2
  0
TEXT
  5
14E
330
D1
100
AcDbEntity
  8
200
  6
Continuous
 62
     1
100
AcDbText
 10
182.5797305662
 20
-11.07150735811126
 30
0.0
 40
2.5
  1
30000
 50
90.0
 41
0.7
 72
     2
 11
181.3297305662
 21
-4.071507358111261
 31
0.0
100
AcDbText
 73
     2
  0
TEXT
  5
14F
330
D1
100
AcDbEntity
  8
200
  6
Continuous
 62
     1
100
AcDbText
 10
174.9371315661998
 20
-11.07150735811126
 30
0.0
 40
2.5
  1
20000
 50
90.0
 41
0.7
 72
     2
 11
173.6871315661998
 21
-4.071507358111261
 31
0.0
100
AcDbText
 73
     2
  0
LINE
  5
150
330
D1
100
AcDbEntity
  8
24
  6
Continuous
 62
     1
100
AcDbLine
 10
130.2003219999999
 20
260.4008159999998
 30
0.0
 11
130.2003219999999
 21
256.1946989999996
 31
0.0
  0
LINE
  5
151
330
D1
100
AcDbEntity
  8
24
  6
Continuous
 62
     1
100
AcDbLine
 10
137.8429209999999
 20
260.4008159999998
 30
0.0
 11
137.8429209999999
 21
256.1946989999996
 31
0.0
  0
LINE
  5
152
330
D1
100
AcDbEntity
  8
24
  6
Continuous
 62
     1
100
AcDbLine
 10
147.471274
 20
260.4008159999998
 30
0.0
 11
147.471274
 21
256.1946989999996
 31
0.0
  0
LINE
  5
153
330
D1
100
AcDbEntity
  8
24
  6
Continuous
 62
     1
100
AcDbLine
 10
156.3299929999999
 20
260.4008159999998
 30
0.0
 11
156.3299929999999
 21
256.1946989999996
 31
0.0
  0
LINE
  5
154
330
D1
100
AcDbEntity
  8
24
  6
Continuous
 62
     1
100
AcDbLine
 10
160.5357649999999
 20
260.4008159999998
 30
0.0
 11
160.5357649999999
 21
256.1946989999996
 31
0.0
  0
LINE
  5
155
330
D1
100
AcDbEntity
  8
24
  6
Continuous
 62
     1
100
AcDbLine
 10
173.600257
 20
260.4008159999998
 30
0.0
 11
173.600257
 21
256.1946989999996
 31
0.0
  0
ENDBLK
  5
157
330
D1
100
AcDbEntity
  8
0
100
AcDbBlockEnd
  0
BLOCK
  5
25C
330
25A
100
AcDbEntity
  8
0
100
AcDbBlockBegin
  2
A$C563C75BC
 70
     0
 10
0.0
 20
0.0
 30
0.0
  3
A$C563C75BC
  1

  0
SPLINE
  5
25B
330
25A
100
AcDbEntity
  8
VPORT-BORDERS
 62
     7
100
AcDbSpline
210
0.0
220
0.0
230
1.0
 70
     8
 71
     3
 72
    23
 73
    19
 74
     0
 42
0.0000000001
 43
0.0000000001
 40
0.0
 40
0.0
 40
0.0
 40
0.0
 40
1.0
 40
1.0
 40
1.0
 40
2.0
 40
2.0
 40
2.0
 40
3.0
 40
3.0
 40
3.0
 40
4.0
 40
4.0
 40
4.0
 40
5.0
 40
5.0
 40
5.0
 40
6.0
 40
6.0
 40
6.0
 40
6.0
 10
42.06237704513887
 20
260.3661922447914
 30
0.0
 10
42.06237704513887
 20
260.3661922447914
 30
0.0
 10
42.06237704513887
 20
254.4277089006075
 30
0.0
 10
42.06237704513887
 20
246.8429866783854
 30
0.0
 10
42.06237704513887
 20
232.2614477786458
 30
0.0
 10
46.83038919791671
 20
204.2188872860242
 30
0.0
 10
48.64733255729166
 20
197.2189700225692
 30
0.0
 10
54.0271936684027
 20
176.4932755781249
 30
0.0
 10
64.13820441059036
 20
147.4773033559026
 30
0.0
 10
69.58524488368064
 20
136.1884144670136
 30
0.0
 10
80.12344746614578
 20
114.3478871232636
 30
0.0
 10
86.81141133333339
 20
112.846170000868
 30
0.0
 10
86.81141133333339
 20
99.61700333420118
 30
0.0
 10
86.81141133333339
 20
86.38783666753452
 30
0.0
 10
86.81141133333339
 20
52.7478572838541
 30
0.0
 10
86.81141133333339
 20
40.5770239505207
 30
0.0
 10
86.81141133333339
 20
23.15620960590258
 30
0.0
 10
87.60378329513882
 20
17.9296552439235
 30
0.0
 10
97.02900972796122
 20
15.76072910568891
 30
0.0
  0
ENDBLK
  5
25D
330
25A
100
AcDbEntity
  8
0
100
AcDbBlockEnd
  0
BLOCK
  5
262
330
25E
100
AcDbEntity
  8
0
100
AcDbBlockBegin
  2
A$C5E035E10
 70
     0
 10
0.0
 20
0.0
 30
0.0
  3
A$C5E035E10
  1

  0
XLINE
  5
25F
330
25E
100
AcDbEntity
  8
0
  6
Continuous
370
     0
100
AcDbXline
 10
0.0
 20
0.0
 30
0.0
 11
1.0
 21
0.0
 31
0.0
  0
ENDBLK
  5
263
330
25E
100
AcDbEntity
  8
0
100
AcDbBlockEnd
  0
BLOCK
  5
3C7
330
3C3
100
AcDbEntity
  8
0
100
AcDbBlockBegin
  2
A$C73C334B0
 70
     0
 10
0.0
 20
0.0
 30
0.0
  3
A$C73C334B0
  1

  0
SPLINE
  5
3C4
330
3C3
100
AcDbEntity
  8
0
100
AcDbSpline
210
0.0
220
0.0
230
1.0
 70
     8
 71
     3
 72
    24
 73
    20
 74
     0
 42
0.0000000001
 43
0.0000000001
 40
0.0
 40
0.0
 40
0.0
 40
0.0
 40
20.0094299182604
 40
40.0881661154555
 40
60.42214122292
 40
81.32124072570976
 40
102.8947857505988
 40
113.9391536217054
 40
125.2479466104155
 40
136.8380079790225
 40
142.3214431690505
 40
147.6559128245048
 40
152.8870701411708
 40
158.0485609032264
 40
168.088217004522
 40
168.088217004522
 40
168.088217004522
 40
168.088217004522
 40
188.088217004522
 40
188.088217004522
 40
188.088217004522
 40
188.088217004522
 10
0.0
 20
-0.0000000000000568
 30
0.0
 10
0.1339761517160696
 20
-6.669431359792667
 30
0.0
 10
0.4023925057773571
 20
-20.03139486096165
 30
0.0
 10
2.091380682347903
 20
-40.1207875752557
 30
0.0
 10
5.688383365047285
 20
-60.28518936538389
 30
0.0
 10
11.9137779453988
 20
-80.31907188104659
 30
0.0
 10
18.6649650508686
 20
-96.84887109050102
 30
0.0
 10
24.8829956478051
 20
-110.1055267456488
 30
0.0
 10
30.03327388393906
 20
-120.1892416404991
 30
0.0
 10
35.31292027509824
 20
-128.0838606936207
 30
0.0
 10
38.32022778713332
 20
-134.9363421126165
 30
0.0
 10
40.19836614482267
 20
-139.9487666482877
 30
0.0
 10
41.6954218377544
 20
-144.971395937929
 30
0.0
 10
43.542986651492
 20
-151.5459940323257
 30
0.0
 10
44.20000009672071
 20
-156.6426961603351
 30
0.0
 10
44.20000009672071
 20
-160.0
 30
0.0
 10
44.20000009672071
 20
-160.0
 30
0.0
 10
44.20000009672071
 20
-166.6666666666667
 30
0.0
 10
44.20000009672071
 20
-173.3333333333334
 30
0.0
 10
44.20000009672071
 20
-180.0
 30
0.0
  0
ENDBLK
  5
3C8
330
3C3
100
AcDbEntity
  8
0
100
AcDbBlockEnd
  0
ENDSEC
  0
SECTION
  2
ENTITIES
  0
MTEXT
  5
9D
330
1F
100
AcDbEntity
  8
レイヤー_5
 62
     7
100
AcDbMText
 10
134.2741470000001
 20
252.2029369999997
 30
0.0
 40
2.444193999999999
 41
0.0
 71
     1
 72
     5
  1
{\fOsaka|b0|i0|c128|p0;\W1.02;225A}
  7
STD
 73
     1
 44
1.0
1001
ACAD
1000
MTEXTBEGIN
1070
    73
1070
     1
1070
    44
1040
1.0
1070
    74
1070
     0
1000
MTEXTEND
  0
MTEXT
  5
9F
330
1F
100
AcDbEntity
  8
レイヤー_5
 62
     7
100
AcDbMText
 10
148.1220530000001
 20
239.7725159999999
 30
0.0
 40
2.444193999999999
 41
0.0
 71
     1
 72
     5
  1
\W1.02;\fOsaka|b0|i0|c128;S400-GF
  7
STD
 73
     1
 44
1.0
1001
ACAD
1000
MTEXTBEGIN
1070
    73
1070
     1
1070
    44
1040
1.0
1070
    74
1070
     0
1000
MTEXTEND
  0
MTEXT
  5
A0
330
1F
100
AcDbEntity
  8
レイヤー_5
 62
     7
100
AcDbMText
 10
148.1220530000001
 20
245.1222319999998
 30
0.0
 40
2.444193999999999
 41
0.0
 71
     1
 72
     5
  1
{\fOsaka|b0|i0|c128|p0;\W1.02;S400-CF,S400-NF}
  7
STD
 73
     1
 44
1.0
1001
ACAD
1000
MTEXTBEGIN
1070
    73
1070
     1
1070
    44
1040
1.0
1070
    74
1070
     0
1000
MTEXTEND
  0
MTEXT
  5
2AC
330
1F
100
AcDbEntity
  8
VPORT-BORDERS
 62
     7
100
AcDbMText
 10
-10.77143499999996
 20
1.440292999999995
 30
0.0
 40
2.444193999999999
 41
0.0
 71
     1
 72
     5
  1
\W1.02;\fOsaka|b0|i0|c128;0.01S
  7
STD
 73
     1
 44
1.0
1001
ACAD
1000
MTEXTBEGIN
1070
    73
1070
     1
1070
    44
1040
1.0
1070
    74
1070
     0
1000
MTEXTEND
  0
LINE
  5
2AD
330
1F
100
AcDbEntity
  8
VPORT-BORDERS
 62
     7
100
AcDbLine
 10
194.3424879999997
 20
0.0
 30
0.0
 11
-0.0000000000000568
 21
0.0
 31
0.0
  0
LINE
  5
2AE
330
1F
100
AcDbEntity
  8
VPORT-BORDERS
 62
     7
100
AcDbLine
 10
-0.0000000000000568
 20
260.400471
 30
0.0
 11
-0.0000000000000568
 21
0.0
 31
0.0
  0
LINE
  5
2AF
330
1F
100
AcDbEntity
  8
VPORT-BORDERS
 62
     7
100
AcDbLine
 10
26.19995199999996
 20
260.400471
 30
0.0
 11
26.19995199999996
 21
0.0
 31
0.0
  0
LINE
  5
2B0
330
1F
100
AcDbEntity
  8
VPORT-BORDERS
 62
     7
100
AcDbLine
 10
13.09997599999985
 20
260.400471
 30
0.0
 11
13.09997599999985
 21
0.0
 31
0.0
  0
MTEXT
  5
2B1
330
1F
100
AcDbEntity
  8
VPORT-BORDERS
 62
     7
100
AcDbMText
 10
25.23783800000004
 20
-14.78531599999996
 30
0.0
 40
2.444193999999999
 41
0.0
 71
     1
 72
     5
  1
\fOsaka|b0|i0|c128;110V
  7
STD
 11
0.0
 21
1.0
 31
0.0
 73
     1
 44
1.0
1001
ACAD
1000
MTEXTBEGIN
1070
    73
1070
     1
1070
    44
1040
1.0
1070
    74
1070
     0
1000
MTEXTEND
  0
MTEXT
  5
2B2
330
1F
100
AcDbEntity
  8
VPORT-BORDERS
 62
     7
100
AcDbMText
 10
-1.444081999999979
 20
-14.78531599999996
 30
0.0
 40
2.444193999999999
 41
0.0
 71
     1
 72
     5
  1
\fOsaka|b0|i0|c128;440V
  7
STD
 11
0.0
 21
1.0
 31
0.0
 73
     1
 44
1.0
1001
ACAD
1000
MTEXTBEGIN
1070
    73
1070
     1
1070
    44
1040
1.0
1070
    74
1070
     0
1000
MTEXTEND
  0
MTEXT
  5
2B3
330
1F
100
AcDbEntity
  8
VPORT-BORDERS
 62
     7
100
AcDbMText
 10
11.65589399999992
 20
-14.78531599999996
 30
0.0
 40
2.444193999999999
 41
0.0
 71
     1
 72
     5
  1
\fOsaka|b0|i0|c128;220V
  7
STD
 11
0.0
 21
1.0
 31
0.0
 73
     1
 44
1.0
1001
ACAD
1000
MTEXTBEGIN
1070
    73
1070
     1
1070
    44
1040
1.0
1070
    74
1070
     0
1000
MTEXTEND
  0
LWPOLYLINE
  5
477
330
1F
100
AcDbEntity
  8
0
100
AcDbPolyline
 90
      377
 70
     0
 43
0.0
 10
40.59997599999983
 20
260.400471
 10
40.63687822580056
 20
258.819339781758
 10
40.67397077462821
 20
257.2382420112615
 10
40.71202330591392
 20
255.6572111362562
 10
40.75180547908865
 20
254.0762806044876
 10
40.79408695358345
 20
252.4954838637011
 10
40.83963738882942
 20
250.9148543616425
 10
40.8892264442576
 20
249.3344255460574
 10
40.94362377929892
 20
247.7542308646909
 10
41.00359905338462
 20
246.1743037652891
 10
41.06992192594559
 20
244.5946776955972
 10
41.143362056413
 20
243.0153861033609
 10
41.22468910421774
 20
241.4364624363258
 10
41.3146688668086
 20
239.8579404829935
 10
41.41385185801406
 20
238.2798730270861
 10
41.52246402416762
 20
236.7023414900415
 10
41.64070443142214
 20
235.1254296650292
 10
41.76877214593047
 20
233.5492213452186
 10
41.90686623384549
 20
231.973800323779
 10
42.05518576132014
 20
230.39925039388
 10
42.21392979450723
 20
228.8256553486911
 10
42.38329739955957
 20
227.2530989813817
 10
42.56348764263013
 20
225.6816650851211
 10
42.75469958987172
 20
224.1114374530789
 10
42.95713230743717
 20
222.5424998784244
 10
43.17098486147942
 20
220.9749361543272
 10
43.39646130432845
 20
219.4088355260402
 10
43.63383127733665
 20
217.8443589564514
 10
43.88341066392746
 20
216.2817179713608
 10
44.14551631551978
 20
214.7211251550129
 10
44.42046508353246
 20
213.1627930916522
 10
44.70857381938428
 20
211.606934365523
 10
45.01015937449406
 20
210.0537615608698
 10
45.32553860028076
 20
208.5034872619373
 10
45.65502834816309
 20
206.9563240529696
 10
45.99894546955993
 20
205.4124845182114
 10
46.35760681589014
 20
203.8721812419071
 10
46.73132923857246
 20
202.3356268083012
 10
47.12042958902582
 20
200.8030338016381
 10
47.52516102562018
 20
199.2745940672426
 10
47.94519740265394
 20
197.7503108248228
 10
48.37990338264284
 20
196.230086618995
 10
48.82864072857278
 20
194.7138230502672
 10
49.29077120342963
 20
193.2014217191476
 10
49.76565657019913
 20
191.6927842261444
 10
50.25265859186726
 20
190.1878121717657
 10
50.7511390314197
 20
188.6864071565198
 10
51.26045965184249
 20
187.1884707809147
 10
51.77998221612129
 20
185.6939046454586
 10
52.30906848724213
 20
184.2026103506596
 10
52.84708022819067
 20
182.7144894970262
 10
53.39337920195293
 20
181.2294436850661
 10
53.94733623221076
 20
179.7473762710663
 10
54.50860214592181
 20
178.2682448702493
 10
55.07715449154851
 20
176.7920704098158
 10
55.65298929169249
 20
175.3188773968787
 10
56.23610256895521
 20
173.8486903385508
 10
56.82649034593826
 20
172.381533741945
 10
57.42414864524329
 20
170.9174321141741
 10
58.02907348947172
 20
169.4564099623509
 10
58.64126090122521
 20
167.9984917935884
 10
59.26070690310528
 20
166.5437021149993
 10
59.88740751771352
 20
165.0920654336965
 10
60.52135876765145
 20
163.6436062567928
 10
61.16255667552064
 20
162.1983490914011
 10
61.81099726392273
 20
160.7563184446342
 10
62.46676710023898
 20
159.3175837166679
 10
63.13073328736384
 20
157.8826013054698
 10
63.80416164736804
 20
156.4520252982071
 10
64.48831795726777
 20
155.0265102960524
 10
65.18412044140177
 20
153.6065959941546
 10
65.89183541349576
 20
152.192606556432
 10
66.61165741165762
 20
150.7848424167294
 10
67.34340252032254
 20
149.3833824222645
 10
68.08331722982472
 20
147.9862154040387
 10
68.82568629594651
 20
146.5901815871026
 10
69.5647837134981
 20
145.1921147499901
 10
70.29922837676685
 20
143.7913261354404
 10
71.03884569490809
 20
142.3935169474776
 10
71.79524342577121
 20
141.0054046863863
 10
72.57927550798962
 20
139.6332613643846
 10
73.38855731102285
 20
138.2755353345733
 10
74.20940783182323
 20
136.9239990799797
 10
75.02778375499755
 20
135.5702109662107
 10
75.83006896447527
 20
134.2062189086626
 10
76.60514168638535
 20
132.8269292184147
 10
77.34278287174674
 20
131.4282826856684
 10
78.03284849854356
 20
130.006257466221
 10
78.67222576112294
 20
128.56025666012
 10
79.2705405155023
 20
127.0958884397348
 10
79.83876186133398
 20
125.6194152788135
 10
80.3870152414491
 20
124.1364445632782
 10
80.92013815687414
 20
122.6484776655414
 10
81.4409237996702
 20
121.1554285804428
 10
81.9517309338425
 20
119.6571582833633
 10
82.44482340965197
 20
118.1523634206391
 10
82.90225527559144
 20
116.6385630585857
 10
83.30565581560689
 20
115.1132283757827
 10
83.64369845718725
 20
113.5749183919246
 10
83.92132754799366
 20
112.02470487731
 10
84.14577758217076
 20
110.4640132741197
 10
84.32428305386297
 20
108.8942690245342
 10
84.46407845721495
 20
107.3168975707344
 10
84.57239828637131
 20
105.7333243549008
 10
84.65647703547656
 20
104.1449748192141
 10
84.72354919867528
 20
102.5532744058549
 10
84.78084927011208
 20
100.959648557004
 10
84.79997599999984
 20
99.37394840829227
 10
84.79997599999984
 20
97.79282529093457
 10
84.79997599999984
 20
96.21170217357686
 10
84.79997599999984
 20
94.63057905621916
 10
84.79997599999984
 20
93.04945593886149
 10
84.79997599999984
 20
91.4683328215038
 10
84.79997599999984
 20
89.88720970414609
 10
84.79997599999984
 20
88.30608658678841
 10
84.79997599999984
 20
86.72496346943072
 10
84.79997599999984
 20
85.14384035207303
 10
84.79997599999984
 20
83.56271723471534
 10
84.79997599999984
 20
81.98159411735764
 10
84.79997599999984
 20
80.40047099999998
 10
84.79997599999984
 20
79.68208052465616
 10
84.79997599999984
 20
78.97341013207976
 10
84.79997599999984
 20
78.2743711412278
 10
84.79997599999984
 20
77.58487487105714
 10
84.79997599999984
 20
76.90483264052478
 10
84.79997599999984
 20
76.23415576858758
 10
84.79997599999984
 20
75.57275557420254
 10
84.79997599999984
 20
74.92054337632659
 10
84.79997599999984
 20
74.27743049391668
 10
84.79997599999984
 20
73.64332824592972
 10
84.79997599999984
 20
73.01814795132266
 10
84.79997599999984
 20
72.40180092905244
 10
84.79997599999984
 20
71.79419849807601
 10
84.79997599999984
 20
71.19525197735026
 10
84.79997599999984
 20
70.60487268583222
 10
84.79997599999984
 20
70.02297194247872
 10
84.79997599999984
 20
69.44946106624681
 10
84.79997599999984
 20
68.88425137609335
 10
84.79997599999984
 20
68.32725419097531
 10
84.79997599999984
 20
67.77838082984961
 10
84.79997599999984
 20
67.23754261167323
 10
84.79997599999984
 20
66.70465085540306
 10
84.79997599999984
 20
66.17961687999607
 10
84.79997599999984
 20
65.66235200440917
 10
84.79997599999984
 20
65.15276754759935
 10
84.79997599999984
 20
64.65077482852347
 10
84.79997599999984
 20
64.15628516613856
 10
84.79997599999984
 20
63.66920987940151
 10
84.79997599999984
 20
63.18946028726924
 10
84.79997599999984
 20
62.71694770869874
 10
84.79997599999984
 20
62.25158346264691
 10
84.79997599999984
 20
61.79327886807071
 10
84.79997599999984
 20
61.34194524392706
 10
84.79997599999984
 20
60.89749390917288
 10
84.79997599999984
 20
60.45983618276515
 10
84.79997599999984
 20
60.02888338366084
 10
84.79997599999984
 20
59.60454683081682
 10
84.79997599999984
 20
59.18673784319003
 10
84.79997599999984
 20
58.77536773973748
 10
84.79997599999984
 20
58.37034783941604
 10
84.79997599999984
 20
57.97158946118267
 10
84.79997599999984
 20
57.57900392399432
 10
84.79997599999984
 20
57.1925025468079
 10
84.79997599999984
 20
56.81199664858039
 10
84.79997599999984
 20
56.43739754826871
 10
84.79997599999984
 20
56.06861656482976
 10
84.79997599999984
 20
55.70556501722053
 10
84.79997599999984
 20
55.348154224398
 10
84.79997599999984
 20
54.99629550531897
 10
84.79997599999984
 20
54.64990017894052
 10
84.79997599999984
 20
54.30887956421952
 10
84.79997599999984
 20
53.97314498011294
 10
84.79997599999984
 20
53.64260774557767
 10
84.79997599999984
 20
53.3171791795707
 10
84.79997599999984
 20
52.9967706010489
 10
84.79997599999984
 20
52.68129332896929
 10
84.79997599999984
 20
52.37065868228879
 10
84.79997599999984
 20
52.06477797996433
 10
84.79997599999984
 20
51.76356254095281
 10
84.79997599999984
 20
51.4669236842112
 10
84.79997599999984
 20
51.17477272869649
 10
84.79997599999984
 20
50.88702099336554
 10
84.79997599999984
 20
50.60357979717531
 10
84.79997599999984
 20
50.32436045908278
 10
84.79997599999984
 20
49.77823263301843
 10
84.79997599999984
 20
49.24792806682805
 10
84.79997599999984
 20
48.7327373121671
 10
84.79997599999984
 20
48.23195092069116
 10
84.79997599999984
 20
47.74485944405564
 10
84.79997599999984
 20
47.27075343391617
 10
84.79997599999984
 20
46.80892344192819
 10
84.79997599999984
 20
46.35866001974721
 10
84.79997599999984
 20
45.91925371902873
 10
84.79997599999984
 20
45.48999509142833
 10
84.79997599999984
 20
45.0701746886015
 10
84.79997599999984
 20
44.6590830622037
 10
84.79997599999984
 20
44.25601076389049
 10
84.79997599999984
 20
43.86024834531736
 10
84.79997599999984
 20
43.47108635813987
 10
84.79997599999984
 20
43.08781535401347
 10
84.79997599999984
 20
42.70972588459364
 10
84.79997599999984
 20
42.33610850153596
 10
84.79997599999984
 20
41.59945220112911
 10
84.79997599999984
 20
40.87217086603696
 10
84.79997599999984
 20
40.5102721896227
 10
84.79997599999984
 20
40.41985888901621
 10
84.79997599999984
 20
40.40855762091466
 10
84.79997599999984
 20
40.40290699402663
 10
84.79997599999984
 20
40.4014943375926
 10
84.79997599999984
 20
40.40078800938977
 10
84.79998431829061
 20
40.39802526593724
 10
84.800065959564
 20
40.37415140297593
 10
84.80074439570646
 20
40.18422898810507
 10
84.80223658472089
 20
39.81004607224804
 10
84.80390994619432
 20
39.4433340961785
 10
84.80576538031026
 20
39.08399912542506
 10
84.80780378725221
 20
38.73194722551671
 10
84.81002606720371
 20
38.38708446198257
 10
84.81243312034834
 20
38.04931690035198
 10
84.81502584686955
 20
37.71855060615371
 10
84.81780514695094
 20
37.39469164491663
 10
84.820771920776
 20
37.07764608217019
 10
84.82392706852825
 20
36.76731998344314
 10
84.82727149039126
 20
36.46361941426443
 10
84.8308060865485
 20
36.16645044016337
 10
84.8345317571835
 20
35.87571912666891
 10
84.83844940247982
 20
35.59133153930986
 10
84.84255992262104
 20
35.31319374361557
 10
84.84686421779057
 20
35.04121180511493
 10
84.851363188172
 20
34.77529178933686
 10
84.85605773394887
 20
34.51533976181064
 10
84.86094875530467
 20
34.26126178806522
 10
84.86603715242297
 20
34.01296393362935
 10
84.87132382548729
 20
33.77035226403234
 10
84.8768096746811
 20
33.5333328448034
 10
84.88249560018799
 20
33.30181174147134
 10
84.88838250219146
 20
33.07569501956506
 10
84.89447128087507
 20
32.85488874461373
 10
84.90076283642229
 20
32.63929898214656
 10
84.9072580690167
 20
32.42883179769246
 10
84.91395787884181
 20
32.2233932567803
 10
84.92086316608114
 20
32.0228894249392
 10
84.92797483091825
 20
31.82722636769842
 10
84.93529377353659
 20
31.63631015058684
 10
84.9428208941198
 20
31.45004683913328
 10
84.9505570928513
 20
31.26834249886702
 10
84.95850326991469
 20
31.09110319531715
 10
84.96666032549345
 20
30.91823499401261
 10
84.97502915977113
 20
30.74964396048233
 10
84.9836106729313
 20
30.58523616025543
 10
84.99240576515736
 20
30.42491765886103
 10
85.01064028754166
 20
30.11617281468557
 10
85.02973992839214
 20
29.82265795218825
 10
85.04971188917712
 20
29.54362159560139
 10
85.07056337136473
 20
29.27831226915714
 10
85.09230157642321
 20
29.02597849708786
 10
85.11493370582085
 20
28.78586880362582
 10
85.13846696102584
 20
28.55723171300332
 10
85.16290854350636
 20
28.33931574945263
 10
85.18826565473064
 20
28.13136943720598
 10
85.21454549616695
 20
27.93264130049568
 10
85.24175526928347
 20
27.74237986355405
 10
85.26990217554844
 20
27.55983365061337
 10
85.29899341643005
 20
27.38425118590584
 10
85.32903619339656
 20
27.21488099366383
 10
85.36003770791614
 20
27.05097159811953
 10
85.3920051614571
 20
26.89177152350533
 10
85.42494575548756
 20
26.73652929405335
 10
85.49377517089004
 20
26.43491246756564
 10
85.56658356586931
 20
26.1401093125146
 10
85.64351968704924
 20
25.8470858833312
 10
85.72514046816502
 20
25.55518800749576
 10
85.81211707728632
 20
25.26498722600445
 10
85.90512068794742
 20
24.97705513848718
 10
86.00482247368255
 20
24.69196334457365
 10
86.11189360802603
 20
24.41028344389378
 10
86.22700526451204
 20
24.13258703607733
 10
86.35082861667484
 20
23.85944572075408
 10
86.4840348380487
 20
23.59143109755394
 10
86.6272951021679
 20
23.32911476610661
 10
86.78128058256666
 20
23.07306832604201
 10
86.94635398012119
 20
22.82369399774041
 10
87.12153345523676
 20
22.58065572786501
 10
87.30547093433118
 20
22.34341636766169
 10
87.49681833593839
 20
22.11143876404731
 10
87.69422757859237
 20
21.88418576393866
 10
87.89635058082728
 20
21.66112021425272
 10
88.10196907720317
 20
21.44175592064261
 10
88.31070336460561
 20
21.22593586288332
 10
88.52250700728559
 20
21.01363384345547
 10
88.73733441769259
 20
20.80482399779646
 10
88.9551400082761
 20
20.59948046134377
 10
89.17587819148561
 20
20.39757736953487
 10
89.39950337977068
 20
20.19908885780711
 10
89.62596998558078
 20
20.00398906159796
 10
89.85523242136537
 20
19.81225211634484
 10
90.08724509957405
 20
19.62385215748514
 10
90.32196243265623
 20
19.43876332045636
 10
90.55933883306149
 20
19.25695974069589
 10
90.79932871323926
 20
19.07841555364121
 10
91.041886485639
 20
18.90310489472966
 10
91.53452335690277
 20
18.56208070308588
 10
92.03688474644875
 20
18.23368024926395
 10
92.54860595387301
 20
17.91769661676329
 10
93.06932227877151
 20
17.61392288908342
 10
93.59866902074028
 20
17.32215214972376
 10
94.13628147937535
 20
17.04217748218377
 10
94.68179495427269
 20
16.77379196996287
 10
95.23484474502843
 20
16.51678869656041
 10
95.79506615123859
 20
16.27096074547592
 10
96.36209447249914
 20
16.03610120020886
 10
96.93556500840609
 20
15.81200314425859
 10
97.51511305855544
 20
15.59845966112471
 10
98.1003739225432
 20
15.39526383430649
 10
98.69098289996555
 20
15.20220874730341
 10
99.28657529041835
 20
15.01908748361495
 10
99.88678639349771
 20
14.84569312674051
 10
100.4912515087996
 20
14.68181876017957
 10
101.09960593592
 20
14.52725746743152
 10
101.711484974455
 20
14.38180233199591
 10
102.3265239240007
 20
14.24524643737203
 10
102.944358084153
 20
14.11738286705946
 10
103.564622754508
 20
13.9980047045575
 10
104.1869532346617
 20
13.88690503336568
 10
104.81098482421
 20
13.78387693698346
 10
105.4363528227491
 20
13.68871349891026
 10
106.0626925298748
 20
13.60120780264549
 10
106.6896392451835
 20
13.52115293168856
 10
107.3168282682709
 20
13.448341969539
 10
107.9438948987331
 20
13.38256799969622
 10
108.5704744361662
 20
13.32362410565963
 10
109.1962021801661
 20
13.27130337092865
 10
109.8207134303288
 20
13.22539887900278
 10
110.4436434862505
 20
13.18570371338148
 10
111.0646276475271
 20
13.15201095756413
 10
111.6833012137547
 20
13.12411369505014
 10
112.2992994845293
 20
13.10180500933904
 10
112.9122577594468
 20
13.08487798393025
 10
113.5218113381033
 20
13.07312570232318
 10
114.1275955200949
 20
13.06634124801729
 10
114.7292618839003
 20
13.06430166658464
 10
115.0301914028184
 20
13.06442877768069
 10
115.1876564294867
 20
13.06448278973482
 10
115.3576354264679
 20
13.06452365684112
 10
115.4492230900751
 20
13.06453947702317
 10
115.5462257577593
 20
13.06455239014946
 10
115.6494056000202
 20
13.0645625226137
 10
115.7595247873576
 20
13.06457000080968
 10
115.8773454902709
 20
13.06457495113102
 10
116.0036298792599
 20
13.06457749997156
 10
116.139140124824
 20
13.06457777372498
 10
116.2846383974631
 20
13.06457589878499
 10
116.4408868676766
 20
13.06457200154534
 10
116.6086477059642
 20
13.06456620839981
 10
116.7886830828254
 20
13.06455864574201
 10
116.9817551687601
 20
13.06454943996579
 10
117.1886261342678
 20
13.06453871746481
 10
117.4100581498479
 20
13.06452660463282
 10
117.6468133860002
 20
13.06451322786353
 10
117.7711753900722
 20
13.06450610500042
 10
117.8996540132245
 20
13.06449871355068
 10
118.0323445267698
 20
13.06449106931342
 10
118.1693422020203
 20
13.06448318808799
 10
118.3107423102886
 20
13.06447508567351
 10
118.4566401228869
 20
13.0644667778692
 10
118.6071309111279
 20
13.0644582804743
 10
118.7623099463242
 20
13.06444960928803
 10
118.9222724997881
 20
13.06444078010963
 10
119.087113842832
 20
13.06443180873822
 10
119.2569292467684
 20
13.06442271097313
 10
119.4318139829098
 20
13.06441350261354
 10
119.6118633225685
 20
13.06440419945863
 10
119.7971725370568
 20
13.06439481730763
 10
119.9878368976874
 20
13.06438537195976
 10
120.183951675773
 20
13.06437587921425
 10
120.3856121426258
 20
13.06436635487034
 10
120.5929135695583
 20
13.06435681472715
  0
LWPOLYLINE
  5
478
330
1F
100
AcDbEntity
  8
0
100
AcDbPolyline
 90
      398
 70
     0
 43
0.0
 10
40.59997599999983
 20
260.400471
 10
40.63687822580056
 20
258.819339781758
 10
40.67397077462821
 20
257.2382420112615
 10
40.71202330591392
 20
255.6572111362562
 10
40.75180547908865
 20
254.0762806044876
 10
40.79408695358345
 20
252.4954838637011
 10
40.83963738882942
 20
250.9148543616425
 10
40.8892264442576
 20
249.3344255460574
 10
40.94362377929892
 20
247.7542308646909
 10
41.00359905338462
 20
246.1743037652891
 10
41.06992192594559
 20
244.5946776955972
 10
41.143362056413
 20
243.0153861033609
 10
41.22468910421774
 20
241.4364624363258
 10
41.3146688668086
 20
239.8579404829935
 10
41.41385185801406
 20
238.2798730270861
 10
41.52246402416762
 20
236.7023414900415
 10
41.64070443142214
 20
235.1254296650292
 10
41.76877214593047
 20
233.5492213452186
 10
41.90686623384549
 20
231.973800323779
 10
42.05518576132014
 20
230.39925039388
 10
42.21392979450723
 20
228.8256553486911
 10
42.38329739955957
 20
227.2530989813817
 10
42.56348764263013
 20
225.6816650851211
 10
42.75469958987172
 20
224.1114374530789
 10
42.95713230743717
 20
222.5424998784244
 10
43.17098486147942
 20
220.9749361543272
 10
43.39646130432845
 20
219.4088355260402
 10
43.63383127733665
 20
217.8443589564514
 10
43.88341066392746
 20
216.2817179713608
 10
44.14551631551978
 20
214.7211251550129
 10
44.42046508353246
 20
213.1627930916522
 10
44.70857381938428
 20
211.606934365523
 10
45.01015937449406
 20
210.0537615608698
 10
45.32553860028076
 20
208.5034872619373
 10
45.65502834816309
 20
206.9563240529696
 10
45.99894546955993
 20
205.4124845182114
 10
46.35760681589014
 20
203.8721812419071
 10
46.73132923857246
 20
202.3356268083012
 10
47.12042958902582
 20
200.8030338016381
 10
47.52516102562018
 20
199.2745940672426
 10
47.94519740265394
 20
197.7503108248228
 10
48.37990338264284
 20
196.230086618995
 10
48.82864072857278
 20
194.7138230502672
 10
49.29077120342963
 20
193.2014217191476
 10
49.76565657019913
 20
191.6927842261444
 10
50.25265859186726
 20
190.1878121717657
 10
50.7511390314197
 20
188.6864071565198
 10
51.26045965184249
 20
187.1884707809147
 10
51.77998221612129
 20
185.6939046454586
 10
52.30906848724213
 20
184.2026103506596
 10
52.84708022819067
 20
182.7144894970262
 10
53.39337920195293
 20
181.2294436850661
 10
53.94733623221076
 20
179.7473762710663
 10
54.50860214592181
 20
178.2682448702493
 10
55.07715449154851
 20
176.7920704098158
 10
55.65298929169249
 20
175.3188773968787
 10
56.23610256895521
 20
173.8486903385508
 10
56.82649034593826
 20
172.381533741945
 10
57.42414864524329
 20
170.9174321141741
 10
58.02907348947172
 20
169.4564099623509
 10
58.64126090122521
 20
167.9984917935884
 10
59.26070690310528
 20
166.5437021149993
 10
59.88740751771352
 20
165.0920654336965
 10
60.52135876765145
 20
163.6436062567928
 10
61.16255667552064
 20
162.1983490914011
 10
61.81099726392273
 20
160.7563184446342
 10
62.46676710023898
 20
159.3175837166679
 10
63.13073328736384
 20
157.8826013054698
 10
63.80416164736804
 20
156.4520252982071
 10
64.48831795726777
 20
155.0265102960524
 10
65.18412044140177
 20
153.6065959941546
 10
65.89183541349576
 20
152.192606556432
 10
66.61165741165762
 20
150.7848424167294
 10
67.34340252032254
 20
149.3833824222645
 10
68.08331722982472
 20
147.9862154040387
 10
68.82568629594651
 20
146.5901815871026
 10
69.5647837134981
 20
145.1921147499901
 10
70.29922837676685
 20
143.7913261354404
 10
71.03884569490809
 20
142.3935169474776
 10
71.79524342577121
 20
141.0054046863863
 10
72.57927550798962
 20
139.6332613643846
 10
73.38855731102285
 20
138.2755353345733
 10
74.20940783182323
 20
136.9239990799797
 10
75.02778375499755
 20
135.5702109662107
 10
75.83006896447527
 20
134.2062189086626
 10
76.60514168638535
 20
132.8269292184147
 10
77.34278287174674
 20
131.4282826856684
 10
78.03284849854356
 20
130.006257466221
 10
78.67222576112294
 20
128.56025666012
 10
79.4855712833569
 20
126.5696032018286
 42
-0.0972758067154707
 10
83.19997599999981
 20
107.6581339499362
 10
83.19997599999981
 20
79.68208052465616
 10
83.19997599999981
 20
78.97341013207976
 10
83.19997599999981
 20
78.2743711412278
 10
83.19997599999981
 20
77.58487487105714
 10
83.19997599999981
 20
76.90483264052473
 10
83.19997599999981
 20
76.23415576858758
 10
83.19997599999981
 20
75.57275557420254
 10
83.19997599999981
 20
74.92054337632658
 10
83.19997599999981
 20
74.27743049391665
 10
83.19997599999981
 20
73.6433282459297
 10
83.19997599999981
 20
73.01814795132266
 10
83.19997599999981
 20
72.40180092905244
 10
83.19997599999981
 20
71.79419849807598
 10
83.19997599999981
 20
71.19525197735026
 10
83.19997599999981
 20
70.60487268583219
 10
83.19997599999981
 20
70.02297194247872
 10
83.19997599999981
 20
69.44946106624678
 10
83.19997599999981
 20
68.88425137609335
 10
83.19997599999981
 20
68.32725419097528
 10
83.19997599999981
 20
67.77838082984961
 10
83.19997599999981
 20
67.23754261167323
 10
83.19997599999981
 20
66.70465085540303
 10
83.19997599999981
 20
66.17961687999605
 10
83.19997599999981
 20
65.66235200440917
 10
83.19997599999981
 20
65.15276754759931
 10
83.19997599999981
 20
64.65077482852347
 10
83.19997599999981
 20
64.15628516613856
 10
83.19997599999981
 20
63.66920987940146
 10
83.19997599999981
 20
63.18946028726924
 10
83.19997599999981
 20
62.71694770869871
 10
83.19997599999981
 20
62.25158346264689
 10
83.19997599999981
 20
61.79327886807067
 10
83.19997599999981
 20
61.34194524392703
 10
83.19997599999981
 20
60.89749390917288
 10
83.19997599999981
 20
60.45983618276515
 10
83.19997599999981
 20
60.02888338366084
 10
83.19997599999981
 20
59.60454683081678
 10
83.19997599999981
 20
59.18673784319003
 10
83.19997599999981
 20
58.77536773973748
 10
83.19997599999981
 20
58.370347839416
 10
83.19997599999981
 20
57.97158946118265
 10
83.19997599999981
 20
57.57900392399429
 10
83.19997599999981
 20
57.19250254680787
 10
83.19997599999981
 20
56.81199664858036
 10
83.19997599999981
 20
56.43739754826867
 10
83.19997599999981
 20
56.06861656482976
 10
83.19997599999981
 20
55.70556501722053
 10
83.19997599999981
 20
55.34815422439796
 10
83.19997599999981
 20
54.99629550531897
 10
83.19997599999981
 20
54.64990017894052
 10
83.19997599999981
 20
54.30887956421952
 10
83.19997599999981
 20
53.97314498011294
 10
83.19997599999981
 20
53.64260774557767
 10
83.19997599999981
 20
53.31717917957067
 10
83.19997599999981
 20
52.99677060104889
 10
83.19997599999981
 20
52.68129332896926
 10
83.19997599999981
 20
52.37065868228876
 10
83.19997599999981
 20
52.06477797996431
 10
83.19997599999981
 20
51.76356254095279
 10
83.19997599999981
 20
51.4669236842112
 10
83.19997599999981
 20
51.17477272869646
 10
83.19997599999981
 20
50.88702099336552
 10
83.19997599999981
 20
50.60357979717531
 10
83.19997599999981
 20
50.32436045908275
 10
83.19997599999981
 20
50.04927429804482
 10
83.19997599999981
 20
49.77823263301843
 10
83.19997599999981
 20
49.5111467829605
 10
83.19997599999981
 20
49.24792806682802
 10
83.19997599999981
 20
48.98848780357791
 10
83.19997599999981
 20
48.7327373121671
 10
83.19997599999981
 20
48.48058791155249
 10
83.19997599999981
 20
48.23195092069114
 10
83.19997599999981
 20
47.98673765853985
 10
83.19997599999981
 20
47.74485944405563
 10
83.19997599999981
 20
47.50622759619543
 10
83.19997599999981
 20
47.27075343391613
 10
83.19997599999981
 20
47.03834827617474
 10
83.19997599999981
 20
46.80892344192815
 10
83.19997599999981
 20
46.58239025013332
 10
83.19997599999981
 20
46.35866001974719
 10
83.19997599999981
 20
45.91925371902873
 10
83.19997599999981
 20
45.48999509142833
 10
83.19997599999981
 20
45.07017468860146
 10
83.19997599999981
 20
44.65908306220367
 10
83.19997599999981
 20
44.25601076389045
 10
83.19997599999981
 20
43.86024834531736
 10
83.19997599999981
 20
43.4710863581398
 10
83.19997599999981
 20
43.08781535401339
 10
83.19997599999981
 20
42.70972588459364
 10
83.19997599999981
 20
42.33610850153596
 10
83.19997599999981
 20
41.96625375649595
 10
83.19997599999981
 20
41.59945220112911
 10
83.19997599999981
 20
40.87217086603696
 10
83.19997599999981
 20
40.51027218962263
 10
83.19997599999981
 20
40.41985888901614
 10
83.19997599999981
 20
40.40855762091459
 10
83.19997599999981
 20
40.40290699402658
 10
83.19997599999981
 20
40.4014943375926
 10
83.19997599999981
 20
40.40078800938977
 10
83.19997599999981
 20
40.40061142733956
 10
83.19997599999981
 20
40.40052313631457
 10
83.19998431829056
 20
40.39802526593724
 10
83.20006595956394
 20
40.37415140297593
 10
83.20074439570641
 20
40.18422898810507
 10
83.20223658472086
 20
39.81004607224804
 10
83.20390994619428
 20
39.4433340961785
 10
83.20576538031019
 20
39.08399912542506
 10
83.20780378725215
 20
38.73194722551671
 10
83.21002606720368
 20
38.38708446198257
 10
83.21243312034829
 20
38.04931690035198
 10
83.21502584686953
 20
37.71855060615371
 10
83.2178051469509
 20
37.39469164491663
 10
83.22077192077598
 20
37.07764608217019
 10
83.22392706852822
 20
36.76731998344314
 10
83.22727149039121
 20
36.46361941426443
 10
83.23080608654848
 20
36.16645044016343
 10
83.23453175718347
 20
35.87571912666891
 10
83.23844940247981
 20
35.59133153930986
 10
83.242559922621
 20
35.31319374361557
 10
83.24686421779054
 20
35.04121180511493
 10
83.25136318817198
 20
34.77529178933686
 10
83.25605773394883
 20
34.51533976181064
 10
83.26094875530467
 20
34.26126178806522
 10
83.26603715242294
 20
34.01296393362935
 10
83.27132382548724
 20
33.77035226403234
 10
83.27680967468106
 20
33.5333328448034
 10
83.28249560018795
 20
33.30181174147134
 10
83.28838250219146
 20
33.07569501956506
 10
83.29447128087503
 20
32.85488874461373
 10
83.30076283642226
 20
32.63929898214656
 10
83.30725806901666
 20
32.42883179769246
 10
83.31395787884178
 20
32.2233932567803
 10
83.3208631660811
 20
32.0228894249392
 10
83.32797483091821
 20
31.82722636769842
 10
83.33529377353656
 20
31.63631015058684
 10
83.34282089411976
 20
31.45004683913328
 10
83.35055709285127
 20
31.26834249886702
 10
83.35850326991462
 20
31.09110319531715
 10
83.36666032549343
 20
30.91823499401261
 10
83.37502915977109
 20
30.74964396048233
 10
83.38361067293126
 20
30.58523616025543
 10
83.39240576515736
 20
30.42491765886103
 10
83.40141533663297
 20
30.26859452182811
 10
83.41064028754162
 20
30.11617281468557
 10
83.42008151806686
 20
29.96755860296259
 10
83.4297399283921
 20
29.82265795218825
 10
83.43961641870102
 20
29.68137692789156
 10
83.44971188917705
 20
29.54362159560139
 10
83.46002724000378
 20
29.40929802084685
 10
83.4705633713647
 20
29.27831226915714
 10
83.48132118344331
 20
29.15057040606115
 10
83.4923015764232
 20
29.02597849708786
 10
83.50350545048787
 20
28.90444260776638
 10
83.51493370582081
 20
28.78586880362582
 10
83.52658724260562
 20
28.67016315019515
 10
83.5384669610258
 20
28.55723171300332
 10
83.5629085435063
 20
28.33931574945263
 10
83.58826565473062
 20
28.13136943720598
 10
83.61454549616691
 20
27.93264130049568
 10
83.64175526928342
 20
27.74237986355405
 10
83.66990217554839
 20
27.55983365061337
 10
83.69899341643
 20
27.38425118590584
 10
83.7290361933965
 20
27.21488099366383
 10
83.7600377079161
 20
27.05097159811953
 10
83.79200516145706
 20
26.89177152350527
 10
83.82494575548752
 20
26.73652929405335
 10
83.89377517088998
 20
26.43491246756564
 10
83.96658356586927
 20
26.14010931251454
 10
84.0435196870492
 20
25.8470858833312
 10
84.12514046816497
 20
25.55518800749576
 10
84.21211707728629
 20
25.26498722600445
 10
84.30512068794739
 20
24.97705513848718
 10
84.40482247368253
 20
24.69196334457365
 10
84.51189360802601
 20
24.41028344389378
 10
84.62700526451198
 20
24.13258703607733
 10
84.75082861667479
 20
23.85944572075408
 10
84.81621692036446
 20
23.72476184766174
 10
84.88403483804869
 20
23.59143109755394
 10
84.95436626641922
 20
23.4595249203843
 10
85.02729510216786
 20
23.32911476610661
 10
85.10290524198639
 20
23.20027208467462
 10
85.18128058256662
 20
23.07306832604201
 10
85.26246976951354
 20
22.94755558414357
 10
85.34635398012111
 20
22.82369399774041
 10
85.43276471208995
 20
22.70141642702601
 10
85.52153345523674
 20
22.58065572786506
 10
85.70547093433114
 20
22.34341636766169
 10
85.89681833593834
 20
22.11143876404731
 10
86.09422757859238
 20
21.88418576393872
 10
86.29635058082724
 20
21.66112021425272
 10
86.50196907720314
 20
21.44175592064261
 10
86.71070336460559
 20
21.22593586288332
 10
86.92250700728553
 20
21.01363384345547
 10
87.13733441769257
 20
20.80482399779646
 10
87.35514000827606
 20
20.59948046134383
 10
87.57587819148559
 20
20.39757736953487
 10
87.79950337977066
 20
20.19908885780711
 10
88.02596998558071
 20
20.00398906159796
 10
88.25523242136538
 20
19.81225211634484
 10
88.48724509957399
 20
19.62385215748514
 10
88.72196243265619
 20
19.43876332045636
 10
88.95933883306142
 20
19.25695974069589
 10
89.1993287132392
 20
19.07841555364121
 10
89.44188648563898
 20
18.90310489472966
 10
89.68696656271031
 20
18.73100189939879
 10
89.93452335690269
 20
18.56208070308588
 10
90.18451128066571
 20
18.39631544122847
 10
90.43688474644872
 20
18.23368024926395
 10
90.69159816670131
 20
18.07414926262976
 10
90.94860595387293
 20
17.91769661676335
 10
91.2078625204132
 20
17.76429644710207
 10
91.46932227877146
 20
17.61392288908348
 10
91.73293964139734
 20
17.4665500781449
 10
91.99866902074026
 20
17.32215214972382
 10
92.26646482924977
 20
17.18070323925758
 10
92.53628147937531
 20
17.04217748218377
 10
92.80807338356639
 20
16.90654901393975
 10
93.08179495427269
 20
16.77379196996287
 10
93.3574006039435
 20
16.6438804856906
 10
93.63484474502845
 20
16.51678869656041
 10
93.91408178997696
 20
16.39249073800971
 10
94.19506615123856
 20
16.27096074547592
 10
94.47775224126276
 20
16.1521728543965
 10
94.76209447249908
 20
16.03610120020886
 10
95.04804725739701
 20
15.92271991835042
 10
95.33556500840605
 20
15.81200314425865
 10
95.62460213797569
 20
15.7039250133709
 10
95.91511305855535
 20
15.59845966112471
 10
96.20705218259468
 20
15.49558122295741
 10
96.50037392254317
 20
15.39526383430649
 10
96.79503269085026
 20
15.29748163060935
 10
97.0909828999655
 20
15.20220874730341
 10
97.68657529041831
 20
15.01908748361495
 10
98.28678639349769
 20
14.84569312674051
 10
98.89125150879959
 20
14.68181876017957
 10
99.49960593591999
 20
14.52725746743158
 10
100.111484974455
 20
14.38180233199591
 10
100.7265239240007
 20
14.24524643737203
 10
101.344358084153
 20
14.11738286705946
 10
101.964622754508
 20
13.9980047045575
 10
102.5869532346616
 20
13.88690503336573
 10
103.21098482421
 20
13.78387693698346
 10
103.836352822749
 20
13.68871349891026
 10
104.4626925298748
 20
13.60120780264549
 10
105.0896392451835
 20
13.52115293168856
 10
105.7168282682708
 20
13.448341969539
 10
106.3438948987331
 20
13.38256799969622
 10
106.9704744361662
 20
13.32362410565963
 10
107.596202180166
 20
13.27130337092865
 10
108.2207134303288
 20
13.22539887900278
 10
108.8436434862504
 20
13.18570371338148
 10
109.4646276475271
 20
13.15201095756413
 10
110.0833012137547
 20
13.1241136950502
 10
110.6992994845292
 20
13.1018050093391
 10
111.3122577594467
 20
13.08487798393025
 10
111.9218113381032
 20
13.07312570232318
 10
112.5275955200948
 20
13.06634124801729
 10
113.1292618839002
 20
13.06430166658464
 10
113.4307346880085
 20
13.06442877768074
 10
113.5094884780294
 20
13.06445749002313
 10
113.5916998419132
 20
13.06448278973482
 10
113.6784829768031
 20
13.06450480320956
 10
113.7709520798423
 20
13.06452365684112
 10
113.8702213481737
 20
13.06453947702317
 10
113.9774049789404
 20
13.06455239014946
 10
114.0936171692855
 20
13.0645625226137
 10
114.2199721163522
 20
13.06457000080968
 10
114.2873013102634
 20
13.06457278405509
 10
114.3575840172835
 20
13.06457495113108
 10
114.4309595120556
 20
13.06457651783683
 10
114.5075670692224
 20
13.06457749997156
 10
114.5875459634269
 20
13.06457791333457
 10
114.6710354693121
 20
13.06457777372498
 10
114.7581748615208
 20
13.06457709694206
 10
114.8491034146958
 20
13.06457589878499
 10
114.9439604034801
 20
13.06457419505307
 10
115.0428851025165
 20
13.0645720015454
 10
115.1460167864479
 20
13.06456933406122
 10
115.253494729917
 20
13.06456620839981
 10
115.3654582075669
 20
13.06456264036035
 10
115.4820464940406
 20
13.06455864574207
 10
115.6033988639809
 20
13.06455424034413
 10
115.7296545920307
 20
13.06454943996579
 10
115.8609529528328
 20
13.06454426040631
 10
115.99743322103
 20
13.06453871746481
 10
116.1392346712654
 20
13.06453282694059
 10
116.2864965781816
 20
13.06452660463282
 10
116.4393582164215
 20
13.06452006634072
 10
116.5979588606286
 20
13.06451322786353
 10
116.7624377854452
 20
13.06450610500042
 10
116.9329342655143
 20
13.06449871355068
 10
117.1095875754789
 20
13.06449106931342
 10
117.2925369899818
 20
13.06448318808799
 10
117.4819217836659
 20
13.06447508567351
 10
117.6778812311737
 20
13.0644667778692
 10
117.8805546071485
 20
13.0644582804743
 10
118.0900811862334
 20
13.06444960928803
 10
118.3066002430711
 20
13.06444078010958
 10
118.5302510523044
 20
13.06443180873822
 10
118.7611728885761
 20
13.06442271097313
 10
118.9995050265293
 20
13.06441350261349
 10
119.2453867408068
 20
13.06440419945858
 10
119.498957306051
 20
13.06439481730763
 10
119.7603559969052
 20
13.06438537195976
 10
120.0297220880128
 20
13.06437587921425
 10
120.3071948540162
 20
13.06436635487029
 10
120.5929135695583
 20
13.06435681472715
  0
LWPOLYLINE
  5
479
330
1F
100
AcDbEntity
  8
0
100
AcDbPolyline
 90
      454
 70
     0
 43
0.0
 10
40.59997599999983
 20
260.400471
 10
40.63687822580056
 20
258.819339781758
 10
40.67397077462821
 20
257.2382420112615
 10
40.71202330591392
 20
255.6572111362562
 10
40.75180547908865
 20
254.0762806044876
 10
40.79408695358345
 20
252.4954838637011
 10
40.83963738882942
 20
250.9148543616425
 10
40.8892264442576
 20
249.3344255460574
 10
40.94362377929892
 20
247.7542308646909
 10
41.00359905338462
 20
246.1743037652891
 10
41.06992192594559
 20
244.5946776955972
 10
41.143362056413
 20
243.0153861033609
 10
41.22468910421774
 20
241.4364624363258
 10
41.3146688668086
 20
239.8579404829935
 10
41.41385185801406
 20
238.2798730270861
 10
41.52246402416762
 20
236.7023414900415
 10
41.64070443142214
 20
235.1254296650292
 10
41.76877214593047
 20
233.5492213452186
 10
41.90686623384549
 20
231.973800323779
 10
42.05518576132014
 20
230.39925039388
 10
42.21392979450723
 20
228.8256553486911
 10
42.38329739955957
 20
227.2530989813817
 10
42.56348764263013
 20
225.6816650851211
 10
42.75469958987172
 20
224.1114374530789
 10
42.95713230743717
 20
222.5424998784244
 10
43.17098486147942
 20
220.9749361543272
 10
43.39646130432845
 20
219.4088355260402
 10
43.63383127733665
 20
217.8443589564514
 10
43.88341066392746
 20
216.2817179713608
 10
44.14551631551978
 20
214.7211251550129
 10
44.42046508353246
 20
213.1627930916522
 10
44.70857381938428
 20
211.606934365523
 10
45.01015937449406
 20
210.0537615608698
 10
45.32553860028076
 20
208.5034872619373
 10
45.65502834816309
 20
206.9563240529696
 10
45.99894546955993
 20
205.4124845182114
 10
46.35760681589014
 20
203.8721812419071
 10
46.73132923857246
 20
202.3356268083012
 10
47.12042958902582
 20
200.8030338016381
 10
47.52516102562018
 20
199.2745940672426
 10
47.94519740265394
 20
197.7503108248228
 10
48.37990338264284
 20
196.230086618995
 10
48.82864072857278
 20
194.7138230502672
 10
49.29077120342963
 20
193.2014217191476
 10
49.76565657019913
 20
191.6927842261444
 10
50.25265859186726
 20
190.1878121717657
 10
50.7511390314197
 20
188.6864071565198
 10
51.26045965184249
 20
187.1884707809147
 10
51.77998221612129
 20
185.6939046454586
 10
52.30906848724213
 20
184.2026103506596
 10
52.84708022819067
 20
182.7144894970262
 10
53.39337920195293
 20
181.2294436850661
 10
53.94733623221076
 20
179.7473762710663
 10
54.50860214592181
 20
178.2682448702493
 10
55.07715449154851
 20
176.7920704098158
 10
55.65298929169249
 20
175.3188773968787
 10
56.23610256895521
 20
173.8486903385508
 10
56.82649034593826
 20
172.381533741945
 10
57.42414864524329
 20
170.9174321141741
 10
58.02907348947172
 20
169.4564099623509
 10
58.64126090122521
 20
167.9984917935884
 10
59.26070690310528
 20
166.5437021149993
 10
59.88740751771352
 20
165.0920654336965
 10
60.52135876765145
 20
163.6436062567928
 10
61.16255667552064
 20
162.1983490914011
 10
61.81099726392273
 20
160.7563184446342
 10
62.46676710023898
 20
159.3175837166679
 10
63.13073328736384
 20
157.8826013054698
 10
63.80416164736804
 20
156.4520252982071
 10
64.48831795726777
 20
155.0265102960524
 10
65.18412044140177
 20
153.6065959941546
 10
65.89183541349576
 20
152.192606556432
 10
66.61165741165762
 20
150.7848424167294
 10
67.34340252032254
 20
149.3833824222645
 10
68.08331722982472
 20
147.9862154040387
 10
68.82568629594651
 20
146.5901815871026
 10
69.5647837134981
 20
145.1921147499901
 10
70.29922837676685
 20
143.7913261354404
 10
71.03884569490809
 20
142.3935169474776
 10
71.79524342577121
 20
141.0054046863863
 10
72.57927550798962
 20
139.6332613643846
 10
73.38855731102285
 20
138.2755353345733
 10
74.20940783182323
 20
136.9239990799797
 10
75.02778375499755
 20
135.5702109662107
 10
75.83006896447527
 20
134.2062189086626
 10
76.60514168638535
 20
132.8269292184147
 10
77.34278287174674
 20
131.4282826856684
 10
77.34278287174674
 20
131.4282826856684
 10
77.34278287174674
 20
131.4282826856684
 42
-0.1038183276870089
 10
81.39997599999984
 20
111.8301833592112
 10
81.39997599999984
 20
77.58487487105714
 10
81.39997599999984
 20
77.24367754340136
 10
81.39997599999984
 20
76.90483264052473
 10
81.39997599999984
 20
76.56832907729693
 10
81.39997599999984
 20
76.23415576858758
 10
81.39997599999984
 20
75.90230162926622
 10
81.39997599999984
 20
75.57275557420254
 10
81.39997599999984
 20
75.24550651826612
 10
81.39997599999984
 20
74.92054337632658
 10
81.39997599999984
 20
74.59785506325356
 10
81.39997599999984
 20
74.27743049391665
 10
81.39997599999984
 20
73.95925858318548
 10
81.39997599999984
 20
73.6433282459297
 10
81.39997599999984
 20
73.32962839701886
 10
81.39997599999984
 20
73.01814795132266
 10
81.39997599999984
 20
72.70887582371063
 10
81.39997599999984
 20
72.40180092905244
 10
81.39997599999984
 20
72.09691218221768
 10
81.39997599999984
 20
71.79419849807598
 10
81.39997599999984
 20
71.49364879149698
 10
81.39997599999984
 20
71.19525197735026
 10
81.39997599999984
 20
70.89899697050547
 10
81.39997599999984
 20
70.60487268583219
 10
81.39997599999984
 20
70.31286803820006
 10
81.39997599999984
 20
70.02297194247872
 10
81.39997599999984
 20
69.73517331353775
 10
81.39997599999984
 20
69.44946106624678
 10
81.39997599999984
 20
69.16582411547546
 10
81.39997599999984
 20
68.88425137609335
 10
81.39997599999984
 20
68.32725419097528
 10
81.39997599999984
 20
67.77838082984961
 10
81.39997599999984
 20
67.23754261167323
 10
81.39997599999984
 20
66.70465085540303
 10
81.39997599999984
 20
66.17961687999605
 10
81.39997599999984
 20
65.66235200440917
 10
81.39997599999984
 20
65.15276754759931
 10
81.39997599999984
 20
64.65077482852347
 10
81.39997599999984
 20
64.15628516613856
 10
81.39997599999984
 20
63.66920987940146
 10
81.39997599999984
 20
63.18946028726924
 10
81.39997599999984
 20
62.71694770869871
 10
81.39997599999984
 20
62.25158346264689
 10
81.39997599999984
 20
61.79327886807067
 10
81.39997599999984
 20
61.34194524392703
 10
81.39997599999984
 20
60.89749390917288
 10
81.39997599999984
 20
60.45983618276515
 10
81.39997599999984
 20
60.02888338366084
 10
81.39997599999984
 20
59.60454683081678
 10
81.39997599999984
 20
59.18673784319003
 10
81.39997599999984
 20
58.77536773973748
 10
81.39997599999984
 20
58.370347839416
 10
81.39997599999984
 20
57.97158946118265
 10
81.39997599999984
 20
57.57900392399429
 10
81.39997599999984
 20
57.19250254680787
 10
81.39997599999984
 20
56.81199664858036
 10
81.39997599999984
 20
56.43739754826867
 10
81.39997599999984
 20
56.06861656482976
 10
81.39997599999984
 20
55.70556501722053
 10
81.39997599999984
 20
55.34815422439796
 10
81.39997599999984
 20
54.99629550531897
 10
81.39997599999984
 20
54.64990017894052
 10
81.39997599999984
 20
54.30887956421952
 10
81.39997599999984
 20
53.97314498011294
 10
81.39997599999984
 20
53.64260774557767
 10
81.39997599999984
 20
53.31717917957067
 10
81.39997599999984
 20
52.99677060104889
 10
81.39997599999984
 20
52.68129332896926
 10
81.39997599999984
 20
52.37065868228876
 10
81.39997599999984
 20
52.06477797996431
 10
81.39997599999984
 20
51.76356254095279
 10
81.39997599999984
 20
51.4669236842112
 10
81.39997599999984
 20
51.17477272869646
 10
81.39997599999984
 20
50.88702099336552
 10
81.39997599999984
 20
50.60357979717531
 10
81.39997599999984
 20
50.32436045908275
 10
81.39997599999984
 20
50.04927429804482
 10
81.39997599999984
 20
49.77823263301843
 10
81.39997599999984
 20
49.5111467829605
 10
81.39997599999984
 20
49.24792806682802
 10
81.39997599999984
 20
48.98848780357791
 10
81.39997599999984
 20
48.7327373121671
 10
81.39997599999984
 20
48.48058791155249
 10
81.39997599999984
 20
48.23195092069114
 10
81.39997599999984
 20
47.98673765853985
 10
81.39997599999984
 20
47.74485944405563
 10
81.39997599999984
 20
47.50622759619543
 10
81.39997599999984
 20
47.27075343391613
 10
81.39997599999984
 20
47.03834827617474
 10
81.39997599999984
 20
46.80892344192815
 10
81.39997599999984
 20
46.58239025013332
 10
81.39997599999984
 20
46.35866001974719
 10
81.39997599999984
 20
46.13764406972665
 10
81.39997599999984
 20
45.91925371902873
 10
81.39997599999984
 20
45.70340028661028
 10
81.39997599999984
 20
45.48999509142833
 10
81.39997599999984
 20
45.27894945243974
 10
81.39997599999984
 20
45.07017468860146
 10
81.39997599999984
 20
44.86358211887046
 10
81.39997599999984
 20
44.65908306220367
 10
81.39997599999984
 20
44.25601076389045
 10
81.39997599999984
 20
43.86024834531736
 10
81.39997599999984
 20
43.4710863581398
 10
81.39997599999984
 20
43.08781535401339
 10
81.39997599999984
 20
42.70972588459364
 10
81.39997599999984
 20
42.33610850153596
 10
81.39997599999984
 20
41.96625375649595
 10
81.39997599999984
 20
41.59945220112911
 10
81.39997599999984
 20
40.87217086603696
 10
81.39997599999984
 20
40.51027218962263
 10
81.39997599999984
 20
40.41985888901614
 10
81.39997599999984
 20
40.40855762091459
 10
81.39997599999984
 20
40.40290699402658
 10
81.39997599999984
 20
40.4014943375926
 10
81.39997599999984
 20
40.40078800938977
 10
81.39997599999984
 20
40.40061142733956
 10
81.39997599999984
 20
40.40052313631457
 10
81.39997599999984
 20
40.400478990802
 10
81.39998431829061
 20
40.39802526593724
 10
81.400065959564
 20
40.37415140297593
 10
81.40074439570645
 20
40.18422898810507
 10
81.40223658472091
 20
39.81004607224804
 10
81.40390994619432
 20
39.4433340961785
 10
81.40576538031027
 20
39.08399912542506
 10
81.40780378725221
 20
38.73194722551671
 10
81.41002606720375
 20
38.38708446198257
 10
81.41243312034836
 20
38.04931690035198
 10
81.41502584686959
 20
37.71855060615378
 10
81.41780514695096
 20
37.39469164491663
 10
81.42077192077602
 20
37.07764608217019
 10
81.42392706852826
 20
36.7673199834432
 10
81.42727149039126
 20
36.46361941426443
 10
81.43080608654852
 20
36.16645044016343
 10
81.43453175718354
 20
35.87571912666897
 10
81.43844940247987
 20
35.59133153930986
 10
81.44255992262104
 20
35.31319374361557
 10
81.44686421779056
 20
35.04121180511499
 10
81.45136318817204
 20
34.77529178933686
 10
81.45605773394891
 20
34.51533976181064
 10
81.4609487553047
 20
34.26126178806522
 10
81.46603715242298
 20
34.01296393362935
 10
81.47132382548731
 20
33.77035226403234
 10
81.47680967468113
 20
33.5333328448034
 10
81.48249560018802
 20
33.30181174147134
 10
81.48838250219148
 20
33.07569501956506
 10
81.49447128087507
 20
32.85488874461373
 10
81.50076283642233
 20
32.63929898214661
 10
81.50725806901673
 20
32.42883179769251
 10
81.51395787884183
 20
32.2233932567803
 10
81.52086316608118
 20
32.0228894249392
 10
81.52797483091823
 20
31.82722636769842
 10
81.53529377353661
 20
31.63631015058684
 10
81.5428208941198
 20
31.45004683913328
 10
81.55055709285132
 20
31.26834249886702
 10
81.55850326991467
 20
31.09110319531715
 10
81.56666032549347
 20
30.91823499401267
 10
81.57502915977117
 20
30.74964396048233
 10
81.58361067293132
 20
30.58523616025543
 10
81.59240576515742
 20
30.42491765886103
 10
81.60141533663304
 20
30.26859452182816
 10
81.61064028754168
 20
30.11617281468563
 10
81.62008151806686
 20
29.96755860296259
 10
81.62973992839216
 20
29.82265795218831
 10
81.63961641870107
 20
29.68137692789156
 10
81.64971188917709
 20
29.54362159560139
 10
81.66002724000383
 20
29.40929802084685
 10
81.67056337136473
 20
29.27831226915714
 10
81.68132118344336
 20
29.15057040606115
 10
81.69230157642322
 20
29.02597849708786
 10
81.7035054504879
 20
28.90444260776638
 10
81.71493370582089
 20
28.78586880362582
 10
81.72658724260569
 20
28.67016315019515
 10
81.73846696102584
 20
28.55723171300332
 10
81.7505737612649
 20
28.44698055757942
 10
81.76290854350638
 20
28.33931574945263
 10
81.77547220793377
 20
28.2341433541518
 10
81.78826565473064
 20
28.13136943720598
 10
81.80128978408054
 20
28.03090006414425
 10
81.81454549616695
 20
27.93264130049568
 10
81.84175526928347
 20
27.74237986355405
 10
81.86990217554843
 20
27.55983365061337
 10
81.89899341643004
 20
27.38425118590584
 10
81.92903619339656
 20
27.21488099366383
 10
81.96003770791618
 20
27.05097159811953
 10
81.99200516145708
 20
26.89177152350527
 10
82.02494575548756
 20
26.73652929405335
 10
82.05886669147581
 20
26.5844934339961
 10
82.09377517089004
 20
26.43491246756564
 10
82.16658356586931
 20
26.14010931251454
 10
82.24351968704928
 20
25.8470858833312
 10
82.32514046816502
 20
25.55518800749576
 10
82.41211707728636
 20
25.26498722600445
 10
82.50512068794744
 20
24.97705513848718
 10
82.60482247368257
 20
24.69196334457365
 10
82.65739492393237
 20
24.55066118260265
 10
82.71189360802605
 20
24.41028344389378
 10
82.76840242265533
 20
24.27090157840075
 10
82.82700526451204
 20
24.13258703607733
 10
82.88778603028799
 20
23.99541126687717
 10
82.95082861667486
 20
23.85944572075408
 10
83.01621692036453
 20
23.72476184766174
 10
83.08403483804871
 20
23.59143109755394
 10
83.15436626641924
 20
23.4595249203843
 10
83.22729510216792
 20
23.32911476610661
 10
83.30290524198645
 20
23.20027208467462
 10
83.38128058256664
 20
23.07306832604201
 10
83.46246976951356
 20
22.94755558414357
 10
83.54635398012119
 20
22.82369399774041
 10
83.63276471209003
 20
22.70141642702601
 10
83.72153345523678
 20
22.58065572786506
 10
83.81249169937825
 20
22.46134475612206
 10
83.90547093433118
 20
22.34341636766169
 10
84.00030264991228
 20
22.22680341834859
 10
84.09681833593841
 20
22.11143876404731
 10
84.2942275785924
 20
21.88418576393872
 10
84.4963505808273
 20
21.66112021425272
 10
84.70196907720319
 20
21.44175592064261
 10
84.91070336460561
 20
21.22593586288332
 10
85.12250700728563
 20
21.01363384345547
 10
85.33733441769259
 20
20.80482399779646
 10
85.55514000827612
 20
20.59948046134383
 10
85.77587819148559
 20
20.39757736953487
 10
85.9995033797707
 20
20.19908885780711
 10
86.22596998558078
 20
20.00398906159796
 10
86.45523242136539
 20
19.81225211634484
 10
86.68724509957407
 20
19.62385215748514
 10
86.92196243265625
 20
19.43876332045636
 10
87.15933883306147
 20
19.25695974069589
 10
87.39932871323928
 20
19.07841555364121
 10
87.64188648563903
 20
18.90310489472966
 10
87.88696656271033
 20
18.73100189939879
 10
88.13452335690277
 20
18.56208070308588
 10
88.38451128066576
 20
18.39631544122847
 10
88.63688474644877
 20
18.23368024926395
 10
88.89159816670135
 20
18.07414926262976
 10
89.14860595387303
 20
17.91769661676335
 10
89.40786252041323
 20
17.76429644710207
 10
89.66932227877148
 20
17.61392288908348
 10
89.93293964139738
 20
17.4665500781449
 10
90.19866902074031
 20
17.32215214972382
 10
90.46646482924982
 20
17.18070323925758
 10
90.73628147937537
 20
17.04217748218377
 10
91.00807338356647
 20
16.90654901393975
 10
91.28179495427273
 20
16.77379196996287
 10
91.55740060394354
 20
16.6438804856906
 10
91.83484474502847
 20
16.51678869656041
 10
92.11408178997698
 20
16.39249073800971
 10
92.39506615123859
 20
16.27096074547592
 10
92.67775224126282
 20
16.1521728543965
 10
92.96209447249914
 20
16.03610120020886
 10
93.24804725739705
 20
15.92271991835042
 10
93.53556500840609
 20
15.81200314425865
 10
93.82460213797571
 20
15.7039250133709
 10
94.1151130585554
 20
15.59845966112471
 10
94.40705218259472
 20
15.49558122295741
 10
94.70037392254321
 20
15.39526383430649
 10
94.9950326908503
 20
15.29748163060935
 10
95.29098289996555
 20
15.20220874730341
 10
95.5881789623384
 20
15.10941931982614
 10
95.88657529041837
 20
15.01908748361495
 10
96.186126296655
 20
14.93118737410725
 10
96.48678639349771
 20
14.84569312674051
 10
96.78850999339609
 20
14.76257887695215
 10
97.09125150879962
 20
14.68181876017957
 10
97.3949653521578
 20
14.60338691186024
 10
97.69960593592005
 20
14.52725746743158
 10
98.00512767253595
 20
14.453404562331
 10
98.31148497445507
 20
14.38180233199591
 10
98.6186322541268
 20
14.31242491186378
 10
98.92652392400073
 20
14.24524643737203
 10
99.23511439652632
 20
14.18024104395812
 10
99.54435808415308
 20
14.11738286705946
 10
99.8542093993305
 20
14.05664604211341
 10
100.164622754508
 20
13.9980047045575
 10
100.4755525621353
 20
13.94143298982914
 10
100.7869532346617
 20
13.88690503336573
 10
101.41098482421
 20
13.78387693698346
 10
102.036352822749
 20
13.68871349891026
 10
102.6626925298749
 20
13.60120780264549
 10
103.2896392451835
 20
13.52115293168856
 10
103.9168282682709
 20
13.448341969539
 10
104.5438948987331
 20
13.38256799969622
 10
105.1704744361662
 20
13.32362410565963
 10
105.7962021801661
 20
13.27130337092865
 10
106.4207134303289
 20
13.22539887900278
 10
107.0436434862505
 20
13.18570371338148
 10
107.6646276475271
 20
13.15201095756413
 10
108.2833012137547
 20
13.1241136950502
 10
108.8992994845292
 20
13.1018050093391
 10
109.5122577594468
 20
13.08487798393025
 10
110.1218113381033
 20
13.07312570232318
 10
110.7275955200949
 20
13.06634124801729
 10
111.3292618839003
 20
13.06430166658464
 10
111.4791431068154
 20
13.06436060952904
 10
111.6313458838474
 20
13.06442877768074
 10
111.7114546663102
 20
13.06445749002313
 10
111.7962486808932
 20
13.06448278973482
 10
111.8872381547136
 20
13.06450480320956
 10
111.935528134812
 20
13.06451461710617
 10
111.9859333148885
 20
13.06452365684112
 10
112.0386424733329
 20
13.06453193821375
 10
112.0938443885347
 20
13.06453947702317
 10
112.1517278388837
 20
13.06454628906869
 10
112.2124816027692
 20
13.06455239014946
 10
112.2762944585811
 20
13.06455779606472
 10
112.343355184709
 20
13.0645625226137
 10
112.4138525595425
 20
13.06456658559563
 10
112.4879753614713
 20
13.06457000080968
 10
112.5659123688848
 20
13.06457278405509
 10
112.6478523601728
 20
13.06457495113102
 10
112.7339841137249
 20
13.06457651783683
 10
112.8244964079305
 20
13.06457749997156
 10
112.9195780211794
 20
13.06457791333457
 10
113.0194177318614
 20
13.06457777372498
 10
113.124204318366
 20
13.06457709694206
 10
113.2341265590828
 20
13.06457589878499
 10
113.3493732324013
 20
13.06457419505307
 10
113.4701331167114
 20
13.0645720015454
 10
113.5965949904025
 20
13.06456933406122
 10
113.728947631864
 20
13.06456620839981
 10
113.8673798194859
 20
13.06456264036035
 10
114.0120803316579
 20
13.06455864574207
 10
114.1632379467694
 20
13.06455424034413
 10
114.3210414432102
 20
13.06454943996579
 10
114.4856795993697
 20
13.06454426040631
 10
114.6573411936376
 20
13.06453871746481
 10
114.8362150044036
 20
13.06453282694059
 10
115.022489810057
 20
13.06452660463282
 10
115.2163543889876
 20
13.06452006634072
 10
115.4179975195855
 20
13.06451322786353
 10
115.6276079802399
 20
13.06450610500042
 10
115.7354599525851
 20
13.0645024418614
 10
115.8453745493405
 20
13.06449871355068
 10
115.9573753678048
 20
13.06449492204302
 10
116.0714860052768
 20
13.06449106931342
 10
116.1877300590552
 20
13.06448715733677
 10
116.3061311264386
 20
13.06448318808799
 10
116.4267128047257
 20
13.06447916354193
 10
116.5494986912154
 20
13.06447508567351
 10
116.6745123832062
 20
13.06447095645763
 10
116.8017774779964
 20
13.0644667778692
 10
116.9313175728853
 20
13.06446255188314
 10
117.0631562651718
 20
13.0644582804743
 10
117.1973171521542
 20
13.06445396561764
 10
117.3338238311314
 20
13.06444960928803
 10
117.4726998994019
 20
13.06444521346037
 10
117.6139689542645
 20
13.06444078010958
 10
117.7576545930179
 20
13.06443631121055
 10
117.9037804129608
 20
13.06443180873822
 10
118.0523700113919
 20
13.06442727466742
 10
118.2034469856099
 20
13.06442271097313
 10
118.3570349329135
 20
13.0644181196302
 10
118.5131574506014
 20
13.06441350261349
 10
118.6718381359722
 20
13.06440886189802
 10
118.8331005863248
 20
13.06440419945858
 10
118.9969683989579
 20
13.06439951727014
 10
119.1634651711695
 20
13.06439481730763
 10
119.3326145002589
 20
13.06439010154582
 10
119.5044399835253
 20
13.06438537195976
 10
119.678965218267
 20
13.06438063052423
 10
119.8562138017826
 20
13.06437587921425
 10
120.0362093313708
 20
13.06437112000464
 10
120.2189754043303
 20
13.06436635487029
 10
120.4045356179599
 20
13.06436158578617
 10
120.5929135695583
 20
13.06435681472715
  0
LWPOLYLINE
  5
47A
330
1F
100
AcDbEntity
  8
0
100
AcDbPolyline
 90
      516
 70
     0
 43
0.0
 10
40.59997599999983
 20
260.400471
 10
40.63687822580056
 20
258.819339781758
 10
40.67397077462821
 20
257.2382420112615
 10
40.71202330591392
 20
255.6572111362562
 10
40.75180547908865
 20
254.0762806044876
 10
40.79408695358345
 20
252.4954838637011
 10
40.83963738882942
 20
250.9148543616425
 10
40.8892264442576
 20
249.3344255460574
 10
40.94362377929892
 20
247.7542308646909
 10
41.00359905338462
 20
246.1743037652891
 10
41.06992192594559
 20
244.5946776955972
 10
41.143362056413
 20
243.0153861033609
 10
41.22468910421774
 20
241.4364624363258
 10
41.3146688668086
 20
239.8579404829935
 10
41.41385185801406
 20
238.2798730270861
 10
41.52246402416762
 20
236.7023414900415
 10
41.64070443142214
 20
235.1254296650292
 10
41.76877214593047
 20
233.5492213452186
 10
41.90686623384549
 20
231.973800323779
 10
42.05518576132014
 20
230.39925039388
 10
42.21392979450723
 20
228.8256553486911
 10
42.38329739955957
 20
227.2530989813817
 10
42.56348764263013
 20
225.6816650851211
 10
42.75469958987172
 20
224.1114374530789
 10
42.95713230743717
 20
222.5424998784244
 10
43.17098486147942
 20
220.9749361543272
 10
43.39646130432845
 20
219.4088355260402
 10
43.63383127733665
 20
217.8443589564514
 10
43.88341066392746
 20
216.2817179713608
 10
44.14551631551978
 20
214.7211251550129
 10
44.42046508353246
 20
213.1627930916522
 10
44.70857381938428
 20
211.606934365523
 10
45.01015937449406
 20
210.0537615608698
 10
45.32553860028076
 20
208.5034872619373
 10
45.65502834816309
 20
206.9563240529696
 10
45.99894546955993
 20
205.4124845182114
 10
46.35760681589014
 20
203.8721812419071
 10
46.73132923857246
 20
202.3356268083012
 10
47.12042958902582
 20
200.8030338016381
 10
47.52516102562018
 20
199.2745940672426
 10
47.94519740265394
 20
197.7503108248228
 10
48.37990338264284
 20
196.230086618995
 10
48.82864072857278
 20
194.7138230502672
 10
49.29077120342963
 20
193.2014217191476
 10
49.76565657019913
 20
191.6927842261444
 10
50.25265859186726
 20
190.1878121717657
 10
50.7511390314197
 20
188.6864071565198
 10
51.26045965184249
 20
187.1884707809147
 10
51.77998221612129
 20
185.6939046454586
 10
52.30906848724213
 20
184.2026103506596
 10
52.84708022819067
 20
182.7144894970262
 10
53.39337920195293
 20
181.2294436850661
 10
53.94733623221076
 20
179.7473762710663
 10
54.50860214592181
 20
178.2682448702493
 10
55.07715449154851
 20
176.7920704098158
 10
55.65298929169249
 20
175.3188773968787
 10
56.23610256895521
 20
173.8486903385508
 10
56.82649034593826
 20
172.381533741945
 10
57.42414864524329
 20
170.9174321141741
 10
58.02907348947172
 20
169.4564099623509
 10
58.64126090122521
 20
167.9984917935884
 10
59.26070690310528
 20
166.5437021149993
 10
59.88740751771352
 20
165.0920654336965
 10
60.52135876765145
 20
163.6436062567928
 10
61.16255667552064
 20
162.1983490914011
 10
61.81099726392273
 20
160.7563184446342
 10
62.46676710023898
 20
159.3175837166679
 10
63.13073328736384
 20
157.8826013054698
 10
63.80416164736804
 20
156.4520252982071
 10
64.48831795726777
 20
155.0265102960524
 10
65.18412044140177
 20
153.6065959941546
 10
65.89183541349576
 20
152.192606556432
 10
66.61165741165762
 20
150.7848424167294
 10
67.34340252032254
 20
149.3833824222645
 10
68.08331722982472
 20
147.9862154040387
 10
68.82568629594651
 20
146.5901815871026
 10
69.5647837134981
 20
145.1921147499901
 10
70.29922837676685
 20
143.7913261354404
 10
71.03884569490809
 20
142.3935169474776
 10
71.79524342577121
 20
141.0054046863863
 10
72.57927550798962
 20
139.6332613643846
 10
72.57927550798962
 20
139.6332613643846
 10
72.57927550798962
 20
139.6332613643846
 42
-0.1322714158359808
 10
79.39997599999985
 20
114.3834534330824
 10
79.39997599999985
 20
75.90230162926622
 10
79.39997599999985
 20
75.57275557420254
 10
79.39997599999985
 20
75.24550651826612
 10
79.39997599999985
 20
74.92054337632658
 10
79.39997599999985
 20
74.59785506325356
 10
79.39997599999985
 20
74.27743049391665
 10
79.39997599999985
 20
73.95925858318548
 10
79.39997599999985
 20
73.6433282459297
 10
79.39997599999985
 20
73.32962839701886
 10
79.39997599999985
 20
73.01814795132266
 10
79.39997599999985
 20
72.70887582371063
 10
79.39997599999985
 20
72.40180092905244
 10
79.39997599999985
 20
72.09691218221768
 10
79.39997599999985
 20
71.79419849807598
 10
79.39997599999985
 20
71.49364879149698
 10
79.39997599999985
 20
71.19525197735026
 10
79.39997599999985
 20
70.89899697050547
 10
79.39997599999985
 20
70.60487268583219
 10
79.39997599999985
 20
70.31286803820006
 10
79.39997599999985
 20
70.02297194247872
 10
79.39997599999985
 20
69.73517331353775
 10
79.39997599999985
 20
69.44946106624678
 10
79.39997599999985
 20
69.16582411547546
 10
79.39997599999985
 20
68.88425137609335
 10
79.39997599999985
 20
68.60473176297009
 10
79.39997599999985
 20
68.32725419097528
 10
79.39997599999985
 20
68.0518075749786
 10
79.39997599999985
 20
67.77838082984961
 10
79.39997599999985
 20
67.50696287045792
 10
79.39997599999985
 20
67.23754261167323
 10
79.39997599999985
 20
66.97010896836502
 10
79.39997599999985
 20
66.70465085540303
 10
79.39997599999985
 20
66.44115718765684
 10
79.39997599999985
 20
66.17961687999605
 10
79.39997599999985
 20
65.92001884729029
 10
79.39997599999985
 20
65.66235200440917
 10
79.39997599999985
 20
65.4066052662223
 10
79.39997599999985
 20
65.15276754759931
 10
79.39997599999985
 20
64.90082776340982
 10
79.39997599999985
 20
64.65077482852347
 10
79.39997599999985
 20
64.40259765780985
 10
79.39997599999985
 20
64.15628516613856
 10
79.39997599999985
 20
63.91182626837923
 10
79.39997599999985
 20
63.66920987940146
 10
79.39997599999985
 20
63.42842491407495
 10
79.39997599999985
 20
63.18946028726924
 10
79.39997599999985
 20
62.95230491385392
 10
79.39997599999985
 20
62.71694770869871
 10
79.39997599999985
 20
62.48337758667315
 10
79.39997599999985
 20
62.25158346264689
 10
79.39997599999985
 20
62.02155425148953
 10
79.39997599999985
 20
61.79327886807067
 10
79.39997599999985
 20
61.56674622725994
 10
79.39997599999985
 20
61.34194524392703
 10
79.39997599999985
 20
61.11886483294146
 10
79.39997599999985
 20
60.89749390917288
 10
79.39997599999985
 20
60.67782138749089
 10
79.39997599999985
 20
60.45983618276515
 10
79.39997599999985
 20
60.24352720986525
 10
79.39997599999985
 20
60.02888338366084
 10
79.39997599999985
 20
59.81589361902146
 10
79.39997599999985
 20
59.60454683081678
 10
79.39997599999985
 20
59.39483193391646
 10
79.39997599999985
 20
59.18673784319003
 10
79.39997599999985
 20
58.98025347350714
 10
79.39997599999985
 20
58.77536773973748
 10
79.39997599999985
 20
58.370347839416
 10
79.39997599999985
 20
57.97158946118265
 10
79.39997599999985
 20
57.57900392399429
 10
79.39997599999985
 20
57.19250254680787
 10
79.39997599999985
 20
56.81199664858036
 10
79.39997599999985
 20
56.43739754826867
 10
79.39997599999985
 20
56.06861656482976
 10
79.39997599999985
 20
55.70556501722053
 10
79.39997599999985
 20
55.34815422439796
 10
79.39997599999985
 20
54.99629550531897
 10
79.39997599999985
 20
54.64990017894052
 10
79.39997599999985
 20
54.30887956421952
 10
79.39997599999985
 20
53.97314498011294
 10
79.39997599999985
 20
53.64260774557767
 10
79.39997599999985
 20
53.31717917957067
 10
79.39997599999985
 20
52.99677060104889
 10
79.39997599999985
 20
52.68129332896926
 10
79.39997599999985
 20
52.37065868228876
 10
79.39997599999985
 20
52.06477797996431
 10
79.39997599999985
 20
51.76356254095279
 10
79.39997599999985
 20
51.4669236842112
 10
79.39997599999985
 20
51.17477272869646
 10
79.39997599999985
 20
50.88702099336552
 10
79.39997599999985
 20
50.60357979717531
 10
79.39997599999985
 20
50.32436045908275
 10
79.39997599999985
 20
50.04927429804482
 10
79.39997599999985
 20
49.77823263301843
 10
79.39997599999985
 20
49.5111467829605
 10
79.39997599999985
 20
49.24792806682802
 10
79.39997599999985
 20
48.98848780357791
 10
79.39997599999985
 20
48.7327373121671
 10
79.39997599999985
 20
48.48058791155249
 10
79.39997599999985
 20
48.23195092069114
 10
79.39997599999985
 20
47.98673765853985
 10
79.39997599999985
 20
47.74485944405563
 10
79.39997599999985
 20
47.50622759619543
 10
79.39997599999985
 20
47.27075343391613
 10
79.39997599999985
 20
47.03834827617474
 10
79.39997599999985
 20
46.80892344192815
 10
79.39997599999985
 20
46.58239025013332
 10
79.39997599999985
 20
46.35866001974719
 10
79.39997599999985
 20
46.13764406972665
 10
79.39997599999985
 20
45.91925371902873
 10
79.39997599999985
 20
45.70340028661028
 10
79.39997599999985
 20
45.48999509142833
 10
79.39997599999985
 20
45.27894945243974
 10
79.39997599999985
 20
45.07017468860146
 10
79.39997599999985
 20
44.86358211887046
 10
79.39997599999985
 20
44.65908306220367
 10
79.39997599999985
 20
44.45658883755803
 10
79.39997599999985
 20
44.25601076389045
 10
79.39997599999985
 20
44.05726016015793
 10
79.39997599999985
 20
43.86024834531736
 10
79.39997599999985
 20
43.4710863581398
 10
79.39997599999985
 20
43.08781535401339
 10
79.39997599999985
 20
42.70972588459364
 10
79.39997599999985
 20
42.33610850153596
 10
79.39997599999985
 20
41.96625375649595
 10
79.39997599999985
 20
41.59945220112911
 10
79.39997599999985
 20
41.23499438709091
 10
79.39997599999985
 20
40.87217086603696
 10
79.39997599999985
 20
40.51027218962263
 10
79.39997599999985
 20
40.41985888901614
 10
79.39997599999985
 20
40.40855762091459
 10
79.39997599999985
 20
40.40290699402658
 10
79.39997599999985
 20
40.4014943375926
 10
79.39997599999985
 20
40.40078800938977
 10
79.39997599999985
 20
40.40061142733956
 10
79.39997599999985
 20
40.40052313631457
 10
79.39997599999985
 20
40.400478990802
 10
79.39998431829062
 20
40.39802526593724
 10
79.40006595956401
 20
40.37415140297593
 10
79.40074439570647
 20
40.18422898810507
 10
79.40146789991779
 20
39.99619779179875
 10
79.40223658472091
 20
39.81004607224804
 10
79.40305056263878
 20
39.62576208764415
 10
79.40390994619431
 20
39.4433340961785
 10
79.40481484791051
 20
39.26275035604181
 10
79.40576538031027
 20
39.08399912542506
 10
79.40676165591653
 20
38.90706866251969
 10
79.40780378725221
 20
38.73194722551671
 10
79.40889188684031
 20
38.55862307260725
 10
79.41002606720373
 20
38.38708446198257
 10
79.41120644086544
 20
38.21731965183369
 10
79.41243312034834
 20
38.04931690035198
 10
79.41370621817542
 20
37.88306446572835
 10
79.4150258468696
 20
37.71855060615378
 10
79.41639211895379
 20
37.55576357981944
 10
79.41780514695095
 20
37.39469164491663
 10
79.41926504338407
 20
37.23532305963642
 10
79.42077192077602
 20
37.07764608217019
 10
79.42232589164976
 20
36.92164897070882
 10
79.42392706852825
 20
36.7673199834432
 10
79.42557556393444
 20
36.61464737856466
 10
79.42727149039126
 20
36.46361941426443
 10
79.42901496042162
 20
36.31422434873355
 10
79.43080608654851
 20
36.16645044016343
 10
79.43264498129483
 20
36.02028594674493
 10
79.43453175718353
 20
35.87571912666897
 10
79.43844940247988
 20
35.59133153930986
 10
79.44255992262104
 20
35.31319374361557
 10
79.44686421779059
 20
35.04121180511499
 10
79.45136318817204
 20
34.77529178933686
 10
79.45605773394888
 20
34.51533976181064
 10
79.46094875530469
 20
34.26126178806522
 10
79.46603715242298
 20
34.01296393362935
 10
79.4713238254873
 20
33.77035226403234
 10
79.47680967468113
 20
33.5333328448034
 10
79.48249560018801
 20
33.30181174147134
 10
79.48838250219148
 20
33.07569501956506
 10
79.49447128087506
 20
32.85488874461373
 10
79.50076283642231
 20
32.63929898214661
 10
79.5072580690167
 20
32.42883179769251
 10
79.51395787884185
 20
32.2233932567803
 10
79.52086316608116
 20
32.0228894249392
 10
79.52797483091824
 20
31.82722636769842
 10
79.53529377353662
 20
31.63631015058684
 10
79.5428208941198
 20
31.45004683913328
 10
79.55055709285132
 20
31.26834249886702
 10
79.55850326991471
 20
31.09110319531715
 10
79.56666032549347
 20
30.91823499401267
 10
79.57502915977116
 20
30.74964396048233
 10
79.58361067293131
 20
30.58523616025543
 10
79.59240576515743
 20
30.42491765886103
 10
79.60141533663303
 20
30.26859452182816
 10
79.61064028754169
 20
30.11617281468563
 10
79.62008151806687
 20
29.96755860296259
 10
79.62973992839216
 20
29.82265795218831
 10
79.63961641870106
 20
29.68137692789156
 10
79.6497118891771
 20
29.54362159560139
 10
79.66002724000381
 20
29.40929802084685
 10
79.67056337136473
 20
29.27831226915714
 10
79.68132118344334
 20
29.15057040606115
 10
79.69230157642325
 20
29.02597849708786
 10
79.70350545048791
 20
28.90444260776638
 10
79.71493370582087
 20
28.78586880362582
 10
79.72658724260566
 20
28.67016315019515
 10
79.73846696102585
 20
28.55723171300332
 10
79.7505737612649
 20
28.44698055757942
 10
79.76290854350637
 20
28.33931574945263
 10
79.77547220793377
 20
28.2341433541518
 10
79.78826565473069
 20
28.13136943720598
 10
79.80128978408053
 20
28.03090006414425
 10
79.81454549616696
 20
27.93264130049568
 10
79.82803369117345
 20
27.83649921178932
 10
79.84175526928348
 20
27.74237986355405
 10
79.85571113068063
 20
27.65018932131904
 10
79.86990217554842
 20
27.55983365061337
 10
79.88432930407039
 20
27.471218916966
 10
79.89899341643006
 20
27.38425118590584
 10
79.92903619339656
 20
27.21488099366383
 10
79.96003770791617
 20
27.05097159811953
 10
79.99200516145709
 20
26.89177152350527
 10
80.02494575548757
 20
26.73652929405335
 10
80.05886669147582
 20
26.5844934339961
 10
80.09377517089005
 20
26.43491246756564
 10
80.16658356586932
 20
26.14010931251454
 10
80.24351968704925
 20
25.8470858833312
 10
80.32514046816503
 20
25.55518800749576
 10
80.41211707728635
 20
25.26498722600445
 10
80.45782355907853
 20
25.12070187052223
 10
80.50512068794743
 20
24.97705513848718
 10
80.55409236058487
 20
24.83411847985309
 10
80.60482247368259
 20
24.69196334457365
 10
80.65739492393237
 20
24.55066118260265
 10
80.71189360802604
 20
24.41028344389378
 10
80.7684024226553
 20
24.27090157840075
 10
80.82700526451203
 20
24.13258703607733
 10
80.88778603028798
 20
23.99541126687717
 10
80.95082861667483
 20
23.85944572075408
 10
81.0162169203645
 20
23.72476184766174
 10
81.0840348380487
 20
23.59143109755394
 10
81.15436626641928
 20
23.4595249203843
 10
81.22729510216791
 20
23.32911476610661
 10
81.30290524198645
 20
23.20027208467462
 10
81.38128058256667
 20
23.07306832604201
 10
81.46246976951356
 20
22.94755558414357
 10
81.54635398012118
 20
22.82369399774041
 10
81.63276471209
 20
22.70141642702601
 10
81.72153345523678
 20
22.58065572786506
 10
81.81249169937826
 20
22.46134475612206
 10
81.90547093433119
 20
22.34341636766169
 10
82.00030264991228
 20
22.22680341834859
 10
82.09681833593839
 20
22.11143876404731
 10
82.19484948222619
 20
21.99725526062247
 10
82.29422757859238
 20
21.88418576393872
 10
82.49635058082729
 20
21.66112021425272
 10
82.70196907720318
 20
21.44175592064261
 10
82.91070336460562
 20
21.22593586288332
 10
83.1225070072856
 20
21.01363384345547
 10
83.33733441769259
 20
20.80482399779646
 10
83.55514000827611
 20
20.59948046134383
 10
83.77587819148564
 20
20.39757736953487
 10
83.9995033797707
 20
20.19908885780711
 10
84.22596998558082
 20
20.00398906159796
 10
84.45523242136539
 20
19.81225211634484
 10
84.68724509957405
 20
19.62385215748514
 10
84.92196243265622
 20
19.43876332045636
 10
85.15933883306145
 20
19.25695974069589
 10
85.39932871323925
 20
19.07841555364121
 10
85.64188648563904
 20
18.90310489472966
 10
85.88696656271036
 20
18.73100189939879
 10
86.13452335690277
 20
18.56208070308588
 10
86.38451128066574
 20
18.39631544122847
 10
86.63688474644876
 20
18.23368024926395
 10
86.89159816670136
 20
18.07414926262976
 10
87.148605953873
 20
17.91769661676335
 10
87.40786252041322
 20
17.76429644710207
 10
87.66932227877147
 20
17.61392288908348
 10
87.93293964139738
 20
17.4665500781449
 10
88.1986690207403
 20
17.32215214972382
 10
88.46646482924981
 20
17.18070323925758
 10
88.73628147937536
 20
17.04217748218377
 10
89.00807338356647
 20
16.90654901393975
 10
89.2817949542727
 20
16.77379196996287
 10
89.55740060394353
 20
16.6438804856906
 10
89.83484474502848
 20
16.51678869656041
 10
90.11408178997699
 20
16.39249073800971
 10
90.3950661512386
 20
16.27096074547592
 10
90.67775224126284
 20
16.1521728543965
 10
90.96209447249917
 20
16.03610120020886
 10
91.24804725739705
 20
15.92271991835042
 10
91.53556500840613
 20
15.81200314425865
 10
91.82460213797574
 20
15.7039250133709
 10
92.11511305855541
 20
15.59845966112471
 10
92.40705218259472
 20
15.49558122295741
 10
92.70037392254321
 20
15.39526383430649
 10
92.99503269085031
 20
15.29748163060935
 10
93.29098289996556
 20
15.20220874730341
 10
93.58817896233835
 20
15.10941931982614
 10
93.88657529041836
 20
15.01908748361495
 10
94.18612629665494
 20
14.93118737410725
 10
94.4867863934977
 20
14.84569312674051
 10
94.78850999339613
 20
14.76257887695215
 10
95.09125150879958
 20
14.68181876017957
 10
95.3949653521578
 20
14.60338691186024
 10
95.69960593592005
 20
14.52725746743158
 10
96.00512767253595
 20
14.453404562331
 10
96.31148497445508
 20
14.38180233199591
 10
96.6186322541268
 20
14.31242491186378
 10
96.92652392400074
 20
14.24524643737203
 10
97.23511439652634
 20
14.18024104395812
 10
97.54435808415308
 20
14.11738286705946
 10
97.85420939933048
 20
14.05664604211341
 10
98.16462275450806
 20
13.9980047045575
 10
98.47555256213532
 20
13.94143298982914
 10
98.78695323466171
 20
13.88690503336573
 10
99.09877918453682
 20
13.8343949706047
 10
99.41098482421004
 20
13.78387693698346
 10
99.72352456613094
 20
13.73532506793953
 10
100.036352822749
 20
13.68871349891026
 10
100.3494240065138
 20
13.64401636533307
 10
100.6626925298749
 20
13.60120780264549
 10
100.9761128052816
 20
13.56026194628481
 10
101.2896392451835
 20
13.52115293168856
 10
101.6032262620301
 20
13.48385489429415
 10
101.9168282682709
 20
13.448341969539
 10
102.2303996763554
 20
13.41458829286057
 10
102.5438948987331
 20
13.38256799969622
 10
102.8572683478536
 20
13.35225522548342
 10
103.1704744361662
 20
13.32362410565963
 10
103.4834675761205
 20
13.29664877566222
 10
103.7962021801661
 20
13.27130337092865
 10
104.1086326607524
 20
13.24756202689639
 10
104.4207134303289
 20
13.22539887900278
 10
104.732398901345
 20
13.20478806268539
 10
105.0436434862505
 20
13.18570371338148
 10
105.6646276475271
 20
13.15201095756413
 10
106.2833012137547
 20
13.1241136950502
 10
106.8992994845292
 20
13.1018050093391
 10
107.5122577594467
 20
13.08487798393025
 10
108.1218113381033
 20
13.07312570232318
 10
108.7275955200949
 20
13.06634124801729
 10
109.3292618839003
 20
13.06430166658464
 10
109.4791431799619
 20
13.06436060952904
 10
109.5545096971444
 20
13.06439652631394
 10
109.6320249903351
 20
13.06442877768074
 10
109.7136393199554
 20
13.06445749002313
 10
109.7565930798083
 20
13.06447055855818
 10
109.8013029464264
 20
13.06448278973482
 10
109.8480127023627
 20
13.06449419935222
 10
109.8969661301697
 20
13.06450480320956
 10
109.9484070124
 20
13.06451461710617
 10
110.0025791316064
 20
13.06452365684112
 10
110.0597262703416
 20
13.06453193821375
 10
110.1200922111581
 20
13.06453947702317
 10
110.1839207366086
 20
13.06454628906869
 10
110.2514556292456
 20
13.06455239014946
 10
110.3229406716221
 20
13.06455779606472
 10
110.3986196462907
 20
13.0645625226137
 10
110.4787363358039
 20
13.06456658559563
 10
110.5635345227146
 20
13.06457000080968
 10
110.6532579895752
 20
13.06457278405509
 10
110.7481505189386
 20
13.06457495113102
 10
110.8484558933573
 20
13.06457651783683
 10
110.9544178953838
 20
13.06457749997156
 10
111.0662803075709
 20
13.06457791333457
 10
111.1842869124717
 20
13.06457777372498
 10
111.2456704692372
 20
13.06457750149275
 10
111.3086814926384
 20
13.06457709694206
 10
111.3733504554942
 20
13.06457656204787
 10
111.4397078306238
 20
13.06457589878499
 10
111.5077840908462
 20
13.06457510912844
 10
111.5776097089805
 20
13.06457419505307
 10
111.6492151578458
 20
13.06457315853373
 10
111.7226309102612
 20
13.0645720015454
 10
111.7978874390458
 20
13.06457072606292
 10
111.8750152170187
 20
13.06456933406122
 10
111.9540447169988
 20
13.06456782751524
 10
112.0350064118051
 20
13.06456620839981
 10
112.117930774257
 20
13.06456447868987
 10
112.2028482771736
 20
13.06456264036035
 10
112.2897893933739
 20
13.06456069538609
 10
112.378784595677
 20
13.06455864574207
 10
112.4698643569019
 20
13.06455649340307
 10
112.5630591498677
 20
13.06455424034413
 10
112.6583994473935
 20
13.06455188854005
 10
112.7559157222984
 20
13.06454943996579
 10
112.8556384474014
 20
13.06454689659625
 10
112.9575980955218
 20
13.06454426040631
 10
113.0618251394784
 20
13.06454153337085
 10
113.1683500520904
 20
13.06453871746481
 10
113.277203306177
 20
13.06453581466309
 10
113.3884153745571
 20
13.06453282694059
 10
113.5020167300499
 20
13.06452975627218
 10
113.6180378454741
 20
13.06452660463282
 10
113.7365091936491
 20
13.06452337399736
 10
113.8574612473944
 20
13.06452006634072
 10
113.9809244795286
 20
13.0645166836378
 10
114.106929362871
 20
13.06451322786353
 10
114.2355063702405
 20
13.06450970099274
 10
114.3666859744562
 20
13.06450610500042
 10
114.5004986483373
 20
13.0645024418614
 10
114.6369748647028
 20
13.06449871355068
 10
114.7761450963718
 20
13.06449492204302
 10
114.9180398161633
 20
13.06449106931342
 10
115.0626894968966
 20
13.06448715733677
 10
115.2101246113905
 20
13.06448318808799
 10
115.3603756324643
 20
13.06447916354193
 10
115.513473032937
 20
13.06447508567351
 10
115.6694472856277
 20
13.06447095645763
 10
115.828328863355
 20
13.0644667778692
 10
115.9901482389384
 20
13.06446255188314
 10
116.1549358851976
 20
13.0644582804743
 10
116.3227222749511
 20
13.06445396561764
 10
116.493537881018
 20
13.06444960928803
 10
116.6674131762174
 20
13.06444521346037
 10
116.8443786333683
 20
13.06444078010958
 10
117.0244647252899
 20
13.06443631121055
 10
117.2077019248013
 20
13.06443180873822
 10
117.3941207047215
 20
13.06442727466742
 10
117.5837515378696
 20
13.06442271097313
 10
117.7766248970647
 20
13.0644181196302
 10
117.9727712551258
 20
13.06441350261349
 10
118.1722210848721
 20
13.06440886189802
 10
118.3750048591227
 20
13.06440419945858
 10
118.5811530506966
 20
13.06439951727014
 10
118.7906961324122
 20
13.06439481730763
 10
119.0036645770893
 20
13.06439010154582
 10
119.2200888575476
 20
13.06438537195976
 10
119.4399994466056
 20
13.06438063052423
 10
119.6634268170823
 20
13.06437587921425
 10
119.8904014417969
 20
13.06437112000464
 10
120.1209537935683
 20
13.06436635487029
 10
120.3551143452158
 20
13.06436158578617
 10
120.5929135695583
 20
13.06435681472715
  0
LWPOLYLINE
  5
47B
330
1F
100
AcDbEntity
  8
0
100
AcDbPolyline
 90
      573
 70
     0
 43
0.0
 10
40.59997599999983
 20
260.400471
 10
40.63687822580056
 20
258.819339781758
 10
40.67397077462821
 20
257.2382420112615
 10
40.71202330591392
 20
255.6572111362562
 10
40.75180547908865
 20
254.0762806044876
 10
40.79408695358345
 20
252.4954838637011
 10
40.83963738882942
 20
250.9148543616425
 10
40.8892264442576
 20
249.3344255460574
 10
40.94362377929892
 20
247.7542308646909
 10
41.00359905338462
 20
246.1743037652891
 10
41.06992192594559
 20
244.5946776955972
 10
41.143362056413
 20
243.0153861033609
 10
41.22468910421774
 20
241.4364624363258
 10
41.3146688668086
 20
239.8579404829935
 10
41.41385185801406
 20
238.2798730270861
 10
41.52246402416762
 20
236.7023414900415
 10
41.64070443142214
 20
235.1254296650292
 10
41.76877214593047
 20
233.5492213452186
 10
41.90686623384549
 20
231.973800323779
 10
42.05518576132014
 20
230.39925039388
 10
42.21392979450723
 20
228.8256553486911
 10
42.38329739955957
 20
227.2530989813817
 10
42.56348764263013
 20
225.6816650851211
 10
42.75469958987172
 20
224.1114374530789
 10
42.95713230743717
 20
222.5424998784244
 10
43.17098486147942
 20
220.9749361543272
 10
43.39646130432845
 20
219.4088355260402
 10
43.63383127733665
 20
217.8443589564514
 10
43.88341066392746
 20
216.2817179713608
 10
44.14551631551978
 20
214.7211251550129
 10
44.42046508353246
 20
213.1627930916522
 10
44.70857381938428
 20
211.606934365523
 10
45.01015937449406
 20
210.0537615608698
 10
45.32553860028076
 20
208.5034872619373
 10
45.65502834816309
 20
206.9563240529696
 10
45.99894546955993
 20
205.4124845182114
 10
46.35760681589014
 20
203.8721812419071
 10
46.73132923857246
 20
202.3356268083012
 10
47.12042958902582
 20
200.8030338016381
 10
47.52516102562018
 20
199.2745940672426
 10
47.94519740265394
 20
197.7503108248228
 10
48.37990338264284
 20
196.230086618995
 10
48.82864072857278
 20
194.7138230502672
 10
49.29077120342963
 20
193.2014217191476
 10
49.76565657019913
 20
191.6927842261444
 10
50.25265859186726
 20
190.1878121717657
 10
50.7511390314197
 20
188.6864071565198
 10
51.26045965184249
 20
187.1884707809147
 10
51.77998221612129
 20
185.6939046454586
 10
52.30906848724213
 20
184.2026103506596
 10
52.84708022819067
 20
182.7144894970262
 10
53.39337920195293
 20
181.2294436850661
 10
53.94733623221076
 20
179.7473762710663
 10
54.50860214592181
 20
178.2682448702493
 10
55.07715449154851
 20
176.7920704098158
 10
55.65298929169249
 20
175.3188773968787
 10
56.23610256895521
 20
173.8486903385508
 10
56.82649034593826
 20
172.381533741945
 10
57.42414864524329
 20
170.9174321141741
 10
58.02907348947172
 20
169.4564099623509
 10
58.64126090122521
 20
167.9984917935884
 10
59.26070690310528
 20
166.5437021149993
 10
59.88740751771352
 20
165.0920654336965
 10
60.52135876765145
 20
163.6436062567928
 10
61.16255667552064
 20
162.1983490914011
 10
61.81099726392273
 20
160.7563184446342
 10
62.46676710023898
 20
159.3175837166679
 10
63.13073328736384
 20
157.8826013054698
 10
63.80416164736804
 20
156.4520252982071
 10
64.48831795726777
 20
155.0265102960524
 10
65.18412044140177
 20
153.6065959941546
 10
65.89183541349576
 20
152.192606556432
 10
66.61165741165762
 20
150.7848424167294
 10
67.34340252032254
 20
149.3833824222645
 10
68.08331722982472
 20
147.9862154040387
 10
68.82568629594651
 20
146.5901815871026
 10
69.5647837134981
 20
145.1921147499901
 10
70.29922837676685
 20
143.7913261354404
 10
71.39459133857737
 20
141.7211901683422
 42
-0.1222729648131927
 10
77.19997599999985
 20
118.3366659038812
 10
77.19997599999985
 20
78.2743711412278
 10
77.19997599999985
 20
77.92843570862249
 10
77.19997599999985
 20
77.58487487105714
 10
77.19997599999985
 20
77.24367754340136
 10
77.19997599999985
 20
76.90483264052473
 10
77.19997599999985
 20
76.56832907729693
 10
77.19997599999985
 20
76.23415576858758
 10
77.19997599999985
 20
75.90230162926622
 10
77.19997599999985
 20
75.57275557420254
 10
77.19997599999985
 20
75.24550651826612
 10
77.19997599999985
 20
74.92054337632658
 10
77.19997599999985
 20
74.59785506325356
 10
77.19997599999985
 20
74.27743049391665
 10
77.19997599999985
 20
73.95925858318548
 10
77.19997599999985
 20
73.6433282459297
 10
77.19997599999985
 20
73.32962839701886
 10
77.19997599999985
 20
73.01814795132266
 10
77.19997599999985
 20
72.70887582371063
 10
77.19997599999985
 20
72.40180092905244
 10
77.19997599999985
 20
72.09691218221768
 10
77.19997599999985
 20
71.79419849807598
 10
77.19997599999985
 20
71.49364879149698
 10
77.19997599999985
 20
71.19525197735026
 10
77.19997599999985
 20
70.89899697050547
 10
77.19997599999985
 20
70.60487268583219
 10
77.19997599999985
 20
70.31286803820006
 10
77.19997599999985
 20
70.02297194247872
 10
77.19997599999985
 20
69.73517331353775
 10
77.19997599999985
 20
69.44946106624678
 10
77.19997599999985
 20
69.16582411547546
 10
77.19997599999985
 20
68.88425137609335
 10
77.19997599999985
 20
68.60473176297009
 10
77.19997599999985
 20
68.32725419097528
 10
77.19997599999985
 20
68.0518075749786
 10
77.19997599999985
 20
67.77838082984961
 10
77.19997599999985
 20
67.50696287045792
 10
77.19997599999985
 20
67.23754261167323
 10
77.19997599999985
 20
66.97010896836502
 10
77.19997599999985
 20
66.70465085540303
 10
77.19997599999985
 20
66.44115718765684
 10
77.19997599999985
 20
66.17961687999605
 10
77.19997599999985
 20
65.92001884729029
 10
77.19997599999985
 20
65.66235200440917
 10
77.19997599999985
 20
65.4066052662223
 10
77.19997599999985
 20
65.15276754759931
 10
77.19997599999985
 20
64.90082776340982
 10
77.19997599999985
 20
64.65077482852347
 10
77.19997599999985
 20
64.40259765780985
 10
77.19997599999985
 20
64.15628516613856
 10
77.19997599999985
 20
63.91182626837923
 10
77.19997599999985
 20
63.66920987940146
 10
77.19997599999985
 20
63.42842491407495
 10
77.19997599999985
 20
63.18946028726924
 10
77.19997599999985
 20
62.95230491385392
 10
77.19997599999985
 20
62.71694770869871
 10
77.19997599999985
 20
62.48337758667315
 10
77.19997599999985
 20
62.25158346264689
 10
77.19997599999985
 20
62.02155425148953
 10
77.19997599999985
 20
61.79327886807067
 10
77.19997599999985
 20
61.56674622725994
 10
77.19997599999985
 20
61.34194524392703
 10
77.19997599999985
 20
61.11886483294146
 10
77.19997599999985
 20
60.89749390917288
 10
77.19997599999985
 20
60.67782138749089
 10
77.19997599999985
 20
60.45983618276515
 10
77.19997599999985
 20
60.24352720986525
 10
77.19997599999985
 20
60.02888338366084
 10
77.19997599999985
 20
59.81589361902146
 10
77.19997599999985
 20
59.60454683081678
 10
77.19997599999985
 20
59.39483193391646
 10
77.19997599999985
 20
59.18673784319003
 10
77.19997599999985
 20
58.98025347350714
 10
77.19997599999985
 20
58.77536773973748
 10
77.19997599999985
 20
58.57206955675053
 10
77.19997599999985
 20
58.370347839416
 10
77.19997599999985
 20
58.17019150260353
 10
77.19997599999985
 20
57.97158946118265
 10
77.19997599999985
 20
57.77453063002305
 10
77.19997599999985
 20
57.57900392399429
 10
77.19997599999985
 20
57.38499825796603
 10
77.19997599999985
 20
57.19250254680787
 10
77.19997599999985
 20
57.00150570538946
 10
77.19997599999985
 20
56.81199664858036
 10
77.19997599999985
 20
56.62396429125021
 10
77.19997599999985
 20
56.43739754826867
 10
77.19997599999985
 20
56.2522853345053
 10
77.19997599999985
 20
56.06861656482976
 10
77.19997599999985
 20
55.88638015411163
 10
77.19997599999985
 20
55.70556501722053
 10
77.19997599999985
 20
55.5261600690261
 10
77.19997599999985
 20
55.34815422439796
 10
77.19997599999985
 20
55.17153639820572
 10
77.19997599999985
 20
54.99629550531897
 10
77.19997599999985
 20
54.82242046060735
 10
77.19997599999985
 20
54.64990017894052
 10
77.19997599999985
 20
54.478723575188
 10
77.19997599999985
 20
54.30887956421952
 10
77.19997599999985
 20
54.1403570609046
 10
77.19997599999985
 20
53.97314498011294
 10
77.19997599999985
 20
53.80723223671402
 10
77.19997599999985
 20
53.64260774557767
 10
77.19997599999985
 20
53.31717917957067
 10
77.19997599999985
 20
52.99677060104889
 10
77.19997599999985
 20
52.68129332896926
 10
77.19997599999985
 20
52.37065868228876
 10
77.19997599999985
 20
52.06477797996431
 10
77.19997599999985
 20
51.76356254095279
 10
77.19997599999985
 20
51.4669236842112
 10
77.19997599999985
 20
51.17477272869646
 10
77.19997599999985
 20
50.88702099336552
 10
77.19997599999985
 20
50.60357979717531
 10
77.19997599999985
 20
50.32436045908275
 10
77.19997599999985
 20
50.04927429804482
 10
77.19997599999985
 20
49.77823263301843
 10
77.19997599999985
 20
49.5111467829605
 10
77.19997599999985
 20
49.24792806682802
 10
77.19997599999985
 20
48.98848780357791
 10
77.19997599999985
 20
48.7327373121671
 10
77.19997599999985
 20
48.48058791155249
 10
77.19997599999985
 20
48.23195092069114
 10
77.19997599999985
 20
47.98673765853985
 10
77.19997599999985
 20
47.74485944405563
 10
77.19997599999985
 20
47.50622759619543
 10
77.19997599999985
 20
47.27075343391613
 10
77.19997599999985
 20
47.03834827617474
 10
77.19997599999985
 20
46.80892344192815
 10
77.19997599999985
 20
46.58239025013332
 10
77.19997599999985
 20
46.35866001974719
 10
77.19997599999985
 20
46.13764406972665
 10
77.19997599999985
 20
45.91925371902873
 10
77.19997599999985
 20
45.70340028661028
 10
77.19997599999985
 20
45.48999509142833
 10
77.19997599999985
 20
45.27894945243974
 10
77.19997599999985
 20
45.07017468860146
 10
77.19997599999985
 20
44.86358211887046
 10
77.19997599999985
 20
44.65908306220367
 10
77.19997599999985
 20
44.45658883755803
 10
77.19997599999985
 20
44.25601076389045
 10
77.19997599999985
 20
44.05726016015793
 10
77.19997599999985
 20
43.86024834531736
 10
77.19997599999985
 20
43.66488663832564
 10
77.19997599999985
 20
43.4710863581398
 10
77.19997599999985
 20
43.27875882371677
 10
77.19997599999985
 20
43.08781535401339
 10
77.19997599999985
 20
42.70972588459364
 10
77.19997599999985
 20
42.33610850153596
 10
77.19997599999985
 20
41.96625375649595
 10
77.19997599999985
 20
41.59945220112911
 10
77.19997599999985
 20
41.23499438709091
 10
77.19997599999985
 20
40.87217086603696
 10
77.19997599999985
 20
40.51027218962263
 10
77.19997599999985
 20
40.41985888901614
 10
77.19997599999985
 20
40.40855762091459
 10
77.19997599999985
 20
40.40290699402658
 10
77.19997599999985
 20
40.4014943375926
 10
77.19997599999985
 20
40.40078800938977
 10
77.19997599999985
 20
40.40061142733956
 10
77.19997599999985
 20
40.40052313631457
 10
77.19997599999985
 20
40.400478990802
 10
77.19998431829059
 20
40.39802526593724
 10
77.20006595956397
 20
40.37415140297593
 10
77.20074439570644
 20
40.18422898810507
 10
77.20146789991776
 20
39.99619779179875
 10
77.2022365847209
 20
39.81004607224804
 10
77.20305056263876
 20
39.62576208764415
 10
77.20390994619432
 20
39.4433340961785
 10
77.20481484791051
 20
39.26275035604181
 10
77.20576538031022
 20
39.08399912542506
 10
77.20676165591648
 20
38.90706866251969
 10
77.20780378725219
 20
38.73194722551671
 10
77.20889188684028
 20
38.55862307260725
 10
77.21002606720372
 20
38.38708446198257
 10
77.21120644086544
 20
38.21731965183369
 10
77.21243312034833
 20
38.04931690035198
 10
77.2137062181754
 20
37.88306446572835
 10
77.21502584686958
 20
37.71855060615378
 10
77.21639211895378
 20
37.55576357981944
 10
77.21780514695095
 20
37.39469164491663
 10
77.21926504338404
 20
37.23532305963642
 10
77.220771920776
 20
37.07764608217019
 10
77.22232589164976
 20
36.92164897070882
 10
77.22392706852826
 20
36.7673199834432
 10
77.22557556393446
 20
36.61464737856466
 10
77.22727149039123
 20
36.46361941426443
 10
77.22901496042162
 20
36.31422434873355
 10
77.23080608654848
 20
36.16645044016343
 10
77.23264498129481
 20
36.02028594674493
 10
77.23453175718351
 20
35.87571912666897
 10
77.23646652673754
 20
35.7327382381269
 10
77.23844940247984
 20
35.59133153930986
 10
77.24048049693337
 20
35.45148728840894
 10
77.24255992262103
 20
35.31319374361557
 10
77.2446877920658
 20
35.17643916312062
 10
77.24686421779058
 20
35.04121180511499
 10
77.24908931231832
 20
34.90749992779001
 10
77.25136318817202
 20
34.77529178933686
 10
77.25368595787455
 20
34.64457564794662
 10
77.25605773394888
 20
34.51533976181064
 10
77.25847862891794
 20
34.38757238911984
 10
77.2609487553047
 20
34.26126178806522
 10
77.26346822563205
 20
34.13639621683797
 10
77.26603715242298
 20
34.01296393362935
 10
77.26865564820041
 20
33.89095319663045
 10
77.27132382548727
 20
33.77035226403234
 10
77.27404179680653
 20
33.65114939402622
 10
77.27680967468109
 20
33.5333328448034
 10
77.27962757163393
 20
33.41689087455478
 10
77.282495600188
 20
33.30181174147134
 10
77.28541387286618
 20
33.18808370374437
 10
77.28838250219148
 20
33.07569501956506
 10
77.29140160068678
 20
32.96463394712447
 10
77.29447128087506
 20
32.85488874461373
 10
77.29759165527925
 20
32.74644767022403
 10
77.3007628364223
 20
32.63929898214661
 10
77.30398493682712
 20
32.53343093857245
 10
77.30725806901671
 20
32.42883179769251
 10
77.31395787884181
 20
32.2233932567803
 10
77.32086316608115
 20
32.0228894249392
 10
77.32797483091824
 20
31.82722636769842
 10
77.33529377353661
 20
31.63631015058684
 10
77.34282089411978
 20
31.45004683913328
 10
77.35055709285131
 20
31.26834249886702
 10
77.35850326991467
 20
31.09110319531715
 10
77.36666032549345
 20
30.91823499401267
 10
77.37502915977113
 20
30.74964396048233
 10
77.38361067293128
 20
30.58523616025543
 10
77.3924057651574
 20
30.42491765886103
 10
77.40141533663301
 20
30.26859452182816
 10
77.41064028754165
 20
30.11617281468563
 10
77.42008151806686
 20
29.96755860296259
 10
77.42973992839215
 20
29.82265795218831
 10
77.43961641870105
 20
29.68137692789156
 10
77.44971188917708
 20
29.54362159560139
 10
77.46002724000381
 20
29.40929802084685
 10
77.47056337136472
 20
29.27831226915714
 10
77.48132118344334
 20
29.15057040606115
 10
77.49230157642323
 20
29.02597849708786
 10
77.50350545048789
 20
28.90444260776638
 10
77.51493370582085
 20
28.78586880362582
 10
77.52658724260566
 20
28.67016315019515
 10
77.53846696102583
 20
28.55723171300332
 10
77.55057376126487
 20
28.44698055757942
 10
77.56290854350634
 20
28.33931574945263
 10
77.57547220793377
 20
28.2341433541518
 10
77.58826565473064
 20
28.13136943720598
 10
77.60128978408054
 20
28.03090006414425
 10
77.61454549616694
 20
27.93264130049568
 10
77.62803369117341
 20
27.83649921178932
 10
77.64175526928345
 20
27.74237986355405
 10
77.65571113068062
 20
27.65018932131904
 10
77.66990217554841
 20
27.55983365061337
 10
77.68432930407037
 20
27.471218916966
 10
77.69899341643004
 20
27.38425118590584
 10
77.71389541281092
 20
27.29883652296213
 10
77.72903619339651
 20
27.21488099366383
 10
77.74441665837044
 20
27.13229066353995
 10
77.76003770791615
 20
27.05097159811953
 10
77.79200516145708
 20
26.89177152350527
 10
77.82494575548756
 20
26.73652929405335
 10
77.85886669147579
 20
26.5844934339961
 10
77.89377517089
 20
26.43491246756564
 10
77.92967839519845
 20
26.28703491899438
 10
77.9665835658693
 20
26.14010931251454
 10
78.04351968704924
 20
25.8470858833312
 10
78.08370254745232
 20
25.70096053359731
 10
78.12514046816501
 20
25.55518800749576
 10
78.16791734587908
 20
25.40983975498023
 10
78.21211707728631
 20
25.26498722600445
 10
78.25782355907851
 20
25.12070187052223
 10
78.30512068794741
 20
24.97705513848718
 10
78.35409236058485
 20
24.83411847985309
 10
78.40482247368257
 20
24.69196334457365
 10
78.45739492393237
 20
24.55066118260265
 10
78.51189360802603
 20
24.41028344389378
 10
78.56840242265531
 20
24.27090157840075
 10
78.62700526451201
 20
24.13258703607733
 10
78.68778603028795
 20
23.99541126687717
 10
78.75082861667483
 20
23.85944572075408
 10
78.81621692036451
 20
23.72476184766174
 10
78.88403483804871
 20
23.59143109755394
 10
78.95436626641924
 20
23.4595249203843
 10
79.0272951021679
 20
23.32911476610661
 10
79.10290524198643
 20
23.20027208467462
 10
79.18128058256664
 20
23.07306832604201
 10
79.26246976951356
 20
22.94755558414357
 10
79.34635398012115
 20
22.82369399774041
 10
79.43276471208999
 20
22.70141642702601
 10
79.52153345523676
 20
22.58065572786506
 10
79.61249169937824
 20
22.46134475612206
 10
79.70547093433117
 20
22.34341636766169
 10
79.80030264991227
 20
22.22680341834859
 10
79.89681833593838
 20
22.11143876404731
 10
79.99484948222617
 20
21.99725526062247
 10
80.09422757859239
 20
21.88418576393872
 10
80.19478411485385
 20
21.77216312986059
 10
80.29635058082728
 20
21.66112021425272
 10
80.50196907720318
 20
21.44175592064261
 10
80.71070336460559
 20
21.22593586288332
 10
80.92250700728559
 20
21.01363384345547
 10
81.13733441769261
 20
20.80482399779646
 10
81.3551400082761
 20
20.59948046134383
 10
81.5758781914856
 20
20.39757736953487
 10
81.79950337977068
 20
20.19908885780711
 10
82.02596998558076
 20
20.00398906159796
 10
82.25523242136539
 20
19.81225211634484
 10
82.48724509957405
 20
19.62385215748514
 10
82.72196243265623
 20
19.43876332045636
 10
82.95933883306148
 20
19.25695974069589
 10
83.19932871323922
 20
19.07841555364121
 10
83.44188648563902
 20
18.90310489472966
 10
83.68696656271032
 20
18.73100189939879
 10
83.93452335690275
 20
18.56208070308588
 10
84.18451128066573
 20
18.39631544122847
 10
84.43688474644877
 20
18.23368024926395
 10
84.69159816670133
 20
18.07414926262976
 10
84.94860595387299
 20
17.91769661676335
 10
85.2078625204132
 20
17.76429644710207
 10
85.4693222787715
 20
17.61392288908348
 10
85.73293964139736
 20
17.4665500781449
 10
85.9986690207403
 20
17.32215214972382
 10
86.2664648292498
 20
17.18070323925758
 10
86.5362814793753
 20
17.04217748218377
 10
86.8080733835664
 20
16.90654901393975
 10
87.08179495427271
 20
16.77379196996287
 10
87.35740060394354
 20
16.6438804856906
 10
87.63484474502845
 20
16.51678869656041
 10
87.91408178997697
 20
16.39249073800971
 10
88.19506615123858
 20
16.27096074547592
 10
88.47775224126278
 20
16.1521728543965
 10
88.76209447249911
 20
16.03610120020886
 10
89.04804725739705
 20
15.92271991835042
 10
89.33556500840607
 20
15.81200314425865
 10
89.62460213797571
 20
15.7039250133709
 10
89.9151130585554
 20
15.59845966112471
 10
90.2070521825947
 20
15.49558122295741
 10
90.50037392254321
 20
15.39526383430649
 10
90.79503269085028
 20
15.29748163060935
 10
91.0909828999655
 20
15.20220874730341
 10
91.38817896233836
 20
15.10941931982614
 10
91.68657529041835
 20
15.01908748361495
 10
91.98612629665495
 20
14.93118737410725
 10
92.28678639349771
 20
14.84569312674051
 10
92.58850999339607
 20
14.76257887695215
 10
92.89125150879959
 20
14.68181876017957
 10
93.19496535215776
 20
14.60338691186024
 10
93.49960593591999
 20
14.52725746743158
 10
93.80512767253591
 20
14.453404562331
 10
94.11148497445505
 20
14.38180233199591
 10
94.4186322541268
 20
14.31242491186378
 10
94.72652392400071
 20
14.24524643737203
 10
95.03511439652632
 20
14.18024104395812
 10
95.34435808415304
 20
14.11738286705946
 10
95.65420939933044
 20
14.05664604211341
 10
95.96462275450804
 20
13.9980047045575
 10
96.27555256213527
 20
13.94143298982914
 10
96.58695323466169
 20
13.88690503336573
 10
96.89877918453682
 20
13.8343949706047
 10
97.21098482421
 20
13.78387693698346
 10
97.52352456613088
 20
13.73532506793953
 10
97.83635282274905
 20
13.68871349891026
 10
98.14942400651389
 20
13.64401636533307
 10
98.4626925298749
 20
13.60120780264549
 10
98.7761128052816
 20
13.56026194628481
 10
99.08963924518353
 20
13.52115293168856
 10
99.40322626203009
 20
13.48385489429415
 10
99.71682826827093
 20
13.448341969539
 10
100.0303996763554
 20
13.41458829286057
 10
100.3438948987331
 20
13.38256799969622
 10
100.6572683478536
 20
13.35225522548342
 10
100.9704744361662
 20
13.32362410565963
 10
101.2834675761205
 20
13.29664877566222
 10
101.5962021801661
 20
13.27130337092865
 10
101.9086326607524
 20
13.24756202689639
 10
102.2207134303288
 20
13.22539887900278
 10
102.532398901345
 20
13.20478806268539
 10
102.8436434862505
 20
13.18570371338148
 10
103.1544015974947
 20
13.16811996652859
 10
103.4646276475271
 20
13.15201095756413
 10
103.7742760487972
 20
13.13735082192551
 10
104.0833012137547
 20
13.1241136950502
 10
104.3916575548488
 20
13.11227371237555
 10
104.6992994845292
 20
13.1018050093391
 10
105.0061814152453
 20
13.0926817213782
 10
105.3122577594467
 20
13.08487798393025
 10
105.6174829295829
 20
13.0783679324328
 10
105.9218113381033
 20
13.07312570232318
 10
106.2251973974575
 20
13.06912542903887
 10
106.5275955200949
 20
13.06634124801729
 10
106.8289601184651
 20
13.06474729469585
 10
107.1292618839003
 20
13.06430166658464
 10
107.2791432606813
 20
13.06436060952904
 10
107.3546173915901
 20
13.06439652631394
 10
107.4327744055427
 20
13.06442877768074
 10
107.4736201970692
 20
13.06444356833037
 10
107.5160501534473
 20
13.06445749002313
 10
107.5603687560405
 20
13.06447055855818
 10
107.6068804862124
 20
13.06448278973482
 10
107.6558898253264
 20
13.06449419935222
 10
107.7077012547463
 20
13.06450480320956
 10
107.7626192558355
 20
13.06451461710617
 10
107.8209483099576
 20
13.06452365684112
 10
107.882992898476
 20
13.06453193821375
 10
107.9490575027544
 20
13.06453947702317
 10
108.0194466041563
 20
13.06454628906869
 10
108.0944646840452
 20
13.06455239014946
 10
108.1338047413483
 20
13.06455517901531
 10
108.1744162237847
 20
13.06455779606472
 10
108.2163371915245
 20
13.06456024327258
 10
108.2596057047384
 20
13.0645625226137
 10
108.3042598235967
 20
13.06456463606309
 10
108.3503376082698
 20
13.06456658559563
 10
108.3978771189282
 20
13.0645683731862
 10
108.4469164157425
 20
13.06457000080968
 10
108.4974935588829
 20
13.06457147044102
 10
108.5496466085199
 20
13.06457278405509
 10
108.6034136248241
 20
13.06457394362678
 10
108.6588326679657
 20
13.06457495113108
 10
108.7159417981154
 20
13.06457580854277
 10
108.7747790754434
 20
13.06457651783683
 10
108.8353825601203
 20
13.0645770809881
 10
108.8977903123164
 20
13.06457749997156
 10
108.9620403922021
 20
13.06457777676212
 10
109.0281708599483
 20
13.06457791333457
 10
109.096219775725
 20
13.06457791166389
 10
109.1662251997029
 20
13.06457777372498
 10
109.2382251920523
 20
13.06457750149275
 10
109.3122578129436
 20
13.06457709694206
 10
109.3883611225474
 20
13.06457656204787
 10
109.4665731810341
 20
13.06457589878505
 10
109.5469320485739
 20
13.06457510912844
 10
109.6294757853376
 20
13.06457419505307
 10
109.7142424514954
 20
13.06457315853373
 10
109.8012701072178
 20
13.0645720015454
 10
109.8905968126754
 20
13.06457072606292
 10
109.9822606280384
 20
13.06456933406122
 10
110.0762996134774
 20
13.06456782751524
 10
110.1727518291625
 20
13.06456620839981
 10
110.2716553352644
 20
13.06456447868987
 10
110.3730481919539
 20
13.06456264036035
 10
110.4769684594012
 20
13.06456069538609
 10
110.5834541977766
 20
13.06455864574207
 10
110.6925434672507
 20
13.06455649340307
 10
110.8042743279938
 20
13.06455424034413
 10
110.9186848401763
 20
13.06455188854005
 10
111.0358130639689
 20
13.06454943996579
 10
111.1556970595418
 20
13.06454689659625
 10
111.2783748870656
 20
13.06454426040631
 10
111.4038846067107
 20
13.06454153337085
 10
111.5322642786475
 20
13.06453871746481
 10
111.6635519630464
 20
13.06453581466309
 10
111.797785720078
 20
13.06453282694059
 10
111.9350036099126
 20
13.06452975627218
 10
112.0752436927203
 20
13.06452660463282
 10
112.2185440286719
 20
13.06452337399736
 10
112.3649426779383
 20
13.06452006634072
 10
112.5144777006895
 20
13.0645166836378
 10
112.667187157096
 20
13.06451322786353
 10
112.8231091073283
 20
13.06450970099274
 10
112.9822816115567
 20
13.06450610500042
 10
113.1447427299517
 20
13.06450244186146
 10
113.3105305226837
 20
13.06449871355068
 10
113.4796830499232
 20
13.06449492204302
 10
113.6522383718407
 20
13.06449106931347
 10
113.8282345486065
 20
13.06448715733683
 10
114.0077096403912
 20
13.06448318808799
 10
114.1907017073651
 20
13.06447916354193
 10
114.3772488096987
 20
13.06447508567351
 10
114.5673890075625
 20
13.06447095645763
 10
114.7611603611263
 20
13.0644667778692
 10
114.9586009305611
 20
13.06446255188314
 10
115.159748776038
 20
13.06445828047435
 10
115.3646419577268
 20
13.06445396561764
 10
115.5733185357979
 20
13.06444960928803
 10
115.7858165704219
 20
13.06444521346043
 10
116.0021741217691
 20
13.06444078010963
 10
116.2224292500101
 20
13.06443631121061
 10
116.4466200153151
 20
13.06443180873827
 10
116.6747844778548
 20
13.06442727466748
 10
116.9069606977995
 20
13.06442271097319
 10
117.1431867353196
 20
13.0644181196302
 10
117.3835006505857
 20
13.06441350261354
 10
117.6279405037681
 20
13.06440886189807
 10
117.8765443550374
 20
13.06440419945863
 10
118.1293502645639
 20
13.0643995172702
 10
118.3863962925173
 20
13.06439481730763
 10
118.6477204990688
 20
13.06439010154588
 10
118.9133609443896
 20
13.06438537195981
 10
119.1833556886495
 20
13.06438063052428
 10
119.4577427920189
 20
13.06437587921431
 10
119.7365603146681
 20
13.06437112000469
 10
120.0198463167677
 20
13.06436635487034
 10
120.3076388584882
 20
13.06436158578623
 10
120.5999759999998
 20
13.0643568147272
  0
LWPOLYLINE
  5
47C
330
1F
100
AcDbEntity
  8
0
100
AcDbPolyline
 90
      625
 70
     0
 43
0.0
 10
40.59997599999983
 20
260.400471
 10
40.63687822580056
 20
258.819339781758
 10
40.67397077462821
 20
257.2382420112615
 10
40.71202330591392
 20
255.6572111362562
 10
40.75180547908865
 20
254.0762806044876
 10
40.79408695358345
 20
252.4954838637011
 10
40.83963738882942
 20
250.9148543616425
 10
40.8892264442576
 20
249.3344255460574
 10
40.94362377929892
 20
247.7542308646909
 10
41.00359905338462
 20
246.1743037652891
 10
41.06992192594559
 20
244.5946776955972
 10
41.143362056413
 20
243.0153861033609
 10
41.22468910421774
 20
241.4364624363258
 10
41.3146688668086
 20
239.8579404829935
 10
41.41385185801406
 20
238.2798730270861
 10
41.52246402416762
 20
236.7023414900415
 10
41.64070443142214
 20
235.1254296650292
 10
41.76877214593047
 20
233.5492213452186
 10
41.90686623384549
 20
231.973800323779
 10
42.05518576132014
 20
230.39925039388
 10
42.21392979450723
 20
228.8256553486911
 10
42.38329739955957
 20
227.2530989813817
 10
42.56348764263013
 20
225.6816650851211
 10
42.75469958987172
 20
224.1114374530789
 10
42.95713230743717
 20
222.5424998784244
 10
43.17098486147942
 20
220.9749361543272
 10
43.39646130432845
 20
219.4088355260402
 10
43.63383127733665
 20
217.8443589564514
 10
43.88341066392746
 20
216.2817179713608
 10
44.14551631551978
 20
214.7211251550129
 10
44.42046508353246
 20
213.1627930916522
 10
44.70857381938428
 20
211.606934365523
 10
45.01015937449406
 20
210.0537615608698
 10
45.32553860028076
 20
208.5034872619373
 10
45.65502834816309
 20
206.9563240529696
 10
45.99894546955993
 20
205.4124845182114
 10
46.35760681589014
 20
203.8721812419071
 10
46.73132923857246
 20
202.3356268083012
 10
47.12042958902582
 20
200.8030338016381
 10
47.52516102562018
 20
199.2745940672426
 10
47.94519740265394
 20
197.7503108248228
 10
48.37990338264284
 20
196.230086618995
 10
48.82864072857278
 20
194.7138230502672
 10
49.29077120342963
 20
193.2014217191476
 10
49.76565657019913
 20
191.6927842261444
 10
50.25265859186726
 20
190.1878121717657
 10
50.7511390314197
 20
188.6864071565198
 10
51.26045965184249
 20
187.1884707809147
 10
51.77998221612129
 20
185.6939046454586
 10
52.30906848724213
 20
184.2026103506596
 10
52.84708022819067
 20
182.7144894970262
 10
53.39337920195293
 20
181.2294436850661
 10
53.94733623221076
 20
179.7473762710663
 10
54.50860214592181
 20
178.2682448702493
 10
55.07715449154851
 20
176.7920704098158
 10
55.65298929169249
 20
175.3188773968787
 10
56.23610256895521
 20
173.8486903385508
 10
56.82649034593826
 20
172.381533741945
 10
57.42414864524329
 20
170.9174321141741
 10
58.02907348947172
 20
169.4564099623509
 10
58.64126090122521
 20
167.9984917935884
 10
59.26070690310528
 20
166.5437021149993
 10
59.88740751771352
 20
165.0920654336965
 10
60.52135876765145
 20
163.6436062567928
 10
61.16255667552064
 20
162.1983490914011
 10
61.81099726392273
 20
160.7563184446342
 10
62.46676710023898
 20
159.3175837166679
 10
63.13073328736384
 20
157.8826013054698
 10
63.80416164736804
 20
156.4520252982071
 10
64.48831795726777
 20
155.0265102960524
 10
65.18412044140177
 20
153.6065959941546
 10
65.89183541349576
 20
152.192606556432
 10
66.61165741165762
 20
150.7848424167294
 10
67.34340252032254
 20
149.3833824222645
 10
68.08331722982472
 20
147.9862154040387
 10
68.84624508535272
 20
146.5515205402511
 42
-0.1227965664426618
 10
74.69997599999985
 20
123.0758538650827
 10
74.69997599999985
 20
71.79419849807598
 10
74.69997599999985
 20
71.49364879149698
 10
74.69997599999985
 20
71.19525197735026
 10
74.69997599999985
 20
70.89899697050547
 10
74.69997599999985
 20
70.60487268583219
 10
74.69997599999985
 20
70.31286803820006
 10
74.69997599999985
 20
70.02297194247872
 10
74.69997599999985
 20
69.73517331353775
 10
74.69997599999985
 20
69.44946106624678
 10
74.69997599999985
 20
69.16582411547546
 10
74.69997599999985
 20
68.88425137609335
 10
74.69997599999985
 20
68.60473176297009
 10
74.69997599999985
 20
68.32725419097528
 10
74.69997599999985
 20
68.0518075749786
 10
74.69997599999985
 20
67.77838082984961
 10
74.69997599999985
 20
67.50696287045792
 10
74.69997599999985
 20
67.23754261167323
 10
74.69997599999985
 20
66.97010896836502
 10
74.69997599999985
 20
66.70465085540303
 10
74.69997599999985
 20
66.44115718765684
 10
74.69997599999985
 20
66.17961687999605
 10
74.69997599999985
 20
65.92001884729029
 10
74.69997599999985
 20
65.66235200440917
 10
74.69997599999985
 20
65.4066052662223
 10
74.69997599999985
 20
65.15276754759931
 10
74.69997599999985
 20
64.90082776340982
 10
74.69997599999985
 20
64.65077482852347
 10
74.69997599999985
 20
64.40259765780985
 10
74.69997599999985
 20
64.15628516613856
 10
74.69997599999985
 20
63.91182626837923
 10
74.69997599999985
 20
63.66920987940146
 10
74.69997599999985
 20
63.42842491407495
 10
74.69997599999985
 20
63.18946028726924
 10
74.69997599999985
 20
62.95230491385392
 10
74.69997599999985
 20
62.71694770869871
 10
74.69997599999985
 20
62.48337758667315
 10
74.69997599999985
 20
62.25158346264689
 10
74.69997599999985
 20
62.02155425148953
 10
74.69997599999985
 20
61.79327886807067
 10
74.69997599999985
 20
61.56674622725994
 10
74.69997599999985
 20
61.34194524392703
 10
74.69997599999985
 20
61.11886483294146
 10
74.69997599999985
 20
60.89749390917288
 10
74.69997599999985
 20
60.67782138749089
 10
74.69997599999985
 20
60.45983618276515
 10
74.69997599999985
 20
60.24352720986525
 10
74.69997599999985
 20
60.02888338366084
 10
74.69997599999985
 20
59.81589361902146
 10
74.69997599999985
 20
59.60454683081678
 10
74.69997599999985
 20
59.39483193391646
 10
74.69997599999985
 20
59.18673784319003
 10
74.69997599999985
 20
58.98025347350714
 10
74.69997599999985
 20
58.77536773973748
 10
74.69997599999985
 20
58.57206955675053
 10
74.69997599999985
 20
58.370347839416
 10
74.69997599999985
 20
58.17019150260353
 10
74.69997599999985
 20
57.97158946118265
 10
74.69997599999985
 20
57.77453063002305
 10
74.69997599999985
 20
57.57900392399429
 10
74.69997599999985
 20
57.38499825796603
 10
74.69997599999985
 20
57.19250254680787
 10
74.69997599999985
 20
57.00150570538946
 10
74.69997599999985
 20
56.81199664858036
 10
74.69997599999985
 20
56.62396429125021
 10
74.69997599999985
 20
56.43739754826867
 10
74.69997599999985
 20
56.2522853345053
 10
74.69997599999985
 20
56.06861656482976
 10
74.69997599999985
 20
55.88638015411163
 10
74.69997599999985
 20
55.70556501722053
 10
74.69997599999985
 20
55.5261600690261
 10
74.69997599999985
 20
55.34815422439796
 10
74.69997599999985
 20
55.17153639820572
 10
74.69997599999985
 20
54.99629550531897
 10
74.69997599999985
 20
54.82242046060735
 10
74.69997599999985
 20
54.64990017894052
 10
74.69997599999985
 20
54.478723575188
 10
74.69997599999985
 20
54.30887956421952
 10
74.69997599999985
 20
54.1403570609046
 10
74.69997599999985
 20
53.97314498011294
 10
74.69997599999985
 20
53.80723223671402
 10
74.69997599999985
 20
53.64260774557767
 10
74.69997599999985
 20
53.47926042157332
 10
74.69997599999985
 20
53.31717917957067
 10
74.69997599999985
 20
53.15635293443932
 10
74.69997599999985
 20
52.99677060104889
 10
74.69997599999985
 20
52.83842109426903
 10
74.69997599999985
 20
52.68129332896926
 10
74.69997599999985
 20
52.52537622001931
 10
74.69997599999985
 20
52.37065868228876
 10
74.69997599999985
 20
52.21712963064724
 10
74.69997599999985
 20
52.06477797996431
 10
74.69997599999985
 20
51.9135926451096
 10
74.69997599999985
 20
51.76356254095279
 10
74.69997599999985
 20
51.61467658236347
 10
74.69997599999985
 20
51.4669236842112
 10
74.69997599999985
 20
51.32029276136567
 10
74.69997599999985
 20
51.17477272869646
 10
74.69997599999985
 20
51.03035250107321
 10
74.69997599999985
 20
50.88702099336552
 10
74.69997599999985
 20
50.74476712044301
 10
74.69997599999985
 20
50.60357979717531
 10
74.69997599999985
 20
50.463447938432
 10
74.69997599999985
 20
50.32436045908275
 10
74.69997599999985
 20
50.04927429804482
 10
74.69997599999985
 20
49.77823263301843
 10
74.69997599999985
 20
49.5111467829605
 10
74.69997599999985
 20
49.24792806682802
 10
74.69997599999985
 20
48.98848780357791
 10
74.69997599999985
 20
48.7327373121671
 10
74.69997599999985
 20
48.48058791155249
 10
74.69997599999985
 20
48.23195092069114
 10
74.69997599999985
 20
47.98673765853985
 10
74.69997599999985
 20
47.74485944405563
 10
74.69997599999985
 20
47.50622759619543
 10
74.69997599999985
 20
47.27075343391613
 10
74.69997599999985
 20
47.03834827617474
 10
74.69997599999985
 20
46.80892344192815
 10
74.69997599999985
 20
46.58239025013332
 10
74.69997599999985
 20
46.35866001974719
 10
74.69997599999985
 20
46.13764406972665
 10
74.69997599999985
 20
45.91925371902873
 10
74.69997599999985
 20
45.70340028661028
 10
74.69997599999985
 20
45.48999509142833
 10
74.69997599999985
 20
45.27894945243974
 10
74.69997599999985
 20
45.07017468860146
 10
74.69997599999985
 20
44.86358211887046
 10
74.69997599999985
 20
44.65908306220367
 10
74.69997599999985
 20
44.45658883755803
 10
74.69997599999985
 20
44.25601076389045
 10
74.69997599999985
 20
44.05726016015793
 10
74.69997599999985
 20
43.86024834531736
 10
74.69997599999985
 20
43.66488663832564
 10
74.69997599999985
 20
43.4710863581398
 10
74.69997599999985
 20
43.27875882371677
 10
74.69997599999985
 20
43.08781535401339
 10
74.69997599999985
 20
42.89816726798671
 10
74.69997599999985
 20
42.70972588459364
 10
74.69997599999985
 20
42.33610850153596
 10
74.69997599999985
 20
41.96625375649595
 10
74.69997599999985
 20
41.59945220112911
 10
74.69997599999985
 20
41.23499438709091
 10
74.69997599999985
 20
40.87217086603696
 10
74.69997599999985
 20
40.51027218962263
 10
74.69997599999985
 20
40.41985888901614
 10
74.69997599999985
 20
40.40855762091459
 10
74.69997599999985
 20
40.40290699402658
 10
74.69997599999985
 20
40.4014943375926
 10
74.69997599999985
 20
40.40078800938977
 10
74.69997599999985
 20
40.40061142733956
 10
74.69997599999985
 20
40.40052313631457
 10
74.69997599999985
 20
40.400478990802
 10
74.69998431829059
 20
40.39802526593724
 10
74.70006595956402
 20
40.37415140297593
 10
74.70074439570645
 20
40.18422898810507
 10
74.70146789991776
 20
39.99619779179875
 10
74.70223658472088
 20
39.81004607224804
 10
74.70305056263875
 20
39.62576208764415
 10
74.70390994619432
 20
39.4433340961785
 10
74.70481484791047
 20
39.26275035604181
 10
74.70576538031022
 20
39.08399912542506
 10
74.70676165591648
 20
38.90706866251969
 10
74.70780378725219
 20
38.73194722551671
 10
74.70889188684028
 20
38.55862307260725
 10
74.71002606720372
 20
38.38708446198257
 10
74.71120644086539
 20
38.21731965183369
 10
74.71243312034833
 20
38.04931690035198
 10
74.7137062181754
 20
37.88306446572835
 10
74.71502584686956
 20
37.71855060615378
 10
74.71639211895376
 20
37.55576357981944
 10
74.71780514695095
 20
37.39469164491663
 10
74.71926504338404
 20
37.23532305963642
 10
74.720771920776
 20
37.07764608217019
 10
74.72232589164976
 20
36.92164897070882
 10
74.72392706852826
 20
36.7673199834432
 10
74.72557556393444
 20
36.61464737856466
 10
74.72727149039123
 20
36.46361941426443
 10
74.72901496042161
 20
36.31422434873355
 10
74.73080608654846
 20
36.16645044016343
 10
74.7326449812948
 20
36.02028594674493
 10
74.73453175718351
 20
35.87571912666897
 10
74.73646652673754
 20
35.7327382381269
 10
74.73844940247983
 20
35.59133153930986
 10
74.74048049693336
 20
35.45148728840894
 10
74.74255992262101
 20
35.31319374361557
 10
74.74468779206576
 20
35.17643916312062
 10
74.74686421779058
 20
35.04121180511499
 10
74.74908931231832
 20
34.90749992779001
 10
74.75136318817202
 20
34.77529178933686
 10
74.75368595787455
 20
34.64457564794662
 10
74.75605773394888
 20
34.51533976181064
 10
74.75847862891794
 20
34.38757238911984
 10
74.7609487553047
 20
34.26126178806522
 10
74.76346822563205
 20
34.13639621683797
 10
74.76603715242298
 20
34.01296393362935
 10
74.76865564820041
 20
33.89095319663045
 10
74.77132382548727
 20
33.77035226403234
 10
74.77404179680653
 20
33.65114939402622
 10
74.77680967468109
 20
33.5333328448034
 10
74.77962757163393
 20
33.41689087455478
 10
74.78249560018799
 20
33.30181174147134
 10
74.78541387286617
 20
33.18808370374437
 10
74.78838250219147
 20
33.07569501956506
 10
74.79140160068677
 20
32.96463394712447
 10
74.79447128087506
 20
32.85488874461373
 10
74.79759165527925
 20
32.74644767022403
 10
74.8007628364223
 20
32.63929898214661
 10
74.80398493682712
 20
32.53343093857245
 10
74.80725806901671
 20
32.42883179769251
 10
74.81058234551395
 20
32.32548981769804
 10
74.81395787884181
 20
32.2233932567803
 10
74.81738478152322
 20
32.1225303731303
 10
74.82086316608114
 20
32.0228894249392
 10
74.82439314503849
 20
31.92445867039817
 10
74.82797483091824
 20
31.82722636769842
 10
74.83160833624328
 20
31.73118077503102
 10
74.83529377353661
 20
31.63631015058684
 10
74.83903125532112
 20
31.54260275255723
 10
74.84282089411976
 20
31.45004683913328
 10
74.84666280245551
 20
31.35863066850618
 10
74.85055709285131
 20
31.26834249886702
 10
74.85450387783003
 20
31.17917058840692
 10
74.85850326991465
 20
31.09110319531715
 10
74.86255538162815
 20
31.00412857778872
 10
74.86666032549344
 20
30.91823499401267
 10
74.87081821403345
 20
30.83341070218013
 10
74.87502915977113
 20
30.74964396048233
 10
74.87929327522945
 20
30.66692302711039
 10
74.88361067293126
 20
30.58523616025543
 10
74.89240576515739
 20
30.42491765886103
 10
74.90141533663297
 20
30.26859452182816
 10
74.91064028754165
 20
30.11617281468563
 10
74.92008151806686
 20
29.96755860296259
 10
74.92973992839214
 20
29.82265795218831
 10
74.93961641870105
 20
29.68137692789156
 10
74.94971188917709
 20
29.54362159560139
 10
74.96002724000383
 20
29.40929802084685
 10
74.97056337136472
 20
29.27831226915714
 10
74.98132118344336
 20
29.15057040606115
 10
74.99230157642323
 20
29.02597849708786
 10
75.00350545048791
 20
28.90444260776638
 10
75.01493370582085
 20
28.78586880362582
 10
75.02658724260566
 20
28.67016315019515
 10
75.03846696102581
 20
28.55723171300332
 10
75.05057376126487
 20
28.44698055757942
 10
75.06290854350634
 20
28.33931574945263
 10
75.07547220793377
 20
28.2341433541518
 10
75.08826565473062
 20
28.13136943720598
 10
75.10128978408054
 20
28.03090006414425
 10
75.11454549616694
 20
27.93264130049568
 10
75.12803369117341
 20
27.83649921178932
 10
75.14175526928345
 20
27.74237986355405
 10
75.15571113068062
 20
27.65018932131904
 10
75.16990217554841
 20
27.55983365061337
 10
75.18432930407039
 20
27.471218916966
 10
75.19899341643004
 20
27.38425118590584
 10
75.21389541281092
 20
27.29883652296213
 10
75.22903619339655
 20
27.21488099366383
 10
75.24441665837044
 20
27.13229066353995
 10
75.26003770791615
 20
27.05097159811953
 10
75.27590024221719
 20
26.97082986293163
 10
75.29200516145708
 20
26.89177152350527
 10
75.32494575548755
 20
26.73652929405335
 10
75.35886669147578
 20
26.5844934339961
 10
75.39377517089
 20
26.43491246756564
 10
75.42967839519845
 20
26.28703491899438
 10
75.46658356586931
 20
26.14010931251454
 10
75.50450799026399
 20
25.9934926067437
 10
75.54351968704924
 20
25.8470858833312
 10
75.58370254745232
 20
25.70096053359731
 10
75.62514046816501
 20
25.55518800749576
 10
75.66791734587908
 20
25.40983975498023
 10
75.71211707728631
 20
25.26498722600445
 10
75.7578235590785
 20
25.12070187052223
 10
75.80512068794743
 20
24.97705513848718
 10
75.85409236058485
 20
24.83411847985309
 10
75.90482247368257
 20
24.69196334457365
 10
75.95739492393237
 20
24.55066118260265
 10
76.01189360802603
 20
24.41028344389378
 10
76.06840242265533
 20
24.27090157840075
 10
76.12700526451201
 20
24.13258703607733
 10
76.18778603028792
 20
23.99541126687717
 10
76.25082861667483
 20
23.85944572075408
 10
76.31621692036451
 20
23.72476184766174
 10
76.38403483804871
 20
23.59143109755394
 10
76.45436626641924
 20
23.4595249203843
 10
76.52729510216786
 20
23.32911476610661
 10
76.6029052419864
 20
23.20027208467462
 10
76.68128058256662
 20
23.07306832604201
 10
76.76246976951356
 20
22.94755558414357
 10
76.84635398012118
 20
22.82369399774041
 10
76.93276471209
 20
22.70141642702601
 10
77.02153345523678
 20
22.58065572786506
 10
77.11249169937826
 20
22.46134475612206
 10
77.20547093433118
 20
22.34341636766169
 10
77.30030264991228
 20
22.22680341834859
 10
77.39681833593838
 20
22.11143876404731
 10
77.49484948222617
 20
21.99725526062247
 10
77.59422757859238
 20
21.88418576393872
 10
77.69478411485386
 20
21.77216312986059
 10
77.79635058082728
 20
21.66112021425272
 10
77.89876718784054
 20
21.55099329657236
 10
78.00196907720317
 20
21.44175592064261
 10
78.10594970227278
 20
21.33340452043638
 10
78.21070336460559
 20
21.22593586288332
 10
78.31622436575781
 20
21.11934671491309
 10
78.42250700728556
 20
21.01363384345547
 10
78.52954559074508
 20
20.90879401544004
 10
78.63733441769254
 20
20.80482399779646
 10
78.74586778968413
 20
20.70172055745451
 10
78.85514000827607
 20
20.59948046134383
 10
78.96514537502447
 20
20.49810047639403
 10
79.0758781914856
 20
20.39757736953487
 10
79.18733275921559
 20
20.29790790769602
 10
79.29950337977065
 20
20.19908885780711
 10
79.41238435470696
 20
20.10111698679788
 10
79.52596998558075
 20
20.00398906159796
 10
79.64025457394813
 20
19.90770184913708
 10
79.75523242136535
 20
19.81225211634484
 10
79.87089782938858
 20
19.71763663015099
 10
79.987245099574
 20
19.62385215748514
 10
80.10426853347778
 20
19.53089546527707
 10
80.2219624326562
 20
19.43876332045636
 10
80.34032109866535
 20
19.34745248995278
 10
80.45933883306144
 20
19.25695974069589
 10
80.57900993740066
 20
19.1672818396155
 10
80.69932871323919
 20
19.07841555364121
 10
80.94188648563898
 20
18.90310489472966
 10
81.18696656271032
 20
18.73100189939879
 10
81.4345233569027
 20
18.56208070308588
 10
81.68451128066569
 20
18.39631544122847
 10
81.9368847464487
 20
18.23368024926395
 10
82.19159816670131
 20
18.07414926262976
 10
82.44860595387295
 20
17.91769661676335
 10
82.70786252041318
 20
17.76429644710207
 10
82.96932227877148
 20
17.61392288908348
 10
83.23293964139731
 20
17.4665500781449
 10
83.49866902074026
 20
17.32215214972382
 10
83.76646482924977
 20
17.18070323925758
 10
84.0362814793753
 20
17.04217748218377
 10
84.30807338356641
 20
16.90654901393975
 10
84.58179495427264
 20
16.77379196996287
 10
84.8574006039435
 20
16.6438804856906
 10
85.13484474502844
 20
16.51678869656041
 10
85.41408178997695
 20
16.39249073800971
 10
85.69506615123858
 20
16.27096074547592
 10
85.97775224126277
 20
16.1521728543965
 10
86.26209447249911
 20
16.03610120020886
 10
86.54804725739699
 20
15.92271991835042
 10
86.83556500840603
 20
15.81200314425865
 10
87.12460213797569
 20
15.7039250133709
 10
87.4151130585554
 20
15.59845966112471
 10
87.70705218259468
 20
15.49558122295741
 10
88.00037392254315
 20
15.39526383430649
 10
88.29503269085027
 20
15.29748163060935
 10
88.5909828999655
 20
15.20220874730341
 10
88.88817896233836
 20
15.10941931982614
 10
89.18657529041832
 20
15.01908748361495
 10
89.48612629665493
 20
14.93118737410725
 10
89.78678639349769
 20
14.84569312674051
 10
90.08850999339607
 20
14.76257887695215
 10
90.39125150879959
 20
14.68181876017957
 10
90.69496535215773
 20
14.60338691186024
 10
90.99960593591999
 20
14.52725746743158
 10
91.30512767253588
 20
14.453404562331
 10
91.611484974455
 20
14.38180233199591
 10
91.91863225412678
 20
14.31242491186378
 10
92.22652392400071
 20
14.24524643737203
 10
92.53511439652628
 20
14.18024104395812
 10
92.84435808415301
 20
14.11738286705946
 10
93.15420939933041
 20
14.05664604211341
 10
93.46462275450802
 20
13.9980047045575
 10
93.77555256213526
 20
13.94143298982914
 10
94.08695323466169
 20
13.88690503336573
 10
94.39877918453676
 20
13.8343949706047
 10
94.71098482420996
 20
13.78387693698346
 10
95.02352456613087
 20
13.73532506793953
 10
95.336352822749
 20
13.68871349891026
 10
95.6494240065138
 20
13.64401636533307
 10
95.96269252987484
 20
13.60120780264549
 10
96.27611280528157
 20
13.56026194628481
 10
96.58963924518349
 20
13.52115293168856
 10
96.90322626203005
 20
13.48385489429415
 10
97.21682826827088
 20
13.448341969539
 10
97.53039967635537
 20
13.41458829286057
 10
97.8438948987331
 20
13.38256799969622
 10
98.15726834785351
 20
13.35225522548342
 10
98.47047443616617
 20
13.32362410565963
 10
98.78346757612051
 20
13.29664877566222
 10
99.09620218016605
 20
13.27130337092865
 10
99.40863266075233
 20
13.24756202689639
 10
99.7207134303288
 20
13.22539887900278
 10
100.032398901345
 20
13.20478806268539
 10
100.3436434862504
 20
13.18570371338148
 10
100.6544015974946
 20
13.16811996652859
 10
100.964627647527
 20
13.15201095756413
 10
101.2742760487972
 20
13.13735082192551
 10
101.5833012137546
 20
13.1241136950502
 10
101.8916575548488
 20
13.11227371237555
 10
102.1992994845292
 20
13.1018050093391
 10
102.5061814152453
 20
13.0926817213782
 10
102.8122577594467
 20
13.08487798393025
 10
103.1174829295829
 20
13.0783679324328
 10
103.4218113381033
 20
13.07312570232318
 10
103.7251973974574
 20
13.06912542903887
 10
104.0275955200949
 20
13.06634124801729
 10
104.3289601184651
 20
13.06474729469585
 10
104.6292618839003
 20
13.06430166658464
 10
104.7791433521144
 20
13.06436060952904
 10
104.8547393800353
 20
13.06439652631394
 10
104.893583730973
 20
13.06441310227501
 10
104.9336232886522
 20
13.06442877768074
 10
104.97523128964
 20
13.06444356833037
 10
105.0187809705038
 20
13.06445749002313
 10
105.064645567811
 20
13.06447055855818
 10
105.1131983181289
 20
13.06448278973482
 10
105.1648124580249
 20
13.06449419935222
 10
105.2198612240664
 20
13.06450480320956
 10
105.2787178528206
 20
13.06451461710617
 10
105.3096907521423
 20
13.06451923275637
 10
105.341755580855
 20
13.06452365684112
 10
105.3749589935295
 20
13.06452789133527
 10
105.4093476447368
 20
13.06453193821375
 10
105.4449681890479
 20
13.06453579945139
 10
105.4818672810336
 20
13.06453947702317
 10
105.5200915752648
 20
13.06454297290395
 10
105.5596877263125
 20
13.06454628906869
 10
105.6007023887475
 20
13.06454942749224
 10
105.6431822171407
 20
13.06455239014946
 10
105.6871738660632
 20
13.06455517901531
 10
105.7327239900859
 20
13.06455779606472
 10
105.7798792437797
 20
13.06456024327258
 10
105.8286862817155
 20
13.0645625226137
 10
105.8791917584641
 20
13.06456463606309
 10
105.9314423285966
 20
13.06456658559563
 10
105.9854846466837
 20
13.0645683731862
 10
106.0413653672966
 20
13.06457000080968
 10
106.099131145006
 20
13.06457147044102
 10
106.1588286343829
 20
13.06457278405509
 10
106.2205044899983
 20
13.06457394362678
 10
106.284205366423
 20
13.06457495113102
 10
106.3499779182278
 20
13.06457580854277
 10
106.4178687999839
 20
13.06457651783683
 10
106.487924666262
 20
13.0645770809881
 10
106.560192171633
 20
13.06457749997156
 10
106.6347179706678
 20
13.06457777676212
 10
106.7115487179377
 20
13.06457791333457
 10
106.7907310680134
 20
13.06457791166389
 10
106.8723116754657
 20
13.06457777372498
 10
106.9563371948657
 20
13.06457750149275
 10
107.0428542807841
 20
13.06457709694206
 10
107.131909587792
 20
13.06457656204787
 10
107.2235497704603
 20
13.06457589878499
 10
107.3178214833598
 20
13.06457510912844
 10
107.4147713810615
 20
13.06457419505307
 10
107.5144461181363
 20
13.06457315853373
 10
107.6168923491552
 20
13.0645720015454
 10
107.722156728689
 20
13.06457072606292
 10
107.8302859113086
 20
13.06456933406122
 10
107.9413265515851
 20
13.06456782751524
 10
108.0553253040889
 20
13.06456620839981
 10
108.1723288233913
 20
13.06456447868987
 10
108.2923837640636
 20
13.06456264036035
 10
108.4155367806763
 20
13.06456069538609
 10
108.5418345278005
 20
13.06455864574207
 10
108.6713236600069
 20
13.06455649340307
 10
108.8040508318666
 20
13.06455424034413
 10
108.9400626979504
 20
13.06455188854005
 10
109.0794059128292
 20
13.06454943996579
 10
109.222127131074
 20
13.06454689659625
 10
109.3682730072557
 20
13.06454426040631
 10
109.5178901959452
 20
13.06454153337085
 10
109.6710253517135
 20
13.06453871746481
 10
109.8277251291314
 20
13.06453581466309
 10
109.9880361827698
 20
13.06453282694059
 10
110.1520051671998
 20
13.06452975627218
 10
110.3196787369917
 20
13.06452660463282
 10
110.4911035467168
 20
13.06452337399736
 10
110.6663262509467
 20
13.06452006634072
 10
110.8453935042517
 20
13.0645166836378
 10
111.0283519612029
 20
13.06451322786353
 10
111.215248276371
 20
13.06450970099274
 10
111.4061291043271
 20
13.06450610500042
 10
111.601041099642
 20
13.0645024418614
 10
111.8000309168866
 20
13.06449871355068
 10
111.901069588286
 20
13.06449682557303
 10
112.0031452106319
 20
13.06449492204302
 10
112.1062636157458
 20
13.06449300320753
 10
112.2104306354488
 20
13.06449106931342
 10
112.3156521015626
 20
13.06448912060756
 10
112.4219338459083
 20
13.06448715733677
 10
112.5292817003073
 20
13.06448517974797
 10
112.6377014965811
 20
13.06448318808799
 10
112.747199066551
 20
13.06448118260368
 10
112.8577802420383
 20
13.06447916354193
 10
112.9694508548645
 20
13.06447713114954
 10
113.0822167368508
 20
13.06447508567351
 10
113.1960837198187
 20
13.06447302736052
 10
113.3110576355895
 20
13.06447095645763
 10
113.4271443159845
 20
13.06446887321152
 10
113.5443495928245
 20
13.0644667778692
 10
113.6626792979315
 20
13.06446467067741
 10
113.7821392631276
 20
13.06446255188314
 10
113.9027353202334
 20
13.06446042173309
 10
114.0244733010703
 20
13.0644582804743
 10
114.1473590374596
 20
13.06445612835352
 10
114.2713983612228
 20
13.06445396561764
 10
114.3965971041812
 20
13.06445179251352
 10
114.5229610981562
 20
13.06444960928803
 10
114.650496174969
 20
13.06444741618804
 10
114.7792081664412
 20
13.06444521346037
 10
114.909102904394
 20
13.06444300135195
 10
115.0401862206489
 20
13.06444078010958
 10
115.1724639470271
 20
13.06443854998019
 10
115.3059419153501
 20
13.06443631121055
 10
115.4406259574392
 20
13.06443406404764
 10
115.5765219051157
 20
13.06443180873822
 10
115.7136355902012
 20
13.06442954552921
 10
115.8519728445168
 20
13.06442727466742
 10
115.991539499884
 20
13.06442499639979
 10
116.1323413881241
 20
13.06442271097313
 10
116.2743843410585
 20
13.06442041863431
 10
116.4176741905086
 20
13.0644181196302
 10
116.5622167682958
 20
13.06441581420762
 10
116.7080179062413
 20
13.06441350261349
 10
116.8550834361666
 20
13.06441118509468
 10
117.003419189893
 20
13.06440886189802
 10
117.1530309992419
 20
13.06440653327036
 10
117.3039246960347
 20
13.06440419945858
 10
117.4561061120927
 20
13.06440186070955
 10
117.6095810792373
 20
13.06439951727014
 10
117.7643554292898
 20
13.06439716938723
 10
117.9204349940707
 20
13.06439481730763
 10
118.0778256054023
 20
13.0643924612782
 10
118.2365330951068
 20
13.06439010154582
 10
118.3965632950048
 20
13.06438773835737
 10
118.5579220369175
 20
13.06438537195976
 10
118.7206151526664
 20
13.06438300259975
 10
118.8846484740728
 20
13.06438063052423
 10
119.0500278329581
 20
13.0643782559801
 10
119.2167590611436
 20
13.06437587921425
 10
119.3848479904507
 20
13.06437350047344
 10
119.5543004527007
 20
13.06437112000464
 10
119.7251222797151
 20
13.06436873805461
 10
119.8973193033152
 20
13.06436635487029
 10
120.0708973553224
 20
13.06436397069854
 10
120.2458622675579
 20
13.06436158578617
 10
120.4222198718433
 20
13.06435920038007
 10
120.5999759999998
 20
13.06435681472715
  0
LWPOLYLINE
  5
47D
330
1F
100
AcDbEntity
  8
0
100
AcDbPolyline
 90
      710
 70
     0
 43
0.0
 10
40.59997599999983
 20
260.400471
 10
40.63687822580056
 20
258.819339781758
 10
40.67397077462821
 20
257.2382420112615
 10
40.71202330591392
 20
255.6572111362562
 10
40.75180547908865
 20
254.0762806044876
 10
40.79408695358345
 20
252.4954838637011
 10
40.83963738882942
 20
250.9148543616425
 10
40.8892264442576
 20
249.3344255460574
 10
40.94362377929892
 20
247.7542308646909
 10
41.00359905338462
 20
246.1743037652891
 10
41.06992192594559
 20
244.5946776955972
 10
41.143362056413
 20
243.0153861033609
 10
41.22468910421774
 20
241.4364624363258
 10
41.3146688668086
 20
239.8579404829935
 10
41.41385185801406
 20
238.2798730270861
 10
41.52246402416762
 20
236.7023414900415
 10
41.64070443142214
 20
235.1254296650292
 10
41.76877214593047
 20
233.5492213452186
 10
41.90686623384549
 20
231.973800323779
 10
42.05518576132014
 20
230.39925039388
 10
42.21392979450723
 20
228.8256553486911
 10
42.38329739955957
 20
227.2530989813817
 10
42.56348764263013
 20
225.6816650851211
 10
42.75469958987172
 20
224.1114374530789
 10
42.95713230743717
 20
222.5424998784244
 10
43.17098486147942
 20
220.9749361543272
 10
43.39646130432845
 20
219.4088355260402
 10
43.63383127733665
 20
217.8443589564514
 10
43.88341066392746
 20
216.2817179713608
 10
44.14551631551978
 20
214.7211251550129
 10
44.42046508353246
 20
213.1627930916522
 10
44.70857381938428
 20
211.606934365523
 10
45.01015937449406
 20
210.0537615608698
 10
45.32553860028076
 20
208.5034872619373
 10
45.65502834816309
 20
206.9563240529696
 10
45.99894546955993
 20
205.4124845182114
 10
46.35760681589014
 20
203.8721812419071
 10
46.73132923857246
 20
202.3356268083012
 10
47.12042958902582
 20
200.8030338016381
 10
47.52516102562018
 20
199.2745940672426
 10
47.94519740265394
 20
197.7503108248228
 10
48.37990338264284
 20
196.230086618995
 10
48.82864072857278
 20
194.7138230502672
 10
49.29077120342963
 20
193.2014217191476
 10
49.76565657019913
 20
191.6927842261444
 10
50.25265859186726
 20
190.1878121717657
 10
50.7511390314197
 20
188.6864071565198
 10
51.26045965184249
 20
187.1884707809147
 10
51.77998221612129
 20
185.6939046454586
 10
52.30906848724213
 20
184.2026103506596
 10
52.84708022819067
 20
182.7144894970262
 10
53.39337920195293
 20
181.2294436850661
 10
53.94733623221076
 20
179.7473762710663
 10
54.50860214592181
 20
178.2682448702493
 10
55.07715449154851
 20
176.7920704098158
 10
55.65298929169249
 20
175.3188773968787
 10
56.23610256895521
 20
173.8486903385508
 10
56.82649034593826
 20
172.381533741945
 10
57.42414864524329
 20
170.9174321141741
 10
58.02907348947172
 20
169.4564099623509
 10
58.64126090122521
 20
167.9984917935884
 10
59.26070690310528
 20
166.5437021149993
 10
59.88740751771352
 20
165.0920654336965
 10
60.52135876765145
 20
163.6436062567928
 10
61.16255667552064
 20
162.1983490914011
 10
61.81099726392273
 20
160.7563184446342
 10
62.46676710023898
 20
159.3175837166679
 10
63.13073328736384
 20
157.8826013054698
 10
63.80416164736804
 20
156.4520252982071
 10
64.48831795726777
 20
155.0265102960524
 10
65.18412044140177
 20
153.6065959941546
 10
65.89183541349576
 20
152.192606556432
 10
66.12210110046686
 20
151.7224552234941
 10
66.12210110046703
 20
151.7224552234938
 42
-0.1208824206570659
 10
71.79997599999984
 20
128.5805186887408
 10
71.79997599999984
 20
79.32653586058723
 10
71.79997599999984
 20
78.97341013207976
 10
71.79997599999984
 20
78.62269225400344
 10
71.79997599999984
 20
78.2743711412278
 10
71.79997599999984
 20
77.92843570862249
 10
71.79997599999984
 20
77.58487487105714
 10
71.79997599999984
 20
77.24367754340136
 10
71.79997599999984
 20
76.90483264052473
 10
71.79997599999984
 20
76.56832907729693
 10
71.79997599999984
 20
76.23415576858758
 10
71.79997599999984
 20
75.90230162926622
 10
71.79997599999984
 20
75.57275557420254
 10
71.79997599999984
 20
75.24550651826612
 10
71.79997599999984
 20
74.92054337632658
 10
71.79997599999984
 20
74.59785506325356
 10
71.79997599999984
 20
74.27743049391665
 10
71.79997599999984
 20
73.95925858318548
 10
71.79997599999984
 20
73.6433282459297
 10
71.79997599999984
 20
73.32962839701886
 10
71.79997599999984
 20
73.01814795132266
 10
71.79997599999984
 20
72.70887582371063
 10
71.79997599999984
 20
72.40180092905244
 10
71.79997599999984
 20
72.09691218221768
 10
71.79997599999984
 20
71.79419849807598
 10
71.79997599999984
 20
71.49364879149698
 10
71.79997599999984
 20
71.19525197735026
 10
71.79997599999984
 20
70.89899697050547
 10
71.79997599999984
 20
70.60487268583219
 10
71.79997599999984
 20
70.31286803820006
 10
71.79997599999984
 20
70.02297194247872
 10
71.79997599999984
 20
69.73517331353775
 10
71.79997599999984
 20
69.44946106624678
 10
71.79997599999984
 20
69.16582411547546
 10
71.79997599999984
 20
68.88425137609335
 10
71.79997599999984
 20
68.60473176297009
 10
71.79997599999984
 20
68.32725419097528
 10
71.79997599999984
 20
68.0518075749786
 10
71.79997599999984
 20
67.77838082984961
 10
71.79997599999984
 20
67.50696287045792
 10
71.79997599999984
 20
67.23754261167323
 10
71.79997599999984
 20
66.97010896836502
 10
71.79997599999984
 20
66.70465085540303
 10
71.79997599999984
 20
66.44115718765684
 10
71.79997599999984
 20
66.17961687999605
 10
71.79997599999984
 20
65.92001884729029
 10
71.79997599999984
 20
65.66235200440917
 10
71.79997599999984
 20
65.4066052662223
 10
71.79997599999984
 20
65.15276754759931
 10
71.79997599999984
 20
64.90082776340982
 10
71.79997599999984
 20
64.65077482852347
 10
71.79997599999984
 20
64.40259765780985
 10
71.79997599999984
 20
64.15628516613856
 10
71.79997599999984
 20
63.91182626837923
 10
71.79997599999984
 20
63.66920987940146
 10
71.79997599999984
 20
63.42842491407495
 10
71.79997599999984
 20
63.18946028726924
 10
71.79997599999984
 20
62.95230491385392
 10
71.79997599999984
 20
62.71694770869871
 10
71.79997599999984
 20
62.48337758667315
 10
71.79997599999984
 20
62.25158346264689
 10
71.79997599999984
 20
62.02155425148953
 10
71.79997599999984
 20
61.79327886807067
 10
71.79997599999984
 20
61.56674622725994
 10
71.79997599999984
 20
61.34194524392703
 10
71.79997599999984
 20
61.11886483294146
 10
71.79997599999984
 20
60.89749390917288
 10
71.79997599999984
 20
60.67782138749089
 10
71.79997599999984
 20
60.45983618276515
 10
71.79997599999984
 20
60.24352720986525
 10
71.79997599999984
 20
60.02888338366084
 10
71.79997599999984
 20
59.81589361902146
 10
71.79997599999984
 20
59.60454683081678
 10
71.79997599999984
 20
59.39483193391646
 10
71.79997599999984
 20
59.18673784319003
 10
71.79997599999984
 20
58.98025347350714
 10
71.79997599999984
 20
58.77536773973748
 10
71.79997599999984
 20
58.57206955675053
 10
71.79997599999984
 20
58.370347839416
 10
71.79997599999984
 20
58.17019150260353
 10
71.79997599999984
 20
57.97158946118265
 10
71.79997599999984
 20
57.77453063002305
 10
71.79997599999984
 20
57.57900392399429
 10
71.79997599999984
 20
57.38499825796603
 10
71.79997599999984
 20
57.19250254680787
 10
71.79997599999984
 20
57.00150570538946
 10
71.79997599999984
 20
56.81199664858036
 10
71.79997599999984
 20
56.62396429125021
 10
71.79997599999984
 20
56.43739754826867
 10
71.79997599999984
 20
56.2522853345053
 10
71.79997599999984
 20
56.06861656482976
 10
71.79997599999984
 20
55.88638015411163
 10
71.79997599999984
 20
55.70556501722053
 10
71.79997599999984
 20
55.5261600690261
 10
71.79997599999984
 20
55.34815422439796
 10
71.79997599999984
 20
55.17153639820572
 10
71.79997599999984
 20
54.99629550531897
 10
71.79997599999984
 20
54.82242046060735
 10
71.79997599999984
 20
54.64990017894052
 10
71.79997599999984
 20
54.478723575188
 10
71.79997599999984
 20
54.30887956421952
 10
71.79997599999984
 20
54.1403570609046
 10
71.79997599999984
 20
53.97314498011294
 10
71.79997599999984
 20
53.80723223671402
 10
71.79997599999984
 20
53.64260774557767
 10
71.79997599999984
 20
53.47926042157332
 10
71.79997599999984
 20
53.31717917957067
 10
71.79997599999984
 20
53.15635293443932
 10
71.79997599999984
 20
52.99677060104889
 10
71.79997599999984
 20
52.83842109426903
 10
71.79997599999984
 20
52.68129332896926
 10
71.79997599999984
 20
52.52537622001931
 10
71.79997599999984
 20
52.37065868228876
 10
71.79997599999984
 20
52.21712963064724
 10
71.79997599999984
 20
52.06477797996431
 10
71.79997599999984
 20
51.9135926451096
 10
71.79997599999984
 20
51.76356254095279
 10
71.79997599999984
 20
51.61467658236347
 10
71.79997599999984
 20
51.4669236842112
 10
71.79997599999984
 20
51.32029276136567
 10
71.79997599999984
 20
51.17477272869646
 10
71.79997599999984
 20
51.03035250107321
 10
71.79997599999984
 20
50.88702099336552
 10
71.79997599999984
 20
50.74476712044301
 10
71.79997599999984
 20
50.60357979717531
 10
71.79997599999984
 20
50.463447938432
 10
71.79997599999984
 20
50.32436045908275
 10
71.79997599999984
 20
50.18630627399716
 10
71.79997599999984
 20
50.04927429804482
 10
71.79997599999984
 20
49.91325344609535
 10
71.79997599999984
 20
49.77823263301843
 10
71.79997599999984
 20
49.64420077368359
 10
71.79997599999984
 20
49.5111467829605
 10
71.79997599999984
 20
49.37905957571878
 10
71.79997599999984
 20
49.24792806682802
 10
71.79997599999984
 20
49.11774117115785
 10
71.79997599999984
 20
48.98848780357791
 10
71.79997599999984
 20
48.86015687895778
 10
71.79997599999984
 20
48.7327373121671
 10
71.79997599999984
 20
48.60621801807546
 10
71.79997599999984
 20
48.48058791155249
 10
71.79997599999984
 20
48.35583590746788
 10
71.79997599999984
 20
48.23195092069114
 10
71.79997599999984
 20
47.98673765853985
 10
71.79997599999984
 20
47.74485944405563
 10
71.79997599999984
 20
47.50622759619543
 10
71.79997599999984
 20
47.27075343391613
 10
71.79997599999984
 20
47.03834827617474
 10
71.79997599999984
 20
46.80892344192815
 10
71.79997599999984
 20
46.58239025013332
 10
71.79997599999984
 20
46.35866001974719
 10
71.79997599999984
 20
46.13764406972665
 10
71.79997599999984
 20
45.91925371902873
 10
71.79997599999984
 20
45.70340028661028
 10
71.79997599999984
 20
45.48999509142833
 10
71.79997599999984
 20
45.27894945243974
 10
71.79997599999984
 20
45.07017468860146
 10
71.79997599999984
 20
44.86358211887046
 10
71.79997599999984
 20
44.65908306220367
 10
71.79997599999984
 20
44.45658883755803
 10
71.79997599999984
 20
44.25601076389045
 10
71.79997599999984
 20
44.05726016015793
 10
71.79997599999984
 20
43.86024834531736
 10
71.79997599999984
 20
43.66488663832564
 10
71.79997599999984
 20
43.4710863581398
 10
71.79997599999984
 20
43.27875882371677
 10
71.79997599999984
 20
43.08781535401339
 10
71.79997599999984
 20
42.89816726798671
 10
71.79997599999984
 20
42.70972588459364
 10
71.79997599999984
 20
42.52240252279108
 10
71.79997599999984
 20
42.33610850153596
 10
71.79997599999984
 20
41.96625375649595
 10
71.79997599999984
 20
41.59945220112911
 10
71.79997599999984
 20
41.23499438709091
 10
71.79997599999984
 20
40.87217086603696
 10
71.79997599999984
 20
40.51027218962263
 10
71.79997599999984
 20
40.41985888901614
 10
71.79997599999984
 20
40.40855762091459
 10
71.79997599999984
 20
40.40290699402658
 10
71.79997599999984
 20
40.4014943375926
 10
71.79997599999984
 20
40.40078800938977
 10
71.79997599999984
 20
40.40061142733956
 10
71.79997599999984
 20
40.40052313631457
 10
71.79997599999984
 20
40.400478990802
 10
71.79998431829062
 20
40.39802526593724
 10
71.80006595956403
 20
40.37415140297593
 10
71.80074439570645
 20
40.18422898810507
 10
71.80146789991777
 20
39.99619779179875
 10
71.80223658472089
 20
39.81004607224804
 10
71.80305056263875
 20
39.62576208764415
 10
71.80390994619431
 20
39.4433340961785
 10
71.80481484791048
 20
39.26275035604181
 10
71.80576538031022
 20
39.08399912542506
 10
71.80676165591648
 20
38.90706866251969
 10
71.80780378725221
 20
38.73194722551671
 10
71.80889188684027
 20
38.55862307260725
 10
71.81002606720371
 20
38.38708446198257
 10
71.81120644086542
 20
38.21731965183369
 10
71.81243312034833
 20
38.04931690035198
 10
71.81370621817539
 20
37.88306446572835
 10
71.81502584686956
 20
37.71855060615378
 10
71.81639211895376
 20
37.55576357981944
 10
71.81780514695095
 20
37.39469164491663
 10
71.81926504338405
 20
37.23532305963642
 10
71.82077192077598
 20
37.07764608217019
 10
71.82232589164975
 20
36.92164897070882
 10
71.82392706852827
 20
36.7673199834432
 10
71.82557556393444
 20
36.61464737856466
 10
71.82727149039124
 20
36.46361941426443
 10
71.82901496042163
 20
36.31422434873355
 10
71.83080608654847
 20
36.16645044016343
 10
71.83264498129481
 20
36.02028594674493
 10
71.8345317571835
 20
35.87571912666897
 10
71.83646652673755
 20
35.7327382381269
 10
71.83844940247984
 20
35.59133153930986
 10
71.84048049693338
 20
35.45148728840894
 10
71.84255992262101
 20
35.31319374361557
 10
71.8446877920658
 20
35.17643916312062
 10
71.84686421779057
 20
35.04121180511499
 10
71.84908931231833
 20
34.90749992779001
 10
71.851363188172
 20
34.77529178933686
 10
71.85368595787455
 20
34.64457564794662
 10
71.85605773394887
 20
34.51533976181064
 10
71.85847862891794
 20
34.38757238911984
 10
71.86094875530469
 20
34.26126178806522
 10
71.86346822563205
 20
34.13639621683797
 10
71.86603715242298
 20
34.01296393362935
 10
71.8686556482004
 20
33.89095319663045
 10
71.87132382548726
 20
33.77035226403234
 10
71.87404179680655
 20
33.65114939402622
 10
71.8768096746811
 20
33.5333328448034
 10
71.87962757163394
 20
33.41689087455478
 10
71.882495600188
 20
33.30181174147134
 10
71.88541387286619
 20
33.18808370374437
 10
71.88838250219149
 20
33.07569501956506
 10
71.89140160068678
 20
32.96463394712447
 10
71.89447128087507
 20
32.85488874461373
 10
71.89759165527927
 20
32.74644767022403
 10
71.9007628364223
 20
32.63929898214661
 10
71.90398493682713
 20
32.53343093857245
 10
71.90725806901671
 20
32.42883179769251
 10
71.91058234551396
 20
32.32548981769804
 10
71.9139578788418
 20
32.2233932567803
 10
71.91738478152323
 20
32.1225303731303
 10
71.92086316608111
 20
32.0228894249392
 10
71.92439314503848
 20
31.92445867039817
 10
71.92797483091823
 20
31.82722636769842
 10
71.93160833624327
 20
31.73118077503102
 10
71.9352937735366
 20
31.63631015058684
 10
71.93903125532111
 20
31.54260275255723
 10
71.94282089411976
 20
31.45004683913328
 10
71.9466628024555
 20
31.35863066850618
 10
71.9505570928513
 20
31.26834249886702
 10
71.95450387783002
 20
31.17917058840692
 10
71.95850326991467
 20
31.09110319531715
 10
71.96255538162816
 20
31.00412857778872
 10
71.96666032549345
 20
30.91823499401267
 10
71.97081821403344
 20
30.83341070218013
 10
71.97502915977112
 20
30.74964396048233
 10
71.97929327522944
 20
30.66692302711039
 10
71.98361067293126
 20
30.58523616025543
 10
71.98798146539963
 20
30.50457161810857
 10
71.99240576515737
 20
30.42491765886103
 10
71.99688368472753
 20
30.34626254070389
 10
72.00141533663302
 20
30.26859452182816
 10
72.00600083339672
 20
30.19190186042499
 10
72.01064028754164
 20
30.11617281468563
 10
72.01533381159072
 20
30.04139564280109
 10
72.02008151806686
 20
29.96755860296259
 10
72.02488351949302
 20
29.89464995336124
 10
72.0297399283921
 20
29.82265795218831
 10
72.03465085728716
 20
29.7515708576347
 10
72.03961641870107
 20
29.68137692789156
 10
72.04463672515671
 20
29.61206442115008
 10
72.04971188917709
 20
29.54362159560139
 10
72.06002724000382
 20
29.40929802084685
 10
72.07056337136474
 20
29.27831226915714
 10
72.08132118344335
 20
29.15057040606115
 10
72.09230157642323
 20
29.02597849708786
 10
72.10350545048791
 20
28.90444260776638
 10
72.11493370582086
 20
28.78586880362582
 10
72.12658724260567
 20
28.67016315019515
 10
72.13846696102582
 20
28.55723171300332
 10
72.15057376126488
 20
28.44698055757942
 10
72.16290854350635
 20
28.33931574945263
 10
72.17547220793377
 20
28.2341433541518
 10
72.18826565473064
 20
28.13136943720598
 10
72.20128978408053
 20
28.03090006414425
 10
72.21454549616693
 20
27.93264130049568
 10
72.2280336911734
 20
27.83649921178932
 10
72.24175526928346
 20
27.74237986355405
 10
72.25571113068062
 20
27.65018932131904
 10
72.26990217554841
 20
27.55983365061337
 10
72.28432930407038
 20
27.471218916966
 10
72.29899341643005
 20
27.38425118590584
 10
72.31389541281092
 20
27.29883652296213
 10
72.32903619339655
 20
27.21488099366383
 10
72.34441665837046
 20
27.13229066353995
 10
72.36003770791615
 20
27.05097159811953
 10
72.37590024221721
 20
26.97082986293163
 10
72.39200516145709
 20
26.89177152350527
 10
72.40835336581938
 20
26.81370264536957
 10
72.42494575548754
 20
26.73652929405335
 10
72.4588666914758
 20
26.5844934339961
 10
72.49377517089001
 20
26.43491246756564
 10
72.52967839519844
 20
26.28703491899438
 10
72.56658356586931
 20
26.14010931251454
 10
72.604507990264
 20
25.9934926067437
 10
72.64351968704925
 20
25.8470858833312
 10
72.68370254745234
 20
25.70096053359731
 10
72.72514046816502
 20
25.55518800749576
 10
72.76791734587909
 20
25.40983975498023
 10
72.81211707728632
 20
25.26498722600445
 10
72.85782355907851
 20
25.12070187052223
 10
72.90512068794743
 20
24.97705513848718
 10
72.95409236058484
 20
24.83411847985309
 10
73.00482247368257
 20
24.69196334457365
 10
73.05739492393238
 20
24.55066118260265
 10
73.11189360802602
 20
24.41028344389378
 10
73.16840242265532
 20
24.27090157840075
 10
73.22700526451201
 20
24.13258703607733
 10
73.28778603028793
 20
23.99541126687717
 10
73.35082861667482
 20
23.85944572075408
 10
73.41621692036452
 20
23.72476184766174
 10
73.4840348380487
 20
23.59143109755394
 10
73.55436626641924
 20
23.4595249203843
 10
73.62729510216789
 20
23.32911476610661
 10
73.70290524198644
 20
23.20027208467462
 10
73.78128058256662
 20
23.07306832604201
 10
73.86246976951355
 20
22.94755558414357
 10
73.94635398012119
 20
22.82369399774041
 10
74.03276471209
 20
22.70141642702601
 10
74.12153345523677
 20
22.58065572786506
 10
74.21249169937826
 20
22.46134475612206
 10
74.30547093433118
 20
22.34341636766169
 10
74.4003026499123
 20
22.22680341834859
 10
74.49681833593839
 20
22.11143876404731
 10
74.59484948222615
 20
21.99725526062247
 10
74.69422757859238
 20
21.88418576393872
 10
74.79478411485384
 20
21.77216312986059
 10
74.89635058082726
 20
21.66112021425272
 10
74.99876718784053
 20
21.55099329657236
 10
75.10196907720317
 20
21.44175592064261
 10
75.20594970227278
 20
21.33340452043638
 10
75.31070336460563
 20
21.22593586288332
 10
75.4162243657578
 20
21.11934671491309
 10
75.52250700728558
 20
21.01363384345547
 10
75.62954559074509
 20
20.90879401544004
 10
75.73733441769256
 20
20.80482399779646
 10
75.84586778968414
 20
20.70172055745451
 10
75.95514000827606
 20
20.59948046134383
 10
76.06514537502448
 20
20.49810047639403
 10
76.17587819148559
 20
20.39757736953487
 10
76.28733275921558
 20
20.29790790769602
 10
76.39950337977066
 20
20.19908885780711
 10
76.51238435470698
 20
20.10111698679788
 10
76.62596998558072
 20
20.00398906159796
 10
76.74025457394812
 20
19.90770184913708
 10
76.85523242136537
 20
19.81225211634484
 10
76.97089782938859
 20
19.71763663015099
 10
77.08724509957402
 20
19.62385215748514
 10
77.20426853347785
 20
19.53089546527707
 10
77.32196243265621
 20
19.43876332045636
 10
77.44032109866534
 20
19.34745248995278
 10
77.55933883306146
 20
19.25695974069589
 10
77.67900993740068
 20
19.1672818396155
 10
77.79932871323921
 20
19.07841555364121
 10
77.92028946213324
 20
18.99035764970273
 10
78.04188648563902
 20
18.90310489472966
 10
78.16411408531265
 20
18.81665405565184
 10
78.28696656271032
 20
18.73100189939879
 10
78.41043821938829
 20
18.64614519290023
 10
78.53452335690274
 20
18.56208070308588
 10
78.65921627680982
 20
18.47880519688544
 10
78.78451128066568
 20
18.39631544122847
 10
78.91040267002662
 20
18.31460820304477
 10
79.03688474644873
 20
18.23368024926395
 10
79.16395181148825
 20
18.15352834681573
 10
79.29159816670132
 20
18.07414926262976
 10
79.41981811364418
 20
17.99553976363575
 10
79.54860595387298
 20
17.91769661676335
 10
79.67795598894392
 20
17.84061658894222
 10
79.80786252041319
 20
17.76429644710207
 10
79.93831984983699
 20
17.68873295817263
 10
80.06932227877149
 20
17.61392288908348
 10
80.20086410877288
 20
17.53986300676433
 10
80.33293964139735
 20
17.4665500781449
 10
80.46554317820108
 20
17.39398087015478
 10
80.59866902074025
 20
17.32215214972382
 10
80.73231147057111
 20
17.25106068378147
 10
80.86646482924978
 20
17.18070323925758
 10
81.00112339833241
 20
17.11107658308185
 10
81.1362814793753
 20
17.04217748218377
 10
81.27193337393459
 20
16.97400270349317
 10
81.40807338356642
 20
16.90654901393975
 10
81.54469580982706
 20
16.83981318045306
 10
81.68179495427267
 20
16.77379196996287
 10
81.95740060394353
 20
16.6438804856906
 10
82.23484474502845
 20
16.51678869656041
 10
82.51408178997694
 20
16.39249073800971
 10
82.79506615123857
 20
16.27096074547592
 10
83.07775224126277
 20
16.1521728543965
 10
83.36209447249911
 20
16.03610120020886
 10
83.648047257397
 20
15.92271991835042
 10
83.93556500840608
 20
15.81200314425865
 10
84.22460213797569
 20
15.7039250133709
 10
84.5151130585554
 20
15.59845966112471
 10
84.80705218259467
 20
15.49558122295741
 10
85.1003739225432
 20
15.39526383430649
 10
85.39503269085027
 20
15.29748163060935
 10
85.69098289996551
 20
15.20220874730341
 10
85.98817896233835
 20
15.10941931982614
 10
86.28657529041833
 20
15.01908748361495
 10
86.58612629665492
 20
14.93118737410725
 10
86.88678639349767
 20
14.84569312674051
 10
87.18850999339606
 20
14.76257887695215
 10
87.4912515087996
 20
14.68181876017957
 10
87.79496535215775
 20
14.60338691186024
 10
88.09960593592
 20
14.52725746743158
 10
88.4051276725359
 20
14.453404562331
 10
88.71148497445505
 20
14.38180233199591
 10
89.01863225412681
 20
14.31242491186378
 10
89.3265239240007
 20
14.24524643737203
 10
89.63511439652632
 20
14.18024104395812
 10
89.94435808415301
 20
14.11738286705946
 10
90.25420939933045
 20
14.05664604211341
 10
90.56462275450803
 20
13.9980047045575
 10
90.87555256213525
 20
13.94143298982914
 10
91.18695323466171
 20
13.88690503336573
 10
91.49877918453675
 20
13.8343949706047
 10
91.81098482420999
 20
13.78387693698346
 10
92.12352456613087
 20
13.73532506793953
 10
92.43635282274905
 20
13.68871349891026
 10
92.74942400651385
 20
13.64401636533307
 10
93.06269252987489
 20
13.60120780264549
 10
93.37611280528156
 20
13.56026194628481
 10
93.68963924518348
 20
13.52115293168856
 10
94.00322626203006
 20
13.48385489429415
 10
94.31682826827087
 20
13.448341969539
 10
94.63039967635538
 20
13.41458829286057
 10
94.94389489873311
 20
13.38256799969622
 10
95.25726834785354
 20
13.35225522548342
 10
95.57047443616616
 20
13.32362410565963
 10
95.88346757612049
 20
13.29664877566222
 10
96.1962021801661
 20
13.27130337092865
 10
96.50863266075235
 20
13.24756202689639
 10
96.8207134303288
 20
13.22539887900278
 10
97.132398901345
 20
13.20478806268539
 10
97.44364348625046
 20
13.18570371338148
 10
97.75440159749464
 20
13.16811996652859
 10
98.06462764752708
 20
13.15201095756413
 10
98.37427604879728
 20
13.13735082192551
 10
98.68330121375469
 20
13.1241136950502
 10
98.99165755484879
 20
13.11227371237555
 10
99.29929948452922
 20
13.1018050093391
 10
99.60618141524534
 20
13.0926817213782
 10
99.91225775944677
 20
13.08487798393025
 10
100.2174829295829
 20
13.0783679324328
 10
100.5218113381032
 20
13.07312570232318
 10
100.8251973974574
 20
13.06912542903887
 10
101.1275955200949
 20
13.06634124801729
 10
101.4289601184651
 20
13.06474729469585
 10
101.7292618839003
 20
13.06430166658464
 10
101.8791434579185
 20
13.06436060952904
 10
101.9548805420178
 20
13.06439652631394
 10
101.9940181732079
 20
13.06441310227501
 10
102.0346055949881
 20
13.06442877768074
 10
102.0770956057304
 20
13.06444356833037
 10
102.1219410038072
 20
13.06445749002313
 10
102.1695945875906
 20
13.06447055855818
 10
102.1946159486136
 20
13.06447677782887
 10
102.2205091554528
 20
13.06448278973482
 10
102.2473308079047
 20
13.06448859625095
 10
102.275137505766
 20
13.06449419935222
 10
102.3039858488331
 20
13.06449960101344
 10
102.3339324369026
 20
13.06450480320956
 10
102.365033869771
 20
13.0645098079155
 10
102.3973467472348
 20
13.06451461710617
 10
102.4309276690905
 20
13.06451923275637
 10
102.4658332351347
 20
13.06452365684112
 10
102.5021200451638
 20
13.06452789133527
 10
102.5398446989745
 20
13.06453193821375
 10
102.5790637963633
 20
13.06453579945139
 10
102.6198339371266
 20
13.06453947702317
 10
102.662211721061
 20
13.06454297290395
 10
102.7062537479631
 20
13.06454628906869
 10
102.7520166176293
 20
13.06454942749224
 10
102.799556929856
 20
13.06455239014946
 10
102.84893128444
 20
13.06455517901531
 10
102.9001962811779
 20
13.06455779606472
 10
102.953408519866
 20
13.06456024327258
 10
103.0086246003009
 20
13.0645625226137
 10
103.0659011222792
 20
13.06456463606309
 10
103.1252946855973
 20
13.06456658559563
 10
103.1868618900518
 20
13.0645683731862
 10
103.2506593354392
 20
13.06457000080968
 10
103.316743621556
 20
13.06457147044102
 10
103.3851713481988
 20
13.06457278405509
 10
103.4559991151641
 20
13.06457394362678
 10
103.5292835222484
 20
13.06457495113102
 10
103.6050811692483
 20
13.06457580854277
 10
103.6834486559603
 20
13.06457651783683
 10
103.7644425821808
 20
13.0645770809881
 10
103.8481195477062
 20
13.06457749997156
 10
103.9345361523333
 20
13.06457777676212
 10
104.0237489958588
 20
13.06457791333457
 10
104.1158146780791
 20
13.06457791166389
 10
104.2107897987906
 20
13.06457777372498
 10
104.3087309577898
 20
13.06457750149275
 10
104.4096947548734
 20
13.06457709694206
 10
104.5137377898378
 20
13.06457656204787
 10
104.6209166624796
 20
13.06457589878499
 10
104.7312879725952
 20
13.06457510912844
 10
104.8449083199812
 20
13.06457419505307
 10
104.9618343044342
 20
13.06457315853373
 10
105.0821225257507
 20
13.0645720015454
 10
105.1435451626691
 20
13.06457137849247
 10
105.2058295837271
 20
13.06457072606292
 10
105.2689828638992
 20
13.06457004450357
 10
105.3330120781601
 20
13.06456933406122
 10
105.3979243014842
 20
13.06456859498286
 10
105.4637266088461
 20
13.06456782751524
 10
105.5304260752204
 20
13.06456703190525
 10
105.5980297755813
 20
13.06456620839981
 10
105.6665447849037
 20
13.06456535724572
 10
105.7359781781625
 20
13.06456447868987
 10
105.8063370303321
 20
13.06456357297912
 10
105.8776284163869
 20
13.06456264036035
 10
105.9498594113015
 20
13.06456168108036
 10
106.0230370900504
 20
13.06456069538609
 10
106.0971685276082
 20
13.06455968352435
 10
106.1722607989495
 20
13.06455864574207
 10
106.2483209790489
 20
13.064557582286
 10
106.3253561428809
 20
13.06455649340307
 10
106.4033733654201
 20
13.06455537934016
 10
106.4823797216411
 20
13.06455424034413
 10
106.5623822865183
 20
13.06455307666181
 10
106.6433881350265
 20
13.06455188854005
 10
106.7254043421401
 20
13.06455067622579
 10
106.8084379828337
 20
13.06454943996579
 10
106.8924961320819
 20
13.06454818000702
 10
106.9775858648593
 20
13.06454689659625
 10
107.0637142561403
 20
13.06454558998041
 10
107.1508883808997
 20
13.06454426040631
 10
107.2391153141118
 20
13.06454290812081
 10
107.3284021307514
 20
13.06454153337085
 10
107.418755905793
 20
13.06454013640319
 10
107.5101837142112
 20
13.06453871746481
 10
107.6026926309804
 20
13.06453727680247
 10
107.6962897310753
 20
13.06453581466309
 10
107.7909820894705
 20
13.06453433129348
 10
107.8867767811404
 20
13.06453282694059
 10
107.9836808810598
 20
13.06453130185116
 10
108.081701464203
 20
13.06452975627218
 10
108.1808456055448
 20
13.06452819045046
 10
108.2811203800591
 20
13.06452660463282
 10
108.382532862721
 20
13.06452499906618
 10
108.4850901285056
 20
13.06452337399736
 10
108.5887992523871
 20
13.06452172967323
 10
108.6936673093399
 20
13.06452006634072
 10
108.7997013743386
 20
13.06451838424658
 10
108.9069085223577
 20
13.0645166836378
 10
109.0152958283719
 20
13.06451496476114
 10
109.1248703673557
 20
13.06451322786353
 10
109.2356392142837
 20
13.06451147319177
 10
109.3476094441304
 20
13.06450970099274
 10
109.4607881318704
 20
13.06450791151337
 10
109.5751823524782
 20
13.06450610500042
 10
109.6907991809285
 20
13.0645042817008
 10
109.8076456921958
 20
13.0645024418614
 10
109.9257289612546
 20
13.06450058572909
 10
110.0450560630796
 20
13.06449871355068
 10
110.1656340726453
 20
13.06449682557303
 10
110.2874700649262
 20
13.06449492204302
 10
110.410571114897
 20
13.06449300320753
 10
110.5349442975321
 20
13.06449106931342
 10
110.6605966878062
 20
13.06448912060756
 10
110.7875353606938
 20
13.06448715733677
 10
110.9157673911695
 20
13.06448517974797
 10
111.0452998542079
 20
13.06448318808799
 10
111.1761398247835
 20
13.06448118260368
 10
111.3082943778709
 20
13.06447916354193
 10
111.4417705884446
 20
13.06447713114954
 10
111.5765755314793
 20
13.06447508567351
 10
111.7127162819494
 20
13.06447302736052
 10
111.8501999148296
 20
13.06447095645763
 10
111.9890335050944
 20
13.06446887321152
 10
112.1292241277175
 20
13.0644667778692
 10
112.2707788576744
 20
13.06446467067741
 10
112.4137047699405
 20
13.06446255188314
 10
112.5580089394894
 20
13.06446042173309
 10
112.7036984412958
 20
13.0644582804743
 10
112.8507803503342
 20
13.06445612835352
 10
112.9992617415791
 20
13.06445396561764
 10
113.1491496900052
 20
13.06445179251352
 10
113.300451270587
 20
13.06444960928803
 10
113.4531735582991
 20
13.06444741618804
 10
113.6073236281161
 20
13.06444521346037
 10
113.7629085550124
 20
13.06444300135195
 10
113.9199354139628
 20
13.06444078010958
 10
114.0784112799416
 20
13.06443854998019
 10
114.2383432279236
 20
13.06443631121055
 10
114.3997383328833
 20
13.06443406404764
 10
114.5626036697952
 20
13.06443180873822
 10
114.7269463136338
 20
13.06442954552921
 10
114.8927733393739
 20
13.06442727466742
 10
115.0600918219899
 20
13.06442499639979
 10
115.2289088364564
 20
13.06442271097313
 10
115.399231457748
 20
13.06442041863431
 10
115.5710667608392
 20
13.0644181196302
 10
115.7444218207046
 20
13.06441581420762
 10
115.9193037123188
 20
13.06441350261349
 10
116.0957195106563
 20
13.06441118509468
 10
116.2736762906917
 20
13.06440886189802
 10
116.4531811273996
 20
13.06440653327036
 10
116.6342410957545
 20
13.06440419945858
 10
116.816863270731
 20
13.06440186070955
 10
117.0010547273037
 20
13.06439951727014
 10
117.1868225404471
 20
13.06439716938723
 10
117.3741737851346
 20
13.06439481730763
 10
117.563115536342
 20
13.0643924612782
 10
117.753654869045
 20
13.06439010154582
 10
117.945798858217
 20
13.06438773835737
 10
118.1395545788325
 20
13.06438537195976
 10
118.3349291058661
 20
13.06438300259975
 10
118.5319295142924
 20
13.06438063052423
 10
118.730562879086
 20
13.0643782559801
 10
118.9308362752214
 20
13.06437587921425
 10
119.1327567776732
 20
13.06437350047344
 10
119.336331461416
 20
13.06437112000464
 10
119.5415674014243
 20
13.06436873805461
 10
119.7484716726726
 20
13.06436635487029
 10
119.9570513501356
 20
13.06436397069854
 10
120.1673135087879
 20
13.06436158578617
 10
120.3792652236039
 20
13.06435920038007
 10
120.5929135695583
 20
13.06435681472715
  0
VIEWPORT
  5
71
102
{ACAD_XDICTIONARY
360
635
102
}
330
55
100
AcDbEntity
 67
     1
  8
0
100
AcDbViewport
 10
133.3499908447265
 20
101.5999970436096
 30
0.0
 40
381.3957395593833
 41
218.2856291881582
 68
     1
 69
     1
 12
133.3499908447265
 22
101.5999970436096
 13
0.0
 23
0.0
 14
10.0
 24
10.0
 15
10.0
 25
10.0
 16
0.0
 26
0.0
 36
1.0
 17
0.0
 27
0.0
 37
0.0
 42
50.0
 43
0.0
 44
0.0
 45
218.2856291881582
 50
0.0
 51
0.0
 72
   100
 90
    32800
  1

281
     0
 71
     1
 74
     0
110
0.0
120
0.0
130
0.0
111
1.0
121
0.0
131
0.0
112
0.0
122
1.0
132
0.0
 79
     0
146
0.0
  0
VIEWPORT
  5
73
102
{ACAD_XDICTIONARY
360
637
102
}
330
55
100
AcDbEntity
 67
     1
  8
0
100
AcDbViewport
 10
133.3499939441677
 20
101.5999939441678
 30
0.0
 40
213.3599903106689
 41
162.5599903106689
 68
     2
 69
     2
 12
210.0
 22
148.5
 13
0.0
 23
0.0
 14
10.0
 24
10.0
 15
10.0
 25
10.0
 16
0.0
 26
0.0
 36
1.0
 17
0.0
 27
0.0
 37
0.0
 42
50.0
 43
0.0
 44
0.0
 45
324.0677920111345
 50
0.0
 51
0.0
 72
   100
 90
    32864
  1

281
     0
 71
     1
 74
     0
110
0.0
120
0.0
130
0.0
111
1.0
121
0.0
131
0.0
112
0.0
122
1.0
132
0.0
 79
     0
146
0.0
  0
ENDSEC
  0
SECTION
  2
OBJECTS
  0
DICTIONARY
  5
C
330
0
100
AcDbDictionary
281
     1
  3
ACAD_COLOR
350
1CC
  3
ACAD_GROUP
350
D
  3
ACAD_LAYOUT
350
1A
  3
ACAD_MATERIAL
350
1CB
  3
ACAD_MLEADERSTYLE
350
44A
  3
ACAD_MLINESTYLE
350
17
  3
ACAD_PLOTSETTINGS
350
19
  3
ACAD_PLOTSTYLENAME
350
E
  3
ACAD_SCALELIST
350
438
  3
ACAD_TABLESTYLE
350
1CD
  3
ACAD_VISUALSTYLE
350
424
  3
ACDB_RECOMPOSE_DATA
350
629
  3
AcDbVariableDictionary
350
5E
  3
AEC_PROPERTY_SET_DEFS
350
466
  3
DWGPROPS
350
62A
  0
DICTIONARY
  5
485
330
10
100
AcDbDictionary
280
     1
281
     1
  3
ADSK_XREC_LAYER_RECONCILED
360
486
  0
DICTIONARY
  5
487
330
86
100
AcDbDictionary
280
     1
281
     1
  3
ADSK_XREC_LAYER_RECONCILED
360
488
  0
DICTIONARY
  5
489
330
87
100
AcDbDictionary
280
     1
281
     1
  3
ADSK_XREC_LAYER_RECONCILED
360
48A
  0
DICTIONARY
  5
48B
330
CE
100
AcDbDictionary
280
     1
281
     1
  3
ADSK_XREC_LAYER_RECONCILED
360
48C
  0
DICTIONARY
  5
48D
330
CF
100
AcDbDictionary
280
     1
281
     1
  3
ADSK_XREC_LAYER_RECONCILED
360
48E
  0
DICTIONARY
  5
48F
330
D0
100
AcDbDictionary
280
     1
281
     1
  3
ADSK_XREC_LAYER_RECONCILED
360
490
  0
DICTIONARY
  5
206
330
1F
100
AcDbDictionary
280
     1
281
     1
  3
ACAD_SORTENTS
360
207
  0
DICTIONARY
  5
260
330
25E
100
AcDbDictionary
280
     1
281
     1
  3
ACAD_SORTENTS
360
261
  0
DICTIONARY
  5
3C5
330
3C3
100
AcDbDictionary
280
     1
281
     1
  3
ACAD_SORTENTS
360
3C6
  0
DICTIONARY
  5
631
330
6B
100
AcDbDictionary
280
     1
281
     1
  3
ACAD_XREC_ROUNDTRIP
360
632
  0
DICTIONARY
  5
633
330
6D
100
AcDbDictionary
280
     1
281
     1
  3
ACAD_XREC_ROUNDTRIP
360
634
  0
DICTIONARY
  5
635
330
71
100
AcDbDictionary
280
     1
281
     1
  3
ACAD_XREC_ROUNDTRIP
360
636
  0
DICTIONARY
  5
637
330
73
100
AcDbDictionary
280
     1
281
     1
  3
ACAD_XREC_ROUNDTRIP
360
638
  0
DICTIONARY
  5
1CC
102
{ACAD_REACTORS
330
C
102
}
330
C
100
AcDbDictionary
281
     1
  0
DICTIONARY
  5
D
102
{ACAD_REACTORS
330
C
102
}
330
C
100
AcDbDictionary
281
     1
  0
DICTIONARY
  5
1A
102
{ACAD_REACTORS
330
C
102
}
330
C
100
AcDbDictionary
281
     1
  3
Model
350
22
  3
ﾚｲｱｳﾄ1
350
51
  3
ﾚｲｱｳﾄ2
350
56
  0
DICTIONARY
  5
1CB
102
{ACAD_REACTORS
330
C
102
}
330
C
100
AcDbDictionary
281
     1
  3
ByBlock
350
414
  3
ByLayer
350
40C
  3
Global
350
41C
  0
DICTIONARY
  5
44A
102
{ACAD_REACTORS
330
C
102
}
330
C
100
AcDbDictionary
281
     1
  3
Standard
350
44B
  0
DICTIONARY
  5
17
102
{ACAD_REACTORS
330
C
102
}
330
C
100
AcDbDictionary
281
     1
  3
Standard
350
18
  0
DICTIONARY
  5
19
102
{ACAD_REACTORS
330
C
102
}
330
C
100
AcDbDictionary
281
     1
  0
ACDBDICTIONARYWDFLT
  5
E
102
{ACAD_REACTORS
330
C
102
}
330
C
100
AcDbDictionary
281
     1
  3
Normal
350
F
100
AcDbDictionaryWithDefault
340
F
  0
DICTIONARY
  5
438
102
{ACAD_REACTORS
330
C
102
}
330
C
100
AcDbDictionary
281
     1
  3
A0
350
439
  3
A1
350
43A
  3
A2
350
43B
  3
A3
350
43C
  3
A4
350
43D
  3
A5
350
43E
  3
A6
350
43F
  3
A7
350
440
  3
A8
350
441
  3
A9
350
442
  3
B0
350
443
  3
B1
350
444
  3
B2
350
445
  3
B3
350
446
  3
B4
350
447
  3
B5
350
448
  3
B6
350
449
  0
DICTIONARY
  5
1CD
102
{ACAD_REACTORS
330
C
102
}
330
C
100
AcDbDictionary
281
     1
  3
Standard
350
1CE
  0
DICTIONARY
  5
424
102
{ACAD_REACTORS
330
C
102
}
330
C
100
AcDbDictionary
281
     1
  3
2dWireframe
350
42A
  3
3D Hidden
350
42C
  3
3dWireframe
350
42B
  3
Basic
350
429
  3
Brighten
350
430
  3
ColorChange
350
434
  3
Conceptual
350
42D
  3
Dim
350
42F
  3
EdgeColorOff
350
437
  3
Facepattern
350
433
  3
Flat
350
425
  3
FlatWithEdges
350
426
  3
Gouraud
350
427
  3
GouraudWithEdges
350
428
  3
JitterOff
350
435
  3
Linepattern
350
432
  3
OverhangOff
350
436
  3
Realistic
350
42E
  3
Thicken
350
431
  0
XRECORD
  5
629
102
{ACAD_REACTORS
330
C
102
}
330
C
100
AcDbXrecord
280
     1
 90
        1
330
1CE
  0
DICTIONARY
  5
5E
102
{ACAD_REACTORS
330
C
102
}
330
C
100
AcDbDictionary
281
     1
  3
CANNOSCALE
350
4D6
  3
CMLEADERSTYLE
350
4D5
  3
CTABLESTYLE
350
1E0
  3
DIMASSOC
350
5F
  3
HIDETEXT
350
63
  3
INDEXCTL
350
4D8
  3
PROJECTNAME
350
1E1
  3
SORTENTS
350
4D7
  3
XCLIPFRAME
350
627
  0
DICTIONARY
  5
466
102
{ACAD_REACTORS
330
C
102
}
330
C
100
AcDbDictionary
281
     1
  0
XRECORD
  5
62A
102
{ACAD_REACTORS
330
C
102
}
330
C
100
AcDbXrecord
280
     1
  1
DWGPROPS COOKIE
  2

  3

  4

  6

  7

  8
cadm
  9

300
=
301
=
302
=
303
=
304
=
305
=
306
=
307
=
308
=
309
=
 40
0.1994555092592593
 41
2453249.553566794
 42
2456722.50370243
  1

 90
        0
  0
XRECORD
  5
486
102
{ACAD_REACTORS
330
485
102
}
330
485
100
AcDbXrecord
280
     1
290
     1
  0
XRECORD
  5
488
102
{ACAD_REACTORS
330
487
102
}
330
487
100
AcDbXrecord
280
     1
290
     1
  0
XRECORD
  5
48A
102
{ACAD_REACTORS
330
489
102
}
330
489
100
AcDbXrecord
280
     1
290
     1
  0
XRECORD
  5
48C
102
{ACAD_REACTORS
330
48B
102
}
330
48B
100
AcDbXrecord
280
     1
290
     1
  0
XRECORD
  5
48E
102
{ACAD_REACTORS
330
48D
102
}
330
48D
100
AcDbXrecord
280
     1
290
     1
  0
XRECORD
  5
490
102
{ACAD_REACTORS
330
48F
102
}
330
48F
100
AcDbXrecord
280
     1
290
     1
  0
SORTENTSTABLE
  5
207
102
{ACAD_REACTORS
330
206
102
}
330
206
100
AcDbSortentsTable
330
1F
331
2B3
  5
2B3
331
2B1
  5
2B1
331
A0
  5
A0
331
2AF
  5
2AF
331
2AD
  5
2AD
331
2B2
  5
2B2
331
9F
  5
9F
331
2B0
  5
2B0
331
2AE
  5
2AE
331
9D
  5
9D
331
2AC
  5
2AC
  0
SORTENTSTABLE
  5
261
102
{ACAD_REACTORS
330
260
102
}
330
260
100
AcDbSortentsTable
330
25E
  0
SORTENTSTABLE
  5
3C6
102
{ACAD_REACTORS
330
3C5
102
}
330
3C5
100
AcDbSortentsTable
330
3C3
  0
XRECORD
  5
632
102
{ACAD_REACTORS
330
631
102
}
330
631
100
AcDbXrecord
280
     1
102
SHADEPLOT
 70
     0
  0
XRECORD
  5
634
102
{ACAD_REACTORS
330
633
102
}
330
633
100
AcDbXrecord
280
     1
102
SHADEPLOT
 70
     0
  0
XRECORD
  5
636
102
{ACAD_REACTORS
330
635
102
}
330
635
100
AcDbXrecord
280
     1
102
SHADEPLOT
 70
     0
  0
XRECORD
  5
638
102
{ACAD_REACTORS
330
637
102
}
330
637
100
AcDbXrecord
280
     1
102
SHADEPLOT
 70
     0
  0
LAYOUT
  5
22
102
{ACAD_XDICTIONARY
360
62B
102
}
102
{ACAD_REACTORS
330
1A
102
}
330
1A
100
AcDbPlotSettings
  1

  2
none_device
  4
ANSI_A_(8.50_x_11.00_Inches)
  6

 40
6.349999904632567
 41
19.04999923706053
 42
6.350006103515625
 43
19.04998779296875
 44
215.8999938964841
 45
279.3999938964843
 46
0.0
 47
0.0
 48
0.0
 49
0.0
140
0.0
141
0.0
142
1.0
143
78.436453180766
 70
 11952
 72
     0
 73
     1
 74
     0
  7

 75
     0
147
0.0127491741332998
148
0.0
149
0.0
100
AcDbLayout
  1
Model
 70
     1
 71
     0
 10
0.0
 20
0.0
 11
12.0
 21
9.0
 12
0.0
 22
0.0
 32
0.0
 14
0.0
 24
0.0
 34
0.0
 15
0.0
 25
0.0
 35
0.0
146
0.0
 13
0.0
 23
0.0
 33
0.0
 16
1.0
 26
0.0
 36
0.0
 17
0.0
 27
1.0
 37
0.0
 76
     0
330
1F
331
3FB
  0
LAYOUT
  5
51
102
{ACAD_XDICTIONARY
360
62D
102
}
102
{ACAD_REACTORS
330
1A
102
}
330
1A
100
AcDbPlotSettings
  1

  2
none_device
  4
Letter_(8.50_x_11.00_Inches)
  6

 40
6.349999904632567
 41
6.349999904632567
 42
6.350006103515625
 43
6.350006103515625
 44
215.8999938964841
 45
279.3999938964843
 46
0.0
 47
0.0
 48
0.0
 49
0.0
140
0.0
141
0.0
142
1.0
143
1.0
 70
   688
 72
     1
 73
     1
 74
     5
  7

 75
    16
147
1.0
148
0.0
149
0.0
100
AcDbLayout
  1
ﾚｲｱｳﾄ1
 70
     1
 71
     1
 10
-6.350006103515625
 20
-6.349999904632567
 11
273.0499877929687
 21
209.5499939918517
 12
0.0
 22
0.0
 32
0.0
 14
26.66076962115562
 24
20.31135699206657
 34
-0.0015258207003583
 15
240.039213369355
 25
182.8886381005154
 35
0.0000000349246037
146
0.0
 13
0.0
 23
0.0
 33
0.0
 16
1.0
 26
0.0
 36
0.0
 17
0.0
 27
1.0
 37
0.0
 76
     0
330
50
331
6B
  0
LAYOUT
  5
56
102
{ACAD_XDICTIONARY
360
62F
102
}
102
{ACAD_REACTORS
330
1A
102
}
330
1A
100
AcDbPlotSettings
  1

  2
none_device
  4
Letter_(8.50_x_11.00_Inches)
  6

 40
6.349999904632567
 41
6.349999904632567
 42
6.350006103515625
 43
6.350006103515625
 44
215.8999938964841
 45
279.3999938964843
 46
0.0
 47
0.0
 48
0.0
 49
0.0
140
0.0
141
0.0
142
1.0
143
1.0
 70
   688
 72
     1
 73
     1
 74
     5
  7

 75
    16
147
1.0
148
0.0
149
0.0
100
AcDbLayout
  1
ﾚｲｱｳﾄ2
 70
     1
 71
     2
 10
-6.350006103515625
 20
-6.349999904632567
 11
273.0499877929687
 21
209.5499939918517
 12
0.0
 22
0.0
 32
0.0
 14
26.66076962115562
 24
20.31135699206657
 34
-0.0015258207003583
 15
240.039213369355
 25
182.8886381005154
 35
0.0000000349246037
146
0.0
 13
0.0
 23
0.0
 33
0.0
 16
1.0
 26
0.0
 36
0.0
 17
0.0
 27
1.0
 37
0.0
 76
     0
330
55
331
71
  0
MATERIAL
  5
414
102
{ACAD_XDICTIONARY
360
415
102
}
102
{ACAD_REACTORS
330
1CB
102
}
330
1CB
100
AcDbMaterial
  1
ByBlock
 72
     0
 43
0.0008202099737533
 43
0.0
 43
0.0
 43
0.0
 43
0.0
 43
0.0008202099737533
 43
0.0
 43
0.0
 43
0.0
 43
0.0
 43
1.0
 43
0.0
 43
0.0
 43
0.0
 43
0.0
 43
1.0
 77
     0
 47
0.0008202099737533
 47
0.0
 47
0.0
 47
0.0
 47
0.0
 47
0.0008202099737533
 47
0.0
 47
0.0
 47
0.0
 47
0.0
 47
1.0
 47
0.0
 47
0.0
 47
0.0
 47
0.0
 47
1.0
171
     0
 49
0.0008202099737533
 49
0.0
 49
0.0
 49
0.0
 49
0.0
 49
0.0008202099737533
 49
0.0
 49
0.0
 49
0.0
 49
0.0
 49
1.0
 49
0.0
 49
0.0
 49
0.0
 49
0.0
 49
1.0
175
     0
142
0.0008202099737533
142
0.0
142
0.0
142
0.0
142
0.0
142
0.0008202099737533
142
0.0
142
0.0
142
0.0
142
0.0
142
1.0
142
0.0
142
0.0
142
0.0
142
0.0
142
1.0
179
     0
144
0.0008202099737533
144
0.0
144
0.0
144
0.0
144
0.0
144
0.0008202099737533
144
0.0
144
0.0
144
0.0
144
0.0
144
1.0
144
0.0
144
0.0
144
0.0
144
0.0
144
1.0
147
0.0008202099737533
147
0.0
147
0.0
147
0.0
147
0.0
147
0.0008202099737533
147
0.0
147
0.0
147
0.0
147
0.0
147
1.0
147
0.0
147
0.0
147
0.0
147
0.0
147
1.0
  0
MATERIAL
  5
40C
102
{ACAD_XDICTIONARY
360
40D
102
}
102
{ACAD_REACTORS
330
1CB
102
}
330
1CB
100
AcDbMaterial
  1
ByLayer
 72
     0
 43
0.0008202099737533
 43
0.0
 43
0.0
 43
0.0
 43
0.0
 43
0.0008202099737533
 43
0.0
 43
0.0
 43
0.0
 43
0.0
 43
1.0
 43
0.0
 43
0.0
 43
0.0
 43
0.0
 43
1.0
 77
     0
 47
0.0008202099737533
 47
0.0
 47
0.0
 47
0.0
 47
0.0
 47
0.0008202099737533
 47
0.0
 47
0.0
 47
0.0
 47
0.0
 47
1.0
 47
0.0
 47
0.0
 47
0.0
 47
0.0
 47
1.0
171
     0
 49
0.0008202099737533
 49
0.0
 49
0.0
 49
0.0
 49
0.0
 49
0.0008202099737533
 49
0.0
 49
0.0
 49
0.0
 49
0.0
 49
1.0
 49
0.0
 49
0.0
 49
0.0
 49
0.0
 49
1.0
175
     0
142
0.0008202099737533
142
0.0
142
0.0
142
0.0
142
0.0
142
0.0008202099737533
142
0.0
142
0.0
142
0.0
142
0.0
142
1.0
142
0.0
142
0.0
142
0.0
142
0.0
142
1.0
179
     0
144
0.0008202099737533
144
0.0
144
0.0
144
0.0
144
0.0
144
0.0008202099737533
144
0.0
144
0.0
144
0.0
144
0.0
144
1.0
144
0.0
144
0.0
144
0.0
144
0.0
144
1.0
147
0.0008202099737533
147
0.0
147
0.0
147
0.0
147
0.0
147
0.0008202099737533
147
0.0
147
0.0
147
0.0
147
0.0
147
1.0
147
0.0
147
0.0
147
0.0
147
0.0
147
1.0
  0
MATERIAL
  5
41C
102
{ACAD_XDICTIONARY
360
41D
102
}
102
{ACAD_REACTORS
330
1CB
102
}
330
1CB
100
AcDbMaterial
  1
Global
 72
     0
 43
0.0008202099737533
 43
0.0
 43
0.0
 43
0.0
 43
0.0
 43
0.0008202099737533
 43
0.0
 43
0.0
 43
0.0
 43
0.0
 43
1.0
 43
0.0
 43
0.0
 43
0.0
 43
0.0
 43
1.0
 77
     0
 47
0.0008202099737533
 47
0.0
 47
0.0
 47
0.0
 47
0.0
 47
0.0008202099737533
 47
0.0
 47
0.0
 47
0.0
 47
0.0
 47
1.0
 47
0.0
 47
0.0
 47
0.0
 47
0.0
 47
1.0
171
     0
 49
0.0008202099737533
 49
0.0
 49
0.0
 49
0.0
 49
0.0
 49
0.0008202099737533
 49
0.0
 49
0.0
 49
0.0
 49
0.0
 49
1.0
 49
0.0
 49
0.0
 49
0.0
 49
0.0
 49
1.0
175
     0
142
0.0008202099737533
142
0.0
142
0.0
142
0.0
142
0.0
142
0.0008202099737533
142
0.0
142
0.0
142
0.0
142
0.0
142
1.0
142
0.0
142
0.0
142
0.0
142
0.0
142
1.0
179
     0
144
0.0008202099737533
144
0.0
144
0.0
144
0.0
144
0.0
144
0.0008202099737533
144
0.0
144
0.0
144
0.0
144
0.0
144
1.0
144
0.0
144
0.0
144
0.0
144
0.0
144
1.0
147
0.0008202099737533
147
0.0
147
0.0
147
0.0
147
0.0
147
0.0008202099737533
147
0.0
147
0.0
147
0.0
147
0.0
147
1.0
147
0.0
147
0.0
147
0.0
147
0.0
147
1.0
  0
MLEADERSTYLE
  5
44B
102
{ACAD_REACTORS
330
44A
102
}
330
44A
100
AcDbMLeaderStyle
170
     2
171
     1
172
     0
 90
        2
 40
0.0
 41
0.0
173
     1
 91
-1056964608
340
14
 92
       -2
290
     1
 42
2.0
291
     1
 43
0.36
  3
Standard
 44
4.0
300

342
11
174
     1
178
     6
175
     1
176
     0
 93
-1056964608
 45
4.0
292
     0
297
     0
 46
4.0
 94
-1056964608
 47
1.0
 49
1.0
140
1.0
293
     1
141
0.0
294
     1
177
     0
142
1.0
295
     0
296
     0
143
0.125
1001
ACAD_MLEADERVER
1070
     2
  0
MLINESTYLE
  5
18
102
{ACAD_REACTORS
330
17
102
}
330
17
100
AcDbMlineStyle
  2
STANDARD
 70
     0
  3

 62
   256
 51
90.0
 52
90.0
 71
     2
 49
0.5
 62
   256
  6
BYLAYER
 49
-0.5
 62
   256
  6
BYLAYER
  0
ACDBPLACEHOLDER
  5
F
102
{ACAD_REACTORS
330
E
102
}
330
E
  0
SCALE
  5
439
102
{ACAD_REACTORS
330
438
102
}
330
438
100
AcDbScale
 70
     0
300
1:1
140
1.0
141
1.0
290
     1
  0
SCALE
  5
43A
102
{ACAD_REACTORS
330
438
102
}
330
438
100
AcDbScale
 70
     0
300
1:2
140
1.0
141
2.0
290
     0
  0
SCALE
  5
43B
102
{ACAD_REACTORS
330
438
102
}
330
438
100
AcDbScale
 70
     0
300
1:4
140
1.0
141
4.0
290
     0
  0
SCALE
  5
43C
102
{ACAD_REACTORS
330
438
102
}
330
438
100
AcDbScale
 70
     0
300
1:5
140
1.0
141
5.0
290
     0
  0
SCALE
  5
43D
102
{ACAD_REACTORS
330
438
102
}
330
438
100
AcDbScale
 70
     0
300
1:8
140
1.0
141
8.0
290
     0
  0
SCALE
  5
43E
102
{ACAD_REACTORS
330
438
102
}
330
438
100
AcDbScale
 70
     0
300
1:10
140
1.0
141
10.0
290
     0
  0
SCALE
  5
43F
102
{ACAD_REACTORS
330
438
102
}
330
438
100
AcDbScale
 70
     0
300
1:16
140
1.0
141
16.0
290
     0
  0
SCALE
  5
440
102
{ACAD_REACTORS
330
438
102
}
330
438
100
AcDbScale
 70
     0
300
1:20
140
1.0
141
20.0
290
     0
  0
SCALE
  5
441
102
{ACAD_REACTORS
330
438
102
}
330
438
100
AcDbScale
 70
     0
300
1:30
140
1.0
141
30.0
290
     0
  0
SCALE
  5
442
102
{ACAD_REACTORS
330
438
102
}
330
438
100
AcDbScale
 70
     0
300
1:40
140
1.0
141
40.0
290
     0
  0
SCALE
  5
443
102
{ACAD_REACTORS
330
438
102
}
330
438
100
AcDbScale
 70
     0
300
1:50
140
1.0
141
50.0
290
     0
  0
SCALE
  5
444
102
{ACAD_REACTORS
330
438
102
}
330
438
100
AcDbScale
 70
     0
300
1:100
140
1.0
141
100.0
290
     0
  0
SCALE
  5
445
102
{ACAD_REACTORS
330
438
102
}
330
438
100
AcDbScale
 70
     0
300
2:1
140
2.0
141
1.0
290
     0
  0
SCALE
  5
446
102
{ACAD_REACTORS
330
438
102
}
330
438
100
AcDbScale
 70
     0
300
4:1
140
4.0
141
1.0
290
     0
  0
SCALE
  5
447
102
{ACAD_REACTORS
330
438
102
}
330
438
100
AcDbScale
 70
     0
300
8:1
140
8.0
141
1.0
290
     0
  0
SCALE
  5
448
102
{ACAD_REACTORS
330
438
102
}
330
438
100
AcDbScale
 70
     0
300
10:1
140
10.0
141
1.0
290
     0
  0
SCALE
  5
449
102
{ACAD_REACTORS
330
438
102
}
330
438
100
AcDbScale
 70
     0
300
100:1
140
100.0
141
1.0
290
     0
  0
TABLESTYLE
  5
1CE
102
{ACAD_XDICTIONARY
360
51D
102
}
102
{ACAD_REACTORS
330
1CD
102
}
330
1CD
100
AcDbTableStyle
  3
Standard
 70
     0
 71
     0
 40
1.5
 41
1.5
280
     0
281
     0
  7
Standard
140
4.5
170
     2
 62
     0
 63
     7
283
     0
274
    -2
284
     1
 64
     0
275
    -2
285
     1
 65
     0
276
    -2
286
     1
 66
     0
277
    -2
287
     1
 67
     0
278
    -2
288
     1
 68
     0
279
    -2
289
     1
 69
     0
  7
Standard
140
6.0
170
     5
 62
     0
 63
     7
283
     0
274
    -2
284
     1
 64
     0
275
    -2
285
     1
 65
     0
276
    -2
286
     1
 66
     0
277
    -2
287
     1
 67
     0
278
    -2
288
     1
 68
     0
279
    -2
289
     1
 69
     0
  7
Standard
140
4.5
170
     5
 62
     0
 63
     7
283
     0
274
    -2
284
     1
 64
     0
275
    -2
285
     1
 65
     0
276
    -2
286
     1
 66
     0
277
    -2
287
     1
 67
     0
278
    -2
288
     1
 68
     0
279
    -2
289
     1
 69
     0
  0
VISUALSTYLE
  5
42A
102
{ACAD_XDICTIONARY
360
644
102
}
102
{ACAD_REACTORS
330
424
102
}
330
424
100
AcDbVisualStyle
  2

 70
     4
 71
     0
 72
     2
 73
     0
 90
        0
 40
-0.6
 41
-30.0
 62
     5
 63
     7
 74
     1
 91
        4
 64
     7
 65
   257
 75
     1
175
     1
 42
1.0
 92
        0
 66
   257
 43
1.0
 76
     1
 77
     6
 78
     2
 67
     7
 79
     5
170
     0
171
     0
290
     0
174
     0
 93
        1
 44
0.0
173
     0
291
     0
 45
0.0
1001
ACAD
1000
AcDbSavedByObjectVersion
1070
     0
  0
VISUALSTYLE
  5
42C
102
{ACAD_XDICTIONARY
360
648
102
}
102
{ACAD_REACTORS
330
424
102
}
330
424
100
AcDbVisualStyle
  2

 70
     6
 71
     1
 72
     2
 73
     2
 90
        0
 40
-0.6
 41
-30.0
 62
     5
 63
     7
 74
     2
 91
        2
 64
     7
 65
   257
 75
     2
175
     1
 42
179.0
 92
        0
 66
   257
 43
1.0
 76
     1
 77
     6
 78
     2
 67
     7
 79
     3
170
     0
171
     0
290
     0
174
     0
 93
        1
 44
0.0
173
     0
291
     0
 45
0.0
1001
ACAD
1000
AcDbSavedByObjectVersion
1070
     0
  0
VISUALSTYLE
  5
42B
102
{ACAD_XDICTIONARY
360
646
102
}
102
{ACAD_REACTORS
330
424
102
}
330
424
100
AcDbVisualStyle
  2

 70
     5
 71
     0
 72
     2
 73
     0
 90
        0
 40
-0.6
 41
-30.0
 62
     5
 63
     7
 74
     1
 91
        4
 64
     7
 65
   257
 75
     1
175
     1
 42
1.0
 92
        0
 66
   257
 43
1.0
 76
     1
 77
     6
 78
     2
 67
     7
 79
     5
170
     0
171
     0
290
     0
174
     0
 93
        1
 44
0.0
173
     0
291
     0
 45
0.0
1001
ACAD
1000
AcDbSavedByObjectVersion
1070
     0
  0
VISUALSTYLE
  5
429
102
{ACAD_XDICTIONARY
360
642
102
}
102
{ACAD_REACTORS
330
424
102
}
330
424
100
AcDbVisualStyle
  2

 70
     7
 71
     1
 72
     0
 73
     1
 90
        0
 40
-0.6
 41
-30.0
 62
     5
 63
     7
 74
     0
 91
        4
 64
     7
 65
   257
 75
     1
175
     1
 42
1.0
 92
        8
 66
     7
 43
1.0
 76
     1
 77
     6
 78
     2
 67
     7
 79
     5
170
     0
171
     0
290
     0
174
     0
 93
        1
 44
0.0
173
     0
291
     1
 45
0.0
1001
ACAD
1000
AcDbSavedByObjectVersion
1070
     0
  0
VISUALSTYLE
  5
430
102
{ACAD_XDICTIONARY
360
650
102
}
102
{ACAD_REACTORS
330
424
102
}
330
424
100
AcDbVisualStyle
  2

 70
    12
 71
     2
 72
     2
 73
     0
 90
        0
 40
-0.6
 41
-30.0
 62
     5
 63
     7
 74
     1
 91
        4
 64
     7
 65
   257
 75
     1
175
     1
 42
1.0
 92
        8
 66
     7
 43
1.0
 76
     1
 77
     6
 78
     2
 67
     7
 79
     5
170
     0
171
     0
290
     0
174
     0
 93
        1
 44
50.0
173
     0
291
     1
 45
0.0
1001
ACAD
1000
AcDbSavedByObjectVersion
1070
     0
  0
VISUALSTYLE
  5
434
102
{ACAD_XDICTIONARY
360
658
102
}
102
{ACAD_REACTORS
330
424
102
}
330
424
100
AcDbVisualStyle
  2

 70
    16
 71
     2
 72
     2
 73
     3
 90
        0
 40
-0.6
 41
-30.0
 62
     5
 63
     8
 74
     1
 91
        4
 64
     7
 65
   257
 75
     1
175
     1
 42
1.0
 92
        8
 66
     8
 43
1.0
 76
     1
 77
     6
 78
     2
 67
     7
 79
     5
170
     0
171
     0
290
     0
174
     0
 93
        1
 44
0.0
173
     0
291
     1
 45
0.0
1001
ACAD
1000
AcDbSavedByObjectVersion
1070
     0
  0
VISUALSTYLE
  5
42D
102
{ACAD_XDICTIONARY
360
64A
102
}
102
{ACAD_REACTORS
330
424
102
}
330
424
100
AcDbVisualStyle
  2

 70
     9
 71
     3
 72
     2
 73
     0
 90
        0
 40
-0.6
 41
-30.0
 62
     5
 63
     7
 74
     2
 91
        2
 64
     7
 65
   257
 75
     1
175
     1
 42
179.0
 92
        8
 66
     7
 43
1.0
 76
     1
 77
     6
 78
     2
 67
     7
 79
     3
170
     0
171
     0
290
     0
174
     0
 93
        1
 44
0.0
173
     0
291
     0
 45
0.0
1001
ACAD
1000
AcDbSavedByObjectVersion
1070
     0
  0
VISUALSTYLE
  5
42F
102
{ACAD_XDICTIONARY
360
64E
102
}
102
{ACAD_REACTORS
330
424
102
}
330
424
100
AcDbVisualStyle
  2

 70
    11
 71
     2
 72
     2
 73
     0
 90
        0
 40
-0.6
 41
-30.0
 62
     5
 63
     7
 74
     1
 91
        4
 64
     7
 65
   257
 75
     1
175
     1
 42
1.0
 92
        8
 66
     7
 43
1.0
 76
     1
 77
     6
 78
     2
 67
     7
 79
     5
170
     0
171
     0
290
     0
174
     0
 93
        1
 44
-50.0
173
     0
291
     1
 45
0.0
1001
ACAD
1000
AcDbSavedByObjectVersion
1070
     0
  0
VISUALSTYLE
  5
437
102
{ACAD_XDICTIONARY
360
65E
102
}
102
{ACAD_REACTORS
330
424
102
}
330
424
100
AcDbVisualStyle
  2

 70
    22
 71
     2
 72
     2
 73
     0
 90
        0
 40
-0.6
 41
-30.0
 62
     5
 63
     7
 74
     1
 91
        4
 64
     7
 65
   257
 75
     1
175
     1
 42
1.0
 92
        8
 66
     7
 43
1.0
 76
     1
 77
     6
 78
     2
 67
     7
 79
     5
170
     0
171
     0
290
     0
174
     0
 93
        1
 44
0.0
173
     0
291
     1
 45
0.0
1001
ACAD
1000
AcDbSavedByObjectVersion
1070
     0
  0
VISUALSTYLE
  5
433
102
{ACAD_XDICTIONARY
360
656
102
}
102
{ACAD_REACTORS
330
424
102
}
330
424
100
AcDbVisualStyle
  2

 70
    15
 71
     2
 72
     2
 73
     0
 90
        0
 40
-0.6
 41
-30.0
 62
     5
 63
     7
 74
     1
 91
        4
 64
     7
 65
   257
 75
     1
175
     1
 42
1.0
 92
        8
 66
     7
 43
1.0
 76
     1
 77
     6
 78
     2
 67
     7
 79
     5
170
     0
171
     0
290
     0
174
     0
 93
        1
 44
0.0
173
     0
291
     1
 45
0.0
1001
ACAD
1000
AcDbSavedByObjectVersion
1070
     0
  0
VISUALSTYLE
  5
425
102
{ACAD_XDICTIONARY
360
63A
102
}
102
{ACAD_REACTORS
330
424
102
}
330
424
100
AcDbVisualStyle
  2

 70
     0
 71
     2
 72
     1
 73
     1
 90
        2
 40
-0.6
 41
30.0
 62
     5
 63
     7
 74
     0
 91
        4
 64
     7
 65
   257
 75
     1
175
     1
 42
1.0
 92
        8
 66
     7
 43
1.0
 76
     1
 77
     6
 78
     2
 67
     7
 79
     5
170
     0
171
     0
290
     0
174
     0
 93
       13
 44
0.0
173
     0
291
     1
 45
0.0
1001
ACAD
1000
AcDbSavedByObjectVersion
1070
     0
  0
VISUALSTYLE
  5
426
102
{ACAD_XDICTIONARY
360
63C
102
}
102
{ACAD_REACTORS
330
424
102
}
330
424
100
AcDbVisualStyle
  2

 70
     1
 71
     2
 72
     1
 73
     1
 90
        2
 40
-0.6
 41
30.0
 62
     5
 63
     7
 74
     1
 91
        4
 64
     7
 65
   257
 75
     1
175
     1
 42
1.0
 92
        0
 66
   257
 43
1.0
 76
     1
 77
     6
 78
     2
 67
     7
 79
     5
170
     0
171
     0
290
     0
174
     0
 93
       13
 44
0.0
173
     0
291
     1
 45
0.0
1001
ACAD
1000
AcDbSavedByObjectVersion
1070
     0
  0
VISUALSTYLE
  5
427
102
{ACAD_XDICTIONARY
360
63E
102
}
102
{ACAD_REACTORS
330
424
102
}
330
424
100
AcDbVisualStyle
  2

 70
     2
 71
     2
 72
     2
 73
     1
 90
        2
 40
-0.6
 41
30.0
 62
     5
 63
     7
 74
     0
 91
        4
 64
     7
 65
   257
 75
     1
175
     1
 42
1.0
 92
        0
 66
     7
 43
1.0
 76
     1
 77
     6
 78
     2
 67
     7
 79
     5
170
     0
171
     0
290
     0
174
     0
 93
       13
 44
0.0
173
     0
291
     1
 45
0.0
1001
ACAD
1000
AcDbSavedByObjectVersion
1070
     0
  0
VISUALSTYLE
  5
428
102
{ACAD_XDICTIONARY
360
640
102
}
102
{ACAD_REACTORS
330
424
102
}
330
424
100
AcDbVisualStyle
  2

 70
     3
 71
     2
 72
     2
 73
     1
 90
        2
 40
-0.6
 41
30.0
 62
     5
 63
     7
 74
     1
 91
        4
 64
     7
 65
   257
 75
     1
175
     1
 42
1.0
 92
        0
 66
   257
 43
1.0
 76
     1
 77
     6
 78
     2
 67
     7
 79
     5
170
     0
171
     0
290
     0
174
     0
 93
       13
 44
0.0
173
     0
291
     1
 45
0.0
1001
ACAD
1000
AcDbSavedByObjectVersion
1070
     0
  0
VISUALSTYLE
  5
435
102
{ACAD_XDICTIONARY
360
65A
102
}
102
{ACAD_REACTORS
330
424
102
}
330
424
100
AcDbVisualStyle
  2

 70
    20
 71
     2
 72
     2
 73
     0
 90
        0
 40
-0.6
 41
-30.0
 62
     5
 63
     7
 74
     1
 91
        4
 64
     7
 65
   257
 75
     1
175
     1
 42
1.0
 92
       10
 66
     7
 43
1.0
 76
     1
 77
     6
 78
     2
 67
     7
 79
     5
170
     0
171
     0
290
     0
174
     0
 93
        1
 44
0.0
173
     0
291
     1
 45
0.0
1001
ACAD
1000
AcDbSavedByObjectVersion
1070
     0
  0
VISUALSTYLE
  5
432
102
{ACAD_XDICTIONARY
360
654
102
}
102
{ACAD_REACTORS
330
424
102
}
330
424
100
AcDbVisualStyle
  2

 70
    14
 71
     2
 72
     2
 73
     0
 90
        0
 40
-0.6
 41
-30.0
 62
     5
 63
     7
 74
     1
 91
        4
 64
     7
 65
   257
 75
     7
175
     7
 42
1.0
 92
        8
 66
     7
 43
1.0
 76
     1
 77
     6
 78
     2
 67
     7
 79
     5
170
     0
171
     0
290
     0
174
     0
 93
        1
 44
0.0
173
     0
291
     1
 45
0.0
1001
ACAD
1000
AcDbSavedByObjectVersion
1070
     0
  0
VISUALSTYLE
  5
436
102
{ACAD_XDICTIONARY
360
65C
102
}
102
{ACAD_REACTORS
330
424
102
}
330
424
100
AcDbVisualStyle
  2

 70
    21
 71
     2
 72
     2
 73
     0
 90
        0
 40
-0.6
 41
-30.0
 62
     5
 63
     7
 74
     1
 91
        4
 64
     7
 65
   257
 75
     1
175
     1
 42
1.0
 92
        9
 66
     7
 43
1.0
 76
     1
 77
     6
 78
     2
 67
     7
 79
     5
170
     0
171
     0
290
     0
174
     0
 93
        1
 44
0.0
173
     0
291
     1
 45
0.0
1001
ACAD
1000
AcDbSavedByObjectVersion
1070
     0
  0
VISUALSTYLE
  5
42E
102
{ACAD_XDICTIONARY
360
64C
102
}
102
{ACAD_REACTORS
330
424
102
}
330
424
100
AcDbVisualStyle
  2

 70
     8
 71
     2
 72
     2
 73
     0
 90
        0
 40
-0.6
 41
-30.0
 62
     5
 63
     7
 74
     1
 91
        0
 64
     7
 65
   257
 75
     1
175
     1
 42
1.0
 92
        8
 66
     8
 43
1.0
 76
     1
 77
     6
 78
     2
 67
     7
 79
     5
170
     0
171
     0
290
     0
174
     0
 93
       13
 44
0.0
173
     0
291
     0
 45
0.0
1001
ACAD
1000
AcDbSavedByObjectVersion
1070
     0
  0
VISUALSTYLE
  5
431
102
{ACAD_XDICTIONARY
360
652
102
}
102
{ACAD_REACTORS
330
424
102
}
330
424
100
AcDbVisualStyle
  2

 70
    13
 71
     2
 72
     2
 73
     0
 90
        0
 40
-0.6
 41
-30.0
 62
     5
 63
     7
 74
     1
 91
        4
 64
     7
 65
   257
 75
     1
175
     1
 42
1.0
 92
       12
 66
     7
 43
1.0
 76
     1
 77
     6
 78
     2
 67
     7
 79
     5
170
     0
171
     0
290
     0
174
     0
 93
        1
 44
0.0
173
     0
291
     1
 45
0.0
1001
ACAD
1000
AcDbSavedByObjectVersion
1070
     0
  0
DICTIONARYVAR
  5
4D6
102
{ACAD_REACTORS
330
5E
102
}
330
5E
100
DictionaryVariables
280
     0
  1
1:1
  0
DICTIONARYVAR
  5
4D5
102
{ACAD_REACTORS
330
5E
102
}
330
5E
100
DictionaryVariables
280
     0
  1
STANDARD
  0
DICTIONARYVAR
  5
1E0
102
{ACAD_REACTORS
330
5E
102
}
330
5E
100
DictionaryVariables
280
     0
  1
STANDARD
  0
DICTIONARYVAR
  5
5F
102
{ACAD_REACTORS
330
5E
102
}
330
5E
100
DictionaryVariables
280
     0
  1
2
  0
DICTIONARYVAR
  5
63
102
{ACAD_REACTORS
330
5E
102
}
330
5E
100
DictionaryVariables
280
     0
  1
1
  0
DICTIONARYVAR
  5
4D8
102
{ACAD_REACTORS
330
5E
102
}
330
5E
100
DictionaryVariables
280
     0
  1
0
  0
DICTIONARYVAR
  5
1E1
102
{ACAD_REACTORS
330
5E
102
}
330
5E
100
DictionaryVariables
280
     0
  1

  0
DICTIONARYVAR
  5
4D7
102
{ACAD_REACTORS
330
5E
102
}
330
5E
100
DictionaryVariables
280
     0
  1
127
  0
DICTIONARYVAR
  5
627
102
{ACAD_REACTORS
330
5E
102
}
330
5E
100
DictionaryVariables
280
     0
  1
2
  0
DICTIONARY
  5
62B
330
22
100
AcDbDictionary
280
     1
281
     1
  3
ACAD_XREC_ROUNDTRIP
360
62C
  0
DICTIONARY
  5
62D
330
51
100
AcDbDictionary
280
     1
281
     1
  3
ACAD_XREC_ROUNDTRIP
360
62E
  0
DICTIONARY
  5
62F
330
56
100
AcDbDictionary
280
     1
281
     1
  3
ACAD_XREC_ROUNDTRIP
360
630
  0
DICTIONARY
  5
415
330
414
100
AcDbDictionary
280
     1
281
     1
  3
ACAD_XREC_ROUNDTRIP
360
531
  3
BUMPTILE
360
417
  3
DIFFUSETILE
360
416
  3
OPACITYTILE
360
41A
  3
REFLECTIONTILE
360
419
  3
REFRACTIONTILE
360
41B
  3
SPECULARTILE
360
418
  0
DICTIONARY
  5
40D
330
40C
100
AcDbDictionary
280
     1
281
     1
  3
ACAD_XREC_ROUNDTRIP
360
530
  3
BUMPTILE
360
40F
  3
DIFFUSETILE
360
40E
  3
OPACITYTILE
360
412
  3
REFLECTIONTILE
360
411
  3
REFRACTIONTILE
360
413
  3
SPECULARTILE
360
410
  0
DICTIONARY
  5
41D
330
41C
100
AcDbDictionary
280
     1
281
     1
  3
ACAD_XREC_ROUNDTRIP
360
532
  3
BUMPTILE
360
41F
  3
DIFFUSETILE
360
41E
  3
OPACITYTILE
360
422
  3
REFLECTIONTILE
360
421
  3
REFRACTIONTILE
360
423
  3
SPECULARTILE
360
420
  0
DICTIONARY
  5
51D
330
1CE
100
AcDbDictionary
280
     1
281
     1
  3
ACAD_ROUNDTRIP_2008_TABLESTYLE_CELLSTYLEMAP
360
628
  3
ACAD_XREC_ROUNDTRIP
360
639
  0
DICTIONARY
  5
644
330
42A
100
AcDbDictionary
280
     1
281
     1
  3
ACAD_XREC_ROUNDTRIP
360
645
  0
DICTIONARY
  5
648
330
42C
100
AcDbDictionary
280
     1
281
     1
  3
ACAD_XREC_ROUNDTRIP
360
649
  0
DICTIONARY
  5
646
330
42B
100
AcDbDictionary
280
     1
281
     1
  3
ACAD_XREC_ROUNDTRIP
360
647
  0
DICTIONARY
  5
642
330
429
100
AcDbDictionary
280
     1
281
     1
  3
ACAD_XREC_ROUNDTRIP
360
643
  0
DICTIONARY
  5
650
330
430
100
AcDbDictionary
280
     1
281
     1
  3
ACAD_XREC_ROUNDTRIP
360
651
  0
DICTIONARY
  5
658
330
434
100
AcDbDictionary
280
     1
281
     1
  3
ACAD_XREC_ROUNDTRIP
360
659
  0
DICTIONARY
  5
64A
330
42D
100
AcDbDictionary
280
     1
281
     1
  3
ACAD_XREC_ROUNDTRIP
360
64B
  0
DICTIONARY
  5
64E
330
42F
100
AcDbDictionary
280
     1
281
     1
  3
ACAD_XREC_ROUNDTRIP
360
64F
  0
DICTIONARY
  5
65E
330
437
100
AcDbDictionary
280
     1
281
     1
  3
ACAD_XREC_ROUNDTRIP
360
65F
  0
DICTIONARY
  5
656
330
433
100
AcDbDictionary
280
     1
281
     1
  3
ACAD_XREC_ROUNDTRIP
360
657
  0
DICTIONARY
  5
63A
330
425
100
AcDbDictionary
280
     1
281
     1
  3
ACAD_XREC_ROUNDTRIP
360
63B
  0
DICTIONARY
  5
63C
330
426
100
AcDbDictionary
280
     1
281
     1
  3
ACAD_XREC_ROUNDTRIP
360
63D
  0
DICTIONARY
  5
63E
330
427
100
AcDbDictionary
280
     1
281
     1
  3
ACAD_XREC_ROUNDTRIP
360
63F
  0
DICTIONARY
  5
640
330
428
100
AcDbDictionary
280
     1
281
     1
  3
ACAD_XREC_ROUNDTRIP
360
641
  0
DICTIONARY
  5
65A
330
435
100
AcDbDictionary
280
     1
281
     1
  3
ACAD_XREC_ROUNDTRIP
360
65B
  0
DICTIONARY
  5
654
330
432
100
AcDbDictionary
280
     1
281
     1
  3
ACAD_XREC_ROUNDTRIP
360
655
  0
DICTIONARY
  5
65C
330
436
100
AcDbDictionary
280
     1
281
     1
  3
ACAD_XREC_ROUNDTRIP
360
65D
  0
DICTIONARY
  5
64C
330
42E
100
AcDbDictionary
280
     1
281
     1
  3
ACAD_XREC_ROUNDTRIP
360
64D
  0
DICTIONARY
  5
652
330
431
100
AcDbDictionary
280
     1
281
     1
  3
ACAD_XREC_ROUNDTRIP
360
653
  0
XRECORD
  5
62C
102
{ACAD_REACTORS
330
62B
102
}
330
62B
100
AcDbXrecord
280
     1
102
SHADEPLOT
 70
     0
102
SHADEPLOTRESLEVEL
 70
     2
102
SHADEPLOTCUSTOMDPI
 70
   300
  0
XRECORD
  5
62E
102
{ACAD_REACTORS
330
62D
102
}
330
62D
100
AcDbXrecord
280
     1
102
SHADEPLOT
 70
     0
102
SHADEPLOTRESLEVEL
 70
     2
102
SHADEPLOTCUSTOMDPI
 70
   300
  0
XRECORD
  5
630
102
{ACAD_REACTORS
330
62F
102
}
330
62F
100
AcDbXrecord
280
     1
102
SHADEPLOT
 70
     0
102
SHADEPLOTRESLEVEL
 70
     2
102
SHADEPLOTCUSTOMDPI
 70
   300
  0
XRECORD
  5
531
102
{ACAD_REACTORS
330
415
102
}
330
415
100
AcDbXrecord
280
     1
102
MATERIAL
148
0.0
149
0.0
149
0.0
 93
        0
 94
      127
282
     0
 72
     0
 77
     0
171
     0
175
     0
179
     0
273
     0
  0
XRECORD
  5
417
102
{ACAD_REACTORS
330
415
102
}
330
415
100
AcDbXrecord
280
     1
270
     1
271
     1
  0
XRECORD
  5
416
102
{ACAD_REACTORS
330
415
102
}
330
415
100
AcDbXrecord
280
     1
270
     1
271
     1
  0
XRECORD
  5
41A
102
{ACAD_REACTORS
330
415
102
}
330
415
100
AcDbXrecord
280
     1
270
     1
271
     1
  0
XRECORD
  5
419
102
{ACAD_REACTORS
330
415
102
}
330
415
100
AcDbXrecord
280
     1
270
     1
271
     1
  0
XRECORD
  5
41B
102
{ACAD_REACTORS
330
415
102
}
330
415
100
AcDbXrecord
280
     1
270
     1
271
     1
  0
XRECORD
  5
418
102
{ACAD_REACTORS
330
415
102
}
330
415
100
AcDbXrecord
280
     1
270
     1
271
     1
  0
XRECORD
  5
530
102
{ACAD_REACTORS
330
40D
102
}
330
40D
100
AcDbXrecord
280
     1
102
MATERIAL
148
0.0
149
0.0
149
0.0
 93
        0
 94
      127
282
     0
 72
     0
 77
     0
171
     0
175
     0
179
     0
273
     0
  0
XRECORD
  5
40F
102
{ACAD_REACTORS
330
40D
102
}
330
40D
100
AcDbXrecord
280
     1
270
     1
271
     1
  0
XRECORD
  5
40E
102
{ACAD_REACTORS
330
40D
102
}
330
40D
100
AcDbXrecord
280
     1
270
     1
271
     1
  0
XRECORD
  5
412
102
{ACAD_REACTORS
330
40D
102
}
330
40D
100
AcDbXrecord
280
     1
270
     1
271
     1
  0
XRECORD
  5
411
102
{ACAD_REACTORS
330
40D
102
}
330
40D
100
AcDbXrecord
280
     1
270
     1
271
     1
  0
XRECORD
  5
413
102
{ACAD_REACTORS
330
40D
102
}
330
40D
100
AcDbXrecord
280
     1
270
     1
271
     1
  0
XRECORD
  5
410
102
{ACAD_REACTORS
330
40D
102
}
330
40D
100
AcDbXrecord
280
     1
270
     1
271
     1
  0
XRECORD
  5
532
102
{ACAD_REACTORS
330
41D
102
}
330
41D
100
AcDbXrecord
280
     1
102
MATERIAL
148
0.0
149
0.0
149
0.0
 93
        0
 94
      127
282
     0
 72
     0
 77
     0
171
     0
175
     0
179
     0
273
     0
  0
XRECORD
  5
41F
102
{ACAD_REACTORS
330
41D
102
}
330
41D
100
AcDbXrecord
280
     1
270
     1
271
     1
  0
XRECORD
  5
41E
102
{ACAD_REACTORS
330
41D
102
}
330
41D
100
AcDbXrecord
280
     1
270
     1
271
     1
  0
XRECORD
  5
422
102
{ACAD_REACTORS
330
41D
102
}
330
41D
100
AcDbXrecord
280
     1
270
     1
271
     1
  0
XRECORD
  5
421
102
{ACAD_REACTORS
330
41D
102
}
330
41D
100
AcDbXrecord
280
     1
270
     1
271
     1
  0
XRECORD
  5
423
102
{ACAD_REACTORS
330
41D
102
}
330
41D
100
AcDbXrecord
280
     1
270
     1
271
     1
  0
XRECORD
  5
420
102
{ACAD_REACTORS
330
41D
102
}
330
41D
100
AcDbXrecord
280
     1
270
     1
271
     1
  0
CELLSTYLEMAP
  5
628
102
{ACAD_REACTORS
330
51D
102
}
330
51D
100
AcDbCellStyleMap
 90
        3
300
CELLSTYLE
  1
TABLEFORMAT_BEGIN
 90
        5
170
     1
 91
        0
 92
    32768
 62
   257
 93
        1
300
CONTENTFORMAT
  1
CONTENTFORMAT_BEGIN
 90
        0
 91
        0
 92
        4
 93
        0
300

 40
0.0
140
1.0
 94
        5
 62
     0
340
11
144
6.0
309
CONTENTFORMAT_END
171
     1
301
MARGIN
  1
CELLMARGIN_BEGIN
 40
1.5
 40
1.5
 40
1.5
 40
1.5
 40
0.18
 40
0.18
309
CELLMARGIN_END
 94
        6
 95
        1
302
GRIDFORMAT
  1
GRIDFORMAT_BEGIN
 90
        0
 91
        1
 62
     0
 92
       -2
340
0
 93
        0
 40
0.045
309
GRIDFORMAT_END
 95
        2
302
GRIDFORMAT
  1
GRIDFORMAT_BEGIN
 90
        0
 91
        1
 62
     0
 92
       -2
340
0
 93
        0
 40
0.045
309
GRIDFORMAT_END
 95
        4
302
GRIDFORMAT
  1
GRIDFORMAT_BEGIN
 90
        0
 91
        1
 62
     0
 92
       -2
340
0
 93
        0
 40
0.045
309
GRIDFORMAT_END
 95
        8
302
GRIDFORMAT
  1
GRIDFORMAT_BEGIN
 90
        0
 91
        1
 62
     0
 92
       -2
340
0
 93
        0
 40
0.045
309
GRIDFORMAT_END
 95
       16
302
GRIDFORMAT
  1
GRIDFORMAT_BEGIN
 90
        0
 91
        1
 62
     0
 92
       -2
340
0
 93
        0
 40
0.045
309
GRIDFORMAT_END
 95
       32
302
GRIDFORMAT
  1
GRIDFORMAT_BEGIN
 90
        0
 91
        1
 62
     0
 92
       -2
340
0
 93
        0
 40
0.045
309
GRIDFORMAT_END
309
TABLEFORMAT_END
  1
CELLSTYLE_BEGIN
 90
        1
 91
        1
300
_TITLE
309
CELLSTYLE_END
300
CELLSTYLE
  1
TABLEFORMAT_BEGIN
 90
        5
170
     1
 91
        0
 92
        0
 62
   257
 93
        1
300
CONTENTFORMAT
  1
CONTENTFORMAT_BEGIN
 90
        0
 91
        0
 92
        4
 93
        0
300

 40
0.0
140
1.0
 94
        5
 62
     0
340
11
144
4.5
309
CONTENTFORMAT_END
171
     1
301
MARGIN
  1
CELLMARGIN_BEGIN
 40
1.5
 40
1.5
 40
1.5
 40
1.5
 40
0.18
 40
0.18
309
CELLMARGIN_END
 94
        6
 95
        1
302
GRIDFORMAT
  1
GRIDFORMAT_BEGIN
 90
        0
 91
        1
 62
     0
 92
       -2
340
0
 93
        0
 40
0.045
309
GRIDFORMAT_END
 95
        2
302
GRIDFORMAT
  1
GRIDFORMAT_BEGIN
 90
        0
 91
        1
 62
     0
 92
       -2
340
0
 93
        0
 40
0.045
309
GRIDFORMAT_END
 95
        4
302
GRIDFORMAT
  1
GRIDFORMAT_BEGIN
 90
        0
 91
        1
 62
     0
 92
       -2
340
0
 93
        0
 40
0.045
309
GRIDFORMAT_END
 95
        8
302
GRIDFORMAT
  1
GRIDFORMAT_BEGIN
 90
        0
 91
        1
 62
     0
 92
       -2
340
0
 93
        0
 40
0.045
309
GRIDFORMAT_END
 95
       16
302
GRIDFORMAT
  1
GRIDFORMAT_BEGIN
 90
        0
 91
        1
 62
     0
 92
       -2
340
0
 93
        0
 40
0.045
309
GRIDFORMAT_END
 95
       32
302
GRIDFORMAT
  1
GRIDFORMAT_BEGIN
 90
        0
 91
        1
 62
     0
 92
       -2
340
0
 93
        0
 40
0.045
309
GRIDFORMAT_END
309
TABLEFORMAT_END
  1
CELLSTYLE_BEGIN
 90
        2
 91
        1
300
_HEADER
309
CELLSTYLE_END
300
CELLSTYLE
  1
TABLEFORMAT_BEGIN
 90
        5
170
     1
 91
        0
 92
        0
 62
   257
 93
        1
300
CONTENTFORMAT
  1
CONTENTFORMAT_BEGIN
 90
        0
 91
        0
 92
        4
 93
        0
300

 40
0.0
140
1.0
 94
        2
 62
     0
340
11
144
4.5
309
CONTENTFORMAT_END
171
     1
301
MARGIN
  1
CELLMARGIN_BEGIN
 40
1.5
 40
1.5
 40
1.5
 40
1.5
 40
0.18
 40
0.18
309
CELLMARGIN_END
 94
        6
 95
        1
302
GRIDFORMAT
  1
GRIDFORMAT_BEGIN
 90
        0
 91
        1
 62
     0
 92
       -2
340
0
 93
        0
 40
0.045
309
GRIDFORMAT_END
 95
        2
302
GRIDFORMAT
  1
GRIDFORMAT_BEGIN
 90
        0
 91
        1
 62
     0
 92
       -2
340
0
 93
        0
 40
0.045
309
GRIDFORMAT_END
 95
        4
302
GRIDFORMAT
  1
GRIDFORMAT_BEGIN
 90
        0
 91
        1
 62
     0
 92
       -2
340
0
 93
        0
 40
0.045
309
GRIDFORMAT_END
 95
        8
302
GRIDFORMAT
  1
GRIDFORMAT_BEGIN
 90
        0
 91
        1
 62
     0
 92
       -2
340
0
 93
        0
 40
0.045
309
GRIDFORMAT_END
 95
       16
302
GRIDFORMAT
  1
GRIDFORMAT_BEGIN
 90
        0
 91
        1
 62
     0
 92
       -2
340
0
 93
        0
 40
0.045
309
GRIDFORMAT_END
 95
       32
302
GRIDFORMAT
  1
GRIDFORMAT_BEGIN
 90
        0
 91
        1
 62
     0
 92
       -2
340
0
 93
        0
 40
0.045
309
GRIDFORMAT_END
309
TABLEFORMAT_END
  1
CELLSTYLE_BEGIN
 90
        3
 91
        2
300
_DATA
309
CELLSTYLE_END
  0
XRECORD
  5
639
102
{ACAD_REACTORS
330
51D
102
}
330
51D
100
AcDbXrecord
280
     1
102
ACAD_ROUNDTRIP_PRE2007_TABLESTYLE
 90
        4
 91
        0
  1

 92
        4
 93
        0
  2

 94
        4
 95
        0
  3

  0
XRECORD
  5
645
102
{ACAD_REACTORS
330
644
102
}
330
644
100
AcDbXrecord
280
     1
102
RTVSPropertyOp0
 70
     1
102
RTVSPropertyOp1
 70
     1
102
RTVSPropertyOp2
 70
     1
102
RTVSPropertyOp3
 70
     1
102
RTVSPropertyOp4
 70
     1
102
RTVSPropertyOp5
 70
     1
102
RTVSPropertyOp6
 70
     1
102
RTVSPropertyOp7
 70
     1
102
RTVSPropertyOp8
 70
     1
102
RTVSPropertyOp9
 70
     1
102
RTVSPropertyOp10
 70
     1
102
RTVSPropertyOp11
 70
     1
102
RTVSPropertyOp12
 70
     1
102
RTVSPropertyOp13
 70
     1
102
RTVSPropertyOp14
 70
     1
102
RTVSPropertyOp15
 70
     1
102
RTVSPropertyOp16
 70
     1
102
RTVSPropertyOp17
 70
     1
102
RTVSPropertyOp18
 70
     1
102
RTVSPropertyOp19
 70
     1
102
RTVSPropertyOp20
 70
     1
102
RTVSPropertyOp21
 70
     1
102
RTVSPropertyOp22
 70
     1
102
RTVSPropertyOp23
 70
     1
102
RTVSPropertyOp24
 70
     1
102
RTVSPropertyOp25
 70
     1
102
RTVSPropertyOp26
 70
     1
102
RTVSPropertyOp27
 70
     1
  0
XRECORD
  5
649
102
{ACAD_REACTORS
330
648
102
}
330
648
100
AcDbXrecord
280
     1
102
RTVSPropertyOp0
 70
     1
102
RTVSPropertyOp1
 70
     1
102
RTVSPropertyOp2
 70
     1
102
RTVSPropertyOp3
 70
     1
102
RTVSPropertyOp4
 70
     1
102
RTVSPropertyOp5
 70
     1
102
RTVSPropertyOp6
 70
     1
102
RTVSPropertyOp7
 70
     1
102
RTVSPropertyOp8
 70
     1
102
RTVSPropertyOp9
 70
     1
102
RTVSPropertyOp10
 70
     1
102
RTVSPropertyOp11
 70
     1
102
RTVSPropertyOp12
 70
     1
102
RTVSPropertyOp13
 70
     1
102
RTVSPropertyOp14
 70
     1
102
RTVSPropertyOp15
 70
     1
102
RTVSPropertyOp16
 70
     1
102
RTVSPropertyOp17
 70
     1
102
RTVSPropertyOp18
 70
     1
102
RTVSPropertyOp19
 70
     1
102
RTVSPropertyOp20
 70
     1
102
RTVSPropertyOp21
 70
     1
102
RTVSPropertyOp22
 70
     1
102
RTVSPropertyOp23
 70
     1
102
RTVSPropertyOp24
 70
     1
102
RTVSPropertyOp25
 70
     1
102
RTVSPropertyOp26
 70
     1
102
RTVSPropertyOp27
 70
     1
  0
XRECORD
  5
647
102
{ACAD_REACTORS
330
646
102
}
330
646
100
AcDbXrecord
280
     1
102
RTVSPropertyOp0
 70
     1
102
RTVSPropertyOp1
 70
     1
102
RTVSPropertyOp2
 70
     1
102
RTVSPropertyOp3
 70
     1
102
RTVSPropertyOp4
 70
     1
102
RTVSPropertyOp5
 70
     1
102
RTVSPropertyOp6
 70
     1
102
RTVSPropertyOp7
 70
     1
102
RTVSPropertyOp8
 70
     1
102
RTVSPropertyOp9
 70
     1
102
RTVSPropertyOp10
 70
     1
102
RTVSPropertyOp11
 70
     1
102
RTVSPropertyOp12
 70
     1
102
RTVSPropertyOp13
 70
     1
102
RTVSPropertyOp14
 70
     1
102
RTVSPropertyOp15
 70
     1
102
RTVSPropertyOp16
 70
     1
102
RTVSPropertyOp17
 70
     1
102
RTVSPropertyOp18
 70
     1
102
RTVSPropertyOp19
 70
     1
102
RTVSPropertyOp20
 70
     1
102
RTVSPropertyOp21
 70
     1
102
RTVSPropertyOp22
 70
     1
102
RTVSPropertyOp23
 70
     1
102
RTVSPropertyOp24
 70
     1
102
RTVSPropertyOp25
 70
     1
102
RTVSPropertyOp26
 70
     1
102
RTVSPropertyOp27
 70
     1
  0
XRECORD
  5
643
102
{ACAD_REACTORS
330
642
102
}
330
642
100
AcDbXrecord
280
     1
102
RTVSPropertyOp0
 70
     1
102
RTVSPropertyOp1
 70
     1
102
RTVSPropertyOp2
 70
     1
102
RTVSPropertyOp3
 70
     1
102
RTVSPropertyOp4
 70
     1
102
RTVSPropertyOp5
 70
     1
102
RTVSPropertyOp6
 70
     1
102
RTVSPropertyOp7
 70
     1
102
RTVSPropertyOp8
 70
     1
102
RTVSPropertyOp9
 70
     1
102
RTVSPropertyOp10
 70
     1
102
RTVSPropertyOp11
 70
     1
102
RTVSPropertyOp12
 70
     1
102
RTVSPropertyOp13
 70
     1
102
RTVSPropertyOp14
 70
     1
102
RTVSPropertyOp15
 70
     1
102
RTVSPropertyOp16
 70
     1
102
RTVSPropertyOp17
 70
     1
102
RTVSPropertyOp18
 70
     1
102
RTVSPropertyOp19
 70
     1
102
RTVSPropertyOp20
 70
     1
102
RTVSPropertyOp21
 70
     1
102
RTVSPropertyOp22
 70
     1
102
RTVSPropertyOp23
 70
     1
102
RTVSPropertyOp24
 70
     1
102
RTVSPropertyOp25
 70
     1
102
RTVSPropertyOp26
 70
     1
102
RTVSPropertyOp27
 70
     1
  0
XRECORD
  5
651
102
{ACAD_REACTORS
330
650
102
}
330
650
100
AcDbXrecord
280
     1
102
RTVSPropertyOp0
 70
     1
102
RTVSPropertyOp1
 70
     1
102
RTVSPropertyOp2
 70
     1
102
RTVSPropertyOp3
 70
     1
102
RTVSPropertyOp4
 70
     1
102
RTVSPropertyOp5
 70
     1
102
RTVSPropertyOp6
 70
     1
102
RTVSPropertyOp7
 70
     1
102
RTVSPropertyOp8
 70
     1
102
RTVSPropertyOp9
 70
     1
102
RTVSPropertyOp10
 70
     1
102
RTVSPropertyOp11
 70
     1
102
RTVSPropertyOp12
 70
     1
102
RTVSPropertyOp13
 70
     1
102
RTVSPropertyOp14
 70
     1
102
RTVSPropertyOp15
 70
     1
102
RTVSPropertyOp16
 70
     1
102
RTVSPropertyOp17
 70
     1
102
RTVSPropertyOp18
 70
     1
102
RTVSPropertyOp19
 70
     1
102
RTVSPropertyOp20
 70
     1
102
RTVSPropertyOp21
 70
     1
102
RTVSPropertyOp22
 70
     1
102
RTVSPropertyOp23
 70
     1
102
RTVSPropertyOp24
 70
     1
102
RTVSPropertyOp25
 70
     1
102
RTVSPropertyOp26
 70
     1
102
RTVSPropertyOp27
 70
     1
  0
XRECORD
  5
659
102
{ACAD_REACTORS
330
658
102
}
330
658
100
AcDbXrecord
280
     1
102
RTVSPropertyOp0
 70
     1
102
RTVSPropertyOp1
 70
     1
102
RTVSPropertyOp2
 70
     1
102
RTVSPropertyOp3
 70
     1
102
RTVSPropertyOp4
 70
     1
102
RTVSPropertyOp5
 70
     1
102
RTVSPropertyOp6
 70
     1
102
RTVSPropertyOp7
 70
     1
102
RTVSPropertyOp8
 70
     1
102
RTVSPropertyOp9
 70
     1
102
RTVSPropertyOp10
 70
     1
102
RTVSPropertyOp11
 70
     1
102
RTVSPropertyOp12
 70
     1
102
RTVSPropertyOp13
 70
     1
102
RTVSPropertyOp14
 70
     1
102
RTVSPropertyOp15
 70
     1
102
RTVSPropertyOp16
 70
     1
102
RTVSPropertyOp17
 70
     1
102
RTVSPropertyOp18
 70
     1
102
RTVSPropertyOp19
 70
     1
102
RTVSPropertyOp20
 70
     1
102
RTVSPropertyOp21
 70
     1
102
RTVSPropertyOp22
 70
     1
102
RTVSPropertyOp23
 70
     1
102
RTVSPropertyOp24
 70
     1
102
RTVSPropertyOp25
 70
     1
102
RTVSPropertyOp26
 70
     1
102
RTVSPropertyOp27
 70
     1
  0
XRECORD
  5
64B
102
{ACAD_REACTORS
330
64A
102
}
330
64A
100
AcDbXrecord
280
     1
102
RTVSPropertyOp0
 70
     1
102
RTVSPropertyOp1
 70
     1
102
RTVSPropertyOp2
 70
     1
102
RTVSPropertyOp3
 70
     1
102
RTVSPropertyOp4
 70
     1
102
RTVSPropertyOp5
 70
     1
102
RTVSPropertyOp6
 70
     1
102
RTVSPropertyOp7
 70
     1
102
RTVSPropertyOp8
 70
     1
102
RTVSPropertyOp9
 70
     1
102
RTVSPropertyOp10
 70
     1
102
RTVSPropertyOp11
 70
     1
102
RTVSPropertyOp12
 70
     1
102
RTVSPropertyOp13
 70
     1
102
RTVSPropertyOp14
 70
     1
102
RTVSPropertyOp15
 70
     1
102
RTVSPropertyOp16
 70
     1
102
RTVSPropertyOp17
 70
     1
102
RTVSPropertyOp18
 70
     1
102
RTVSPropertyOp19
 70
     1
102
RTVSPropertyOp20
 70
     1
102
RTVSPropertyOp21
 70
     1
102
RTVSPropertyOp22
 70
     1
102
RTVSPropertyOp23
 70
     1
102
RTVSPropertyOp24
 70
     1
102
RTVSPropertyOp25
 70
     1
102
RTVSPropertyOp26
 70
     1
102
RTVSPropertyOp27
 70
     1
  0
XRECORD
  5
64F
102
{ACAD_REACTORS
330
64E
102
}
330
64E
100
AcDbXrecord
280
     1
102
RTVSPropertyOp0
 70
     1
102
RTVSPropertyOp1
 70
     1
102
RTVSPropertyOp2
 70
     1
102
RTVSPropertyOp3
 70
     1
102
RTVSPropertyOp4
 70
     1
102
RTVSPropertyOp5
 70
     1
102
RTVSPropertyOp6
 70
     1
102
RTVSPropertyOp7
 70
     1
102
RTVSPropertyOp8
 70
     1
102
RTVSPropertyOp9
 70
     1
102
RTVSPropertyOp10
 70
     1
102
RTVSPropertyOp11
 70
     1
102
RTVSPropertyOp12
 70
     1
102
RTVSPropertyOp13
 70
     1
102
RTVSPropertyOp14
 70
     1
102
RTVSPropertyOp15
 70
     1
102
RTVSPropertyOp16
 70
     1
102
RTVSPropertyOp17
 70
     1
102
RTVSPropertyOp18
 70
     1
102
RTVSPropertyOp19
 70
     1
102
RTVSPropertyOp20
 70
     1
102
RTVSPropertyOp21
 70
     1
102
RTVSPropertyOp22
 70
     1
102
RTVSPropertyOp23
 70
     1
102
RTVSPropertyOp24
 70
     1
102
RTVSPropertyOp25
 70
     1
102
RTVSPropertyOp26
 70
     1
102
RTVSPropertyOp27
 70
     1
  0
XRECORD
  5
65F
102
{ACAD_REACTORS
330
65E
102
}
330
65E
100
AcDbXrecord
280
     1
102
RTVSPropertyOp0
 70
     0
102
RTVSPropertyOp1
 70
     0
102
RTVSPropertyOp2
 70
     0
102
RTVSPropertyOp3
 70
     0
102
RTVSPropertyOp4
 70
     0
102
RTVSPropertyOp5
 70
     0
102
RTVSPropertyOp6
 70
     0
102
RTVSPropertyOp7
 70
     0
102
RTVSPropertyOp8
 70
     0
102
RTVSPropertyOp9
 70
     0
102
RTVSPropertyOp10
 70
     0
102
RTVSPropertyOp11
 70
     0
102
RTVSPropertyOp12
 70
     0
102
RTVSPropertyOp13
 70
     0
102
RTVSPropertyOp14
 70
     2
102
RTVSPropertyOp15
 70
     0
102
RTVSPropertyOp16
 70
     0
102
RTVSPropertyOp17
 70
     0
102
RTVSPropertyOp18
 70
     0
102
RTVSPropertyOp19
 70
     0
102
RTVSPropertyOp20
 70
     0
102
RTVSPropertyOp21
 70
     0
102
RTVSPropertyOp22
 70
     0
102
RTVSPropertyOp23
 70
     0
102
RTVSPropertyOp24
 70
     0
102
RTVSPropertyOp25
 70
     0
102
RTVSPropertyOp26
 70
     0
102
RTVSPropertyOp27
 70
     0
  0
XRECORD
  5
657
102
{ACAD_REACTORS
330
656
102
}
330
656
100
AcDbXrecord
280
     1
102
RTVSPropertyOp0
 70
     1
102
RTVSPropertyOp1
 70
     1
102
RTVSPropertyOp2
 70
     1
102
RTVSPropertyOp3
 70
     1
102
RTVSPropertyOp4
 70
     1
102
RTVSPropertyOp5
 70
     1
102
RTVSPropertyOp6
 70
     1
102
RTVSPropertyOp7
 70
     1
102
RTVSPropertyOp8
 70
     1
102
RTVSPropertyOp9
 70
     1
102
RTVSPropertyOp10
 70
     1
102
RTVSPropertyOp11
 70
     1
102
RTVSPropertyOp12
 70
     1
102
RTVSPropertyOp13
 70
     1
102
RTVSPropertyOp14
 70
     1
102
RTVSPropertyOp15
 70
     1
102
RTVSPropertyOp16
 70
     1
102
RTVSPropertyOp17
 70
     1
102
RTVSPropertyOp18
 70
     1
102
RTVSPropertyOp19
 70
     1
102
RTVSPropertyOp20
 70
     1
102
RTVSPropertyOp21
 70
     1
102
RTVSPropertyOp22
 70
     1
102
RTVSPropertyOp23
 70
     1
102
RTVSPropertyOp24
 70
     1
102
RTVSPropertyOp25
 70
     1
102
RTVSPropertyOp26
 70
     1
102
RTVSPropertyOp27
 70
     1
  0
XRECORD
  5
63B
102
{ACAD_REACTORS
330
63A
102
}
330
63A
100
AcDbXrecord
280
     1
102
RTVSPropertyOp0
 70
     1
102
RTVSPropertyOp1
 70
     1
102
RTVSPropertyOp2
 70
     1
102
RTVSPropertyOp3
 70
     1
102
RTVSPropertyOp4
 70
     1
102
RTVSPropertyOp5
 70
     1
102
RTVSPropertyOp6
 70
     1
102
RTVSPropertyOp7
 70
     1
102
RTVSPropertyOp8
 70
     1
102
RTVSPropertyOp9
 70
     1
102
RTVSPropertyOp10
 70
     1
102
RTVSPropertyOp11
 70
     1
102
RTVSPropertyOp12
 70
     1
102
RTVSPropertyOp13
 70
     1
102
RTVSPropertyOp14
 70
     1
102
RTVSPropertyOp15
 70
     1
102
RTVSPropertyOp16
 70
     1
102
RTVSPropertyOp17
 70
     1
102
RTVSPropertyOp18
 70
     1
102
RTVSPropertyOp19
 70
     1
102
RTVSPropertyOp20
 70
     1
102
RTVSPropertyOp21
 70
     1
102
RTVSPropertyOp22
 70
     1
102
RTVSPropertyOp23
 70
     1
102
RTVSPropertyOp24
 70
     1
102
RTVSPropertyOp25
 70
     1
102
RTVSPropertyOp26
 70
     1
102
RTVSPropertyOp27
 70
     1
  0
XRECORD
  5
63D
102
{ACAD_REACTORS
330
63C
102
}
330
63C
100
AcDbXrecord
280
     1
102
RTVSPropertyOp0
 70
     1
102
RTVSPropertyOp1
 70
     1
102
RTVSPropertyOp2
 70
     1
102
RTVSPropertyOp3
 70
     1
102
RTVSPropertyOp4
 70
     1
102
RTVSPropertyOp5
 70
     1
102
RTVSPropertyOp6
 70
     1
102
RTVSPropertyOp7
 70
     1
102
RTVSPropertyOp8
 70
     1
102
RTVSPropertyOp9
 70
     1
102
RTVSPropertyOp10
 70
     1
102
RTVSPropertyOp11
 70
     1
102
RTVSPropertyOp12
 70
     1
102
RTVSPropertyOp13
 70
     1
102
RTVSPropertyOp14
 70
     1
102
RTVSPropertyOp15
 70
     1
102
RTVSPropertyOp16
 70
     1
102
RTVSPropertyOp17
 70
     1
102
RTVSPropertyOp18
 70
     1
102
RTVSPropertyOp19
 70
     1
102
RTVSPropertyOp20
 70
     1
102
RTVSPropertyOp21
 70
     1
102
RTVSPropertyOp22
 70
     1
102
RTVSPropertyOp23
 70
     1
102
RTVSPropertyOp24
 70
     1
102
RTVSPropertyOp25
 70
     1
102
RTVSPropertyOp26
 70
     1
102
RTVSPropertyOp27
 70
     1
  0
XRECORD
  5
63F
102
{ACAD_REACTORS
330
63E
102
}
330
63E
100
AcDbXrecord
280
     1
102
RTVSPropertyOp0
 70
     1
102
RTVSPropertyOp1
 70
     1
102
RTVSPropertyOp2
 70
     1
102
RTVSPropertyOp3
 70
     1
102
RTVSPropertyOp4
 70
     1
102
RTVSPropertyOp5
 70
     1
102
RTVSPropertyOp6
 70
     1
102
RTVSPropertyOp7
 70
     1
102
RTVSPropertyOp8
 70
     1
102
RTVSPropertyOp9
 70
     1
102
RTVSPropertyOp10
 70
     1
102
RTVSPropertyOp11
 70
     1
102
RTVSPropertyOp12
 70
     1
102
RTVSPropertyOp13
 70
     1
102
RTVSPropertyOp14
 70
     1
102
RTVSPropertyOp15
 70
     1
102
RTVSPropertyOp16
 70
     1
102
RTVSPropertyOp17
 70
     1
102
RTVSPropertyOp18
 70
     1
102
RTVSPropertyOp19
 70
     1
102
RTVSPropertyOp20
 70
     1
102
RTVSPropertyOp21
 70
     1
102
RTVSPropertyOp22
 70
     1
102
RTVSPropertyOp23
 70
     1
102
RTVSPropertyOp24
 70
     1
102
RTVSPropertyOp25
 70
     1
102
RTVSPropertyOp26
 70
     1
102
RTVSPropertyOp27
 70
     1
  0
XRECORD
  5
641
102
{ACAD_REACTORS
330
640
102
}
330
640
100
AcDbXrecord
280
     1
102
RTVSPropertyOp0
 70
     1
102
RTVSPropertyOp1
 70
     1
102
RTVSPropertyOp2
 70
     1
102
RTVSPropertyOp3
 70
     1
102
RTVSPropertyOp4
 70
     1
102
RTVSPropertyOp5
 70
     1
102
RTVSPropertyOp6
 70
     1
102
RTVSPropertyOp7
 70
     1
102
RTVSPropertyOp8
 70
     1
102
RTVSPropertyOp9
 70
     1
102
RTVSPropertyOp10
 70
     1
102
RTVSPropertyOp11
 70
     1
102
RTVSPropertyOp12
 70
     1
102
RTVSPropertyOp13
 70
     1
102
RTVSPropertyOp14
 70
     1
102
RTVSPropertyOp15
 70
     1
102
RTVSPropertyOp16
 70
     1
102
RTVSPropertyOp17
 70
     1
102
RTVSPropertyOp18
 70
     1
102
RTVSPropertyOp19
 70
     1
102
RTVSPropertyOp20
 70
     1
102
RTVSPropertyOp21
 70
     1
102
RTVSPropertyOp22
 70
     1
102
RTVSPropertyOp23
 70
     1
102
RTVSPropertyOp24
 70
     1
102
RTVSPropertyOp25
 70
     1
102
RTVSPropertyOp26
 70
     1
102
RTVSPropertyOp27
 70
     1
  0
XRECORD
  5
65B
102
{ACAD_REACTORS
330
65A
102
}
330
65A
100
AcDbXrecord
280
     1
102
RTVSPropertyOp0
 70
     0
102
RTVSPropertyOp1
 70
     0
102
RTVSPropertyOp2
 70
     0
102
RTVSPropertyOp3
 70
     0
102
RTVSPropertyOp4
 70
     0
102
RTVSPropertyOp5
 70
     0
102
RTVSPropertyOp6
 70
     0
102
RTVSPropertyOp7
 70
     0
102
RTVSPropertyOp8
 70
     0
102
RTVSPropertyOp9
 70
     0
102
RTVSPropertyOp10
 70
     0
102
RTVSPropertyOp11
 70
     0
102
RTVSPropertyOp12
 70
     0
102
RTVSPropertyOp13
 70
     0
102
RTVSPropertyOp14
 70
     2
102
RTVSPropertyOp15
 70
     0
102
RTVSPropertyOp16
 70
     0
102
RTVSPropertyOp17
 70
     0
102
RTVSPropertyOp18
 70
     0
102
RTVSPropertyOp19
 70
     0
102
RTVSPropertyOp20
 70
     0
102
RTVSPropertyOp21
 70
     0
102
RTVSPropertyOp22
 70
     0
102
RTVSPropertyOp23
 70
     0
102
RTVSPropertyOp24
 70
     0
102
RTVSPropertyOp25
 70
     0
102
RTVSPropertyOp26
 70
     0
102
RTVSPropertyOp27
 70
     0
  0
XRECORD
  5
655
102
{ACAD_REACTORS
330
654
102
}
330
654
100
AcDbXrecord
280
     1
102
RTVSPropertyOp0
 70
     1
102
RTVSPropertyOp1
 70
     1
102
RTVSPropertyOp2
 70
     1
102
RTVSPropertyOp3
 70
     1
102
RTVSPropertyOp4
 70
     1
102
RTVSPropertyOp5
 70
     1
102
RTVSPropertyOp6
 70
     1
102
RTVSPropertyOp7
 70
     1
102
RTVSPropertyOp8
 70
     1
102
RTVSPropertyOp9
 70
     1
102
RTVSPropertyOp10
 70
     1
102
RTVSPropertyOp11
 70
     1
102
RTVSPropertyOp12
 70
     1
102
RTVSPropertyOp13
 70
     1
102
RTVSPropertyOp14
 70
     1
102
RTVSPropertyOp15
 70
     1
102
RTVSPropertyOp16
 70
     1
102
RTVSPropertyOp17
 70
     1
102
RTVSPropertyOp18
 70
     1
102
RTVSPropertyOp19
 70
     1
102
RTVSPropertyOp20
 70
     1
102
RTVSPropertyOp21
 70
     1
102
RTVSPropertyOp22
 70
     1
102
RTVSPropertyOp23
 70
     1
102
RTVSPropertyOp24
 70
     1
102
RTVSPropertyOp25
 70
     1
102
RTVSPropertyOp26
 70
     1
102
RTVSPropertyOp27
 70
     1
  0
XRECORD
  5
65D
102
{ACAD_REACTORS
330
65C
102
}
330
65C
100
AcDbXrecord
280
     1
102
RTVSPropertyOp0
 70
     0
102
RTVSPropertyOp1
 70
     0
102
RTVSPropertyOp2
 70
     0
102
RTVSPropertyOp3
 70
     0
102
RTVSPropertyOp4
 70
     0
102
RTVSPropertyOp5
 70
     0
102
RTVSPropertyOp6
 70
     0
102
RTVSPropertyOp7
 70
     0
102
RTVSPropertyOp8
 70
     0
102
RTVSPropertyOp9
 70
     0
102
RTVSPropertyOp10
 70
     0
102
RTVSPropertyOp11
 70
     0
102
RTVSPropertyOp12
 70
     0
102
RTVSPropertyOp13
 70
     0
102
RTVSPropertyOp14
 70
     2
102
RTVSPropertyOp15
 70
     0
102
RTVSPropertyOp16
 70
     0
102
RTVSPropertyOp17
 70
     0
102
RTVSPropertyOp18
 70
     0
102
RTVSPropertyOp19
 70
     0
102
RTVSPropertyOp20
 70
     0
102
RTVSPropertyOp21
 70
     0
102
RTVSPropertyOp22
 70
     0
102
RTVSPropertyOp23
 70
     0
102
RTVSPropertyOp24
 70
     0
102
RTVSPropertyOp25
 70
     0
102
RTVSPropertyOp26
 70
     0
102
RTVSPropertyOp27
 70
     0
  0
XRECORD
  5
64D
102
{ACAD_REACTORS
330
64C
102
}
330
64C
100
AcDbXrecord
280
     1
102
RTVSPropertyOp0
 70
     1
102
RTVSPropertyOp1
 70
     1
102
RTVSPropertyOp2
 70
     1
102
RTVSPropertyOp3
 70
     1
102
RTVSPropertyOp4
 70
     1
102
RTVSPropertyOp5
 70
     1
102
RTVSPropertyOp6
 70
     1
102
RTVSPropertyOp7
 70
     1
102
RTVSPropertyOp8
 70
     1
102
RTVSPropertyOp9
 70
     1
102
RTVSPropertyOp10
 70
     1
102
RTVSPropertyOp11
 70
     1
102
RTVSPropertyOp12
 70
     1
102
RTVSPropertyOp13
 70
     1
102
RTVSPropertyOp14
 70
     1
102
RTVSPropertyOp15
 70
     1
102
RTVSPropertyOp16
 70
     1
102
RTVSPropertyOp17
 70
     1
102
RTVSPropertyOp18
 70
     1
102
RTVSPropertyOp19
 70
     1
102
RTVSPropertyOp20
 70
     1
102
RTVSPropertyOp21
 70
     1
102
RTVSPropertyOp22
 70
     1
102
RTVSPropertyOp23
 70
     1
102
RTVSPropertyOp24
 70
     1
102
RTVSPropertyOp25
 70
     1
102
RTVSPropertyOp26
 70
     1
102
RTVSPropertyOp27
 70
     1
  0
XRECORD
  5
653
102
{ACAD_REACTORS
330
652
102
}
330
652
100
AcDbXrecord
280
     1
102
RTVSPropertyOp0
 70
     1
102
RTVSPropertyOp1
 70
     1
102
RTVSPropertyOp2
 70
     1
102
RTVSPropertyOp3
 70
     1
102
RTVSPropertyOp4
 70
     1
102
RTVSPropertyOp5
 70
     1
102
RTVSPropertyOp6
 70
     1
102
RTVSPropertyOp7
 70
     1
102
RTVSPropertyOp8
 70
     1
102
RTVSPropertyOp9
 70
     1
102
RTVSPropertyOp10
 70
     1
102
RTVSPropertyOp11
 70
     1
102
RTVSPropertyOp12
 70
     1
102
RTVSPropertyOp13
 70
     1
102
RTVSPropertyOp14
 70
     1
102
RTVSPropertyOp15
 70
     1
102
RTVSPropertyOp16
 70
     1
102
RTVSPropertyOp17
 70
     1
102
RTVSPropertyOp18
 70
     1
102
RTVSPropertyOp19
 70
     1
102
RTVSPropertyOp20
 70
     1
102
RTVSPropertyOp21
 70
     1
102
RTVSPropertyOp22
 70
     1
102
RTVSPropertyOp23
 70
     1
102
RTVSPropertyOp24
 70
     1
102
RTVSPropertyOp25
 70
     1
102
RTVSPropertyOp26
 70
     1
102
RTVSPropertyOp27
 70
     1
  0
ENDSEC
  0
EOF
