  0
SECTION
  2
HEADER
  9
$ACADVER
  1
AC1015
  9
$ACADMAINTVER
 70
    20
  9
$DWGCODEPAGE
  3
ANSI_932
  9
$INSBASE
 10
0.0
 20
0.0
 30
0.0
  9
$EXTMIN
 10
-10.77143499999996
 20
-14.78531599999996
 30
0.0
  9
$EXTMAX
 10
194.3424879999997
 20
260.4008160000001
 30
0.0
  9
$LIMMIN
 10
0.0
 20
0.0
  9
$LIMMAX
 10
420.0
 20
297.0
  9
$ORTHOMODE
 70
     1
  9
$REGENMODE
 70
     1
  9
$FILLMODE
 70
     1
  9
$QTEXTMODE
 70
     0
  9
$MIRRTEXT
 70
     1
  9
$LTSCALE
 40
1.0
  9
$ATTMODE
 70
     1
  9
$TEXTSIZE
 40
2.5
  9
$TRACEWID
 40
1.0
  9
$TEXTSTYLE
  7
Standard
  9
$CLAYER
  8
0
  9
$CELTYPE
  6
ByLayer
  9
$CECOLOR
 62
   256
  9
$CELTSCALE
 40
1.0
  9
$DISPSILH
 70
     0
  9
$DIMSCALE
 40
1.0
  9
$DIMASZ
 40
0.18
  9
$DIMEXO
 40
0.0625
  9
$DIMDLI
 40
0.38
  9
$DIMRND
 40
0.0
  9
$DIMDLE
 40
0.0
  9
$DIMEXE
 40
0.18
  9
$DIMTP
 40
0.0
  9
$DIMTM
 40
0.0
  9
$DIMTXT
 40
0.18
  9
$DIMCEN
 40
0.09
  9
$DIMTSZ
 40
0.0
  9
$DIMTOL
 70
     0
  9
$DIMLIM
 70
     0
  9
$DIMTIH
 70
     1
  9
$DIMTOH
 70
     1
  9
$DIMSE1
 70
     0
  9
$DIMSE2
 70
     0
  9
$DIMTAD
 70
     0
  9
$DIMZIN
 70
     0
  9
$DIMBLK
  1

  9
$DIMASO
 70
     1
  9
$DIMSHO
 70
     1
  9
$DIMPOST
  1

  9
$DIMAPOST
  1

  9
$DIMALT
 70
     0
  9
$DIMALTD
 70
     2
  9
$DIMALTF
 40
25.4
  9
$DIMLFAC
 40
1.0
  9
$DIMTOFL
 70
     0
  9
$DIMTVP
 40
0.0
  9
$DIMTIX
 70
     0
  9
$DIMSOXD
 70
     0
  9
$DIMSAH
 70
     0
  9
$DIMBLK1
  1

  9
$DIMBLK2
  1

  9
$DIMSTYLE
  2
Standard
  9
$DIMCLRD
 70
     0
  9
$DIMCLRE
 70
     0
  9
$DIMCLRT
 70
     0
  9
$DIMTFAC
 40
1.0
  9
$DIMGAP
 40
0.09
  9
$DIMJUST
 70
     0
  9
$DIMSD1
 70
     0
  9
$DIMSD2
 70
     0
  9
$DIMTOLJ
 70
     1
  9
$DIMTZIN
 70
     0
  9
$DIMALTZ
 70
     0
  9
$DIMALTTZ
 70
     0
  9
$DIMUPT
 70
     0
  9
$DIMDEC
 70
     4
  9
$DIMTDEC
 70
     4
  9
$DIMALTU
 70
     2
  9
$DIMALTTD
 70
     2
  9
$DIMTXSTY
  7
Standard
  9
$DIMAUNIT
 70
     0
  9
$DIMADEC
 70
     0
  9
$DIMALTRND
 40
0.0
  9
$DIMAZIN
 70
     0
  9
$DIMDSEP
 70
    46
  9
$DIMATFIT
 70
     3
  9
$DIMFRAC
 70
     0
  9
$DIMLDRBLK
  1

  9
$DIMLUNIT
 70
     2
  9
$DIMLWD
 70
    -2
  9
$DIMLWE
 70
    -2
  9
$DIMTMOVE
 70
     0
  9
$LUNITS
 70
     2
  9
$LUPREC
 70
     4
  9
$SKETCHINC
 40
1.0
  9
$FILLETRAD
 40
0.0
  9
$AUNITS
 70
     0
  9
$AUPREC
 70
     0
  9
$MENU
  1
.
  9
$ELEVATION
 40
0.0
  9
$PELEVATION
 40
0.0
  9
$THICKNESS
 40
0.0
  9
$LIMCHECK
 70
     0
  9
$CHAMFERA
 40
10.0
  9
$CHAMFERB
 40
10.0
  9
$CHAMFERC
 40
20.0
  9
$CHAMFERD
 40
0.0
  9
$SKPOLY
 70
     0
  9
$TDCREATE
 40
2453249.553566794
  9
$TDUCREATE
 40
2453249.178566794
  9
$TDUPDATE
 40
2456722.502207025
  9
$TDUUPDATE
 40
2456722.127207026
  9
$TDINDWG
 40
0.1824515278
  9
$TDUSRTIMER
 40
0.1824426968
  9
$USRTIMER
 70
     1
  9
$ANGBASE
 50
0.0
  9
$ANGDIR
 70
     0
  9
$PDMODE
 70
     0
  9
$PDSIZE
 40
0.0
  9
$PLINEWID
 40
0.0
  9
$SPLFRAME
 70
     0
  9
$SPLINETYPE
 70
     6
  9
$SPLINESEGS
 70
     8
  9
$HANDSEED
  5
2C1A
  9
$SURFTAB1
 70
     6
  9
$SURFTAB2
 70
     6
  9
$SURFTYPE
 70
     6
  9
$SURFU
 70
     6
  9
$SURFV
 70
     6
  9
$UCSBASE
  2

  9
$UCSNAME
  2

  9
$UCSORG
 10
0.0
 20
0.0
 30
0.0
  9
$UCSXDIR
 10
1.0
 20
0.0
 30
0.0
  9
$UCSYDIR
 10
0.0
 20
1.0
 30
0.0
  9
$UCSORTHOREF
  2

  9
$UCSORTHOVIEW
 70
     0
  9
$UCSORGTOP
 10
0.0
 20
0.0
 30
0.0
  9
$UCSORGBOTTOM
 10
0.0
 20
0.0
 30
0.0
  9
$UCSORGLEFT
 10
0.0
 20
0.0
 30
0.0
  9
$UCSORGRIGHT
 10
0.0
 20
0.0
 30
0.0
  9
$UCSORGFRONT
 10
0.0
 20
0.0
 30
0.0
  9
$UCSORGBACK
 10
0.0
 20
0.0
 30
0.0
  9
$PUCSBASE
  2

  9
$PUCSNAME
  2

  9
$PUCSORG
 10
0.0
 20
0.0
 30
0.0
  9
$PUCSXDIR
 10
1.0
 20
0.0
 30
0.0
  9
$PUCSYDIR
 10
0.0
 20
1.0
 30
0.0
  9
$PUCSORTHOREF
  2

  9
$PUCSORTHOVIEW
 70
     0
  9
$PUCSORGTOP
 10
0.0
 20
0.0
 30
0.0
  9
$PUCSORGBOTTOM
 10
0.0
 20
0.0
 30
0.0
  9
$PUCSORGLEFT
 10
0.0
 20
0.0
 30
0.0
  9
$PUCSORGRIGHT
 10
0.0
 20
0.0
 30
0.0
  9
$PUCSORGFRONT
 10
0.0
 20
0.0
 30
0.0
  9
$PUCSORGBACK
 10
0.0
 20
0.0
 30
0.0
  9
$USERI1
 70
     0
  9
$USERI2
 70
     0
  9
$USERI3
 70
     0
  9
$USERI4
 70
     0
  9
$USERI5
 70
     0
  9
$USERR1
 40
0.0
  9
$USERR2
 40
0.0
  9
$USERR3
 40
0.0
  9
$USERR4
 40
0.0
  9
$USERR5
 40
0.0
  9
$WORLDVIEW
 70
     1
  9
$SHADEDGE
 70
     3
  9
$SHADEDIF
 70
    70
  9
$TILEMODE
 70
     1
  9
$MAXACTVP
 70
    64
  9
$PINSBASE
 10
0.0
 20
0.0
 30
0.0
  9
$PLIMCHECK
 70
     0
  9
$PEXTMIN
 10
26.66076962115562
 20
20.31135699206657
 30
-0.0015258207003583
  9
$PEXTMAX
 10
240.039213369355
 20
182.8886381005154
 30
0.0000000349246037
  9
$PLIMMIN
 10
-6.350006103515625
 20
-6.349999904632567
  9
$PLIMMAX
 10
273.0499877929687
 20
209.5499939918517
  9
$UNITMODE
 70
     0
  9
$VISRETAIN
 70
     1
  9
$PLINEGEN
 70
     0
  9
$PSLTSCALE
 70
     1
  9
$TREEDEPTH
 70
  3020
  9
$CMLSTYLE
  2
Standard
  9
$CMLJUST
 70
     0
  9
$CMLSCALE
 40
20.0
  9
$PROXYGRAPHICS
 70
     1
  9
$MEASUREMENT
 70
     1
  9
$CELWEIGHT
370
    -1
  9
$ENDCAPS
280
     0
  9
$JOINSTYLE
280
     0
  9
$LWDISPLAY
290
     0
  9
$INSUNITS
 70
     4
  9
$HYPERLINKBASE
  1

  9
$STYLESHEET
  1
MONOCHROME.CTB
  9
$XEDIT
290
     1
  9
$CEPSNTYPE
380
     0
  9
$PSTYLEMODE
290
     1
  9
$FINGERPRINTGUID
  2
{FDEAD578-A652-11D2-9A35-0060089B3A3F}
  9
$VERSIONGUID
  2
{E4652C28-F78D-40D0-808C-95634D9BD2CC}
  9
$EXTNAMES
290
     1
  9
$PSVPSCALE
 40
0.0
  9
$OLESTARTUP
290
     0
  0
ENDSEC
  0
SECTION
  2
CLASSES
  0
CLASS
  1
ACDBDICTIONARYWDFLT
  2
AcDbDictionaryWithDefault
  3
ObjectDBX Classes
 90
        0
280
     0
281
     0
  0
CLASS
  1
ACDBPLACEHOLDER
  2
AcDbPlaceHolder
  3
ObjectDBX Classes
 90
        0
280
     0
281
     0
  0
CLASS
  1
LAYOUT
  2
AcDbLayout
  3
ObjectDBX Classes
 90
        0
280
     0
281
     0
  0
CLASS
  1
DICTIONARYVAR
  2
AcDbDictionaryVar
  3
ObjectDBX Classes
 90
        0
280
     0
281
     0
  0
CLASS
  1
TABLESTYLE
  2
AcDbTableStyle
  3
ObjectDBX Classes
 90
     4095
280
     0
281
     0
  0
CLASS
  1
SORTENTSTABLE
  2
AcDbSortentsTable
  3
ObjectDBX Classes
 90
        0
280
     0
281
     0
  0
CLASS
  1
MATERIAL
  2
AcDbMaterial
  3
ObjectDBX Classes
 90
     1153
280
     0
281
     0
  0
CLASS
  1
VISUALSTYLE
  2
AcDbVisualStyle
  3
ObjectDBX Classes
 90
     4095
280
     0
281
     0
  0
CLASS
  1
SCALE
  2
AcDbScale
  3
ObjectDBX Classes
 90
     1153
280
     0
281
     0
  0
CLASS
  1
MLEADERSTYLE
  2
AcDbMLeaderStyle
  3
ACDB_MLEADERSTYLE_CLASS
 90
     4095
280
     0
281
     0
  0
CLASS
  1
AEC_REFEDIT_STATUS_TRACKER
  2
AecDbRefEditStatusTracker
  3
AecArchBase60|Product Desc: Autodesk Architectural Desktop 2007 |Company: Autodesk,Inc. |WEB Address: www.autodesk.com
 90
    32897
280
     0
281
     0
  0
CLASS
  1
NPOCOLLECTION
  2
AcDbImpNonPersistentObjectsCollection
  3
ObjectDBX Classes
 90
    33921
280
     0
281
     0
  0
CLASS
  1
CELLSTYLEMAP
  2
AcDbCellStyleMap
  3
ObjectDBX Classes
 90
     1152
280
     0
281
     0
  0
CLASS
  1
DIMASSOC
  2
AcDbDimAssoc
  3
"AcDbDimAssoc|Product Desc:     AcDim ARX App For Dimension|Company:          Autodesk, Inc.|WEB Address:      www.autodesk.com"
 90
    32768
280
     0
281
     0
  0
ENDSEC
  0
SECTION
  2
TABLES
  0
TABLE
  2
VPORT
  5
8
102
{ACAD_XDICTIONARY
360
3AE
102
}
330
0
100
AcDbSymbolTable
 70
     1
  0
VPORT
  5
32B
330
8
100
AcDbSymbolTableRecord
100
AcDbViewportTableRecord
  2
*Active
 70
     0
 10
0.0
 20
0.0
 11
1.0
 21
1.0
 12
91.78513276466862
 22
122.8151273781418
 13
0.0
 23
0.0
 14
10.0
 24
10.0
 15
10.0
 25
10.0
 16
0.0
 26
0.0
 36
1.0
 17
0.0
 27
0.0
 37
0.0
 40
277.2427950845199
 41
1.737456242707117
 42
50.0
 43
0.0
 44
0.0
 50
0.0
 51
0.0
 71
     0
 72
   100
 73
     1
 74
     3
 75
     0
 76
     0
 77
     0
 78
     0
281
     0
 65
     1
110
0.0
120
0.0
130
0.0
111
1.0
121
0.0
131
0.0
112
0.0
122
1.0
132
0.0
 79
     0
146
0.0
  0
ENDTAB
  0
TABLE
  2
LTYPE
  5
5
330
0
100
AcDbSymbolTable
 70
     2
  0
LTYPE
  5
14
330
5
100
AcDbSymbolTableRecord
100
AcDbLinetypeTableRecord
  2
ByBlock
 70
     0
  3

 72
    65
 73
     0
 40
0.0
  0
LTYPE
  5
15
330
5
100
AcDbSymbolTableRecord
100
AcDbLinetypeTableRecord
  2
ByLayer
 70
     0
  3

 72
    65
 73
     0
 40
0.0
  0
LTYPE
  5
16
330
5
100
AcDbSymbolTableRecord
100
AcDbLinetypeTableRecord
  2
Continuous
 70
     0
  3
Solid line
 72
    65
 73
     0
 40
0.0
  0
ENDTAB
  0
TABLE
  2
LAYER
  5
2
330
0
100
AcDbSymbolTable
 70
     3
  0
LAYER
  5
10
102
{ACAD_XDICTIONARY
360
39E
102
}
330
2
100
AcDbSymbolTableRecord
100
AcDbLayerTableRecord
  2
0
 70
     0
 62
     7
  6
Continuous
370
    -3
390
F
  0
LAYER
  5
86
102
{ACAD_XDICTIONARY
360
3A0
102
}
330
2
100
AcDbSymbolTableRecord
100
AcDbLayerTableRecord
  2
レイヤー_5
 70
     0
 62
     2
  6
Continuous
370
    -3
390
F
  0
LAYER
  5
87
102
{ACAD_XDICTIONARY
360
3A2
102
}
330
2
100
AcDbSymbolTableRecord
100
AcDbLayerTableRecord
  2
VPORT-BORDERS
 70
     0
 62
     5
  6
Continuous
370
    -3
390
F
  0
ENDTAB
  0
TABLE
  2
STYLE
  5
3
330
0
100
AcDbSymbolTable
 70
     2
  0
STYLE
  5
11
330
3
100
AcDbSymbolTableRecord
100
AcDbTextStyleTableRecord
  2
Standard
 70
     0
 40
0.0
 41
1.0
 50
0.0
 71
     0
 42
2.5
  3
txt
  4

  0
STYLE
  5
88
330
3
100
AcDbSymbolTableRecord
100
AcDbTextStyleTableRecord
  2
STD
 70
     0
 40
0.0
 41
1.0
 50
0.0
 71
     0
 42
0.0
  3
txt
  4

  0
ENDTAB
  0
TABLE
  2
VIEW
  5
6
330
0
100
AcDbSymbolTable
 70
     0
  0
ENDTAB
  0
TABLE
  2
UCS
  5
7
330
0
100
AcDbSymbolTable
 70
     0
  0
ENDTAB
  0
TABLE
  2
APPID
  5
9
330
0
100
AcDbSymbolTable
 70
     3
  0
APPID
  5
12
330
9
100
AcDbSymbolTableRecord
100
AcDbRegAppTableRecord
  2
ACAD
 70
     0
  0
APPID
  5
3E8
330
9
100
AcDbSymbolTableRecord
100
AcDbRegAppTableRecord
  2
ACAD_MLEADERVER
 70
     0
  0
APPID
  5
2ACC
330
9
100
AcDbSymbolTableRecord
100
AcDbRegAppTableRecord
  2
ACAD_EXEMPT_FROM_CAD_STANDARDS
 70
     0
  0
ENDTAB
  0
TABLE
  2
DIMSTYLE
  5
A
330
0
100
AcDbSymbolTable
 70
     2
100
AcDbDimStyleTable
 71
     1
340
89
  0
DIMSTYLE
105
89
330
A
100
AcDbSymbolTableRecord
100
AcDbDimStyleTableRecord
  2
Standard
 70
     0
340
11
  0
ENDTAB
  0
TABLE
  2
BLOCK_RECORD
  5
1
330
0
100
AcDbSymbolTable
 70
     2
  0
BLOCK_RECORD
  5
1F
102
{ACAD_XDICTIONARY
360
206
102
}
330
1
100
AcDbSymbolTableRecord
100
AcDbBlockTableRecord
  2
*Model_Space
340
22
  0
BLOCK_RECORD
  5
55
330
1
100
AcDbSymbolTableRecord
100
AcDbBlockTableRecord
  2
*Paper_Space
340
56
  0
BLOCK_RECORD
  5
50
330
1
100
AcDbSymbolTableRecord
100
AcDbBlockTableRecord
  2
*Paper_Space0
340
51
  0
ENDTAB
  0
ENDSEC
  0
SECTION
  2
BLOCKS
  0
BLOCK
  5
20
330
1F
100
AcDbEntity
  8
0
100
AcDbBlockBegin
  2
*Model_Space
 70
     0
 10
0.0
 20
0.0
 30
0.0
  3
*Model_Space
  1

  0
ENDBLK
  5
21
330
1F
100
AcDbEntity
  8
0
100
AcDbBlockEnd
  0
BLOCK
  5
57
330
55
100
AcDbEntity
 67
     1
  8
0
100
AcDbBlockBegin
  2
*Paper_Space
 70
     0
 10
0.0
 20
0.0
 30
0.0
  3
*Paper_Space
  1

  0
ENDBLK
  5
58
330
55
100
AcDbEntity
 67
     1
  8
0
100
AcDbBlockEnd
  0
BLOCK
  5
52
330
50
100
AcDbEntity
 67
     1
  8
0
100
AcDbBlockBegin
  2
*Paper_Space0
 70
     0
 10
0.0
 20
0.0
 30
0.0
  3
*Paper_Space0
  1

  0
VIEWPORT
  5
6B
102
{ACAD_XDICTIONARY
360
2BEB
102
}
330
50
100
AcDbEntity
 67
     1
  8
0
100
AcDbViewport
 10
133.3499908447265
 20
101.5999970436096
 30
0.0
 40
381.3957395593833
 41
218.2856291881582
 68
     0
 69
     0
 12
133.3499908447265
 22
101.5999970436096
 13
0.0
 23
0.0
 14
10.0
 24
10.0
 15
10.0
 25
10.0
 16
0.0
 26
0.0
 36
1.0
 17
0.0
 27
0.0
 37
0.0
 42
50.0
 43
0.0
 44
0.0
 45
218.2856291881582
 50
0.0
 51
0.0
 72
   100
 90
    32800
  1

281
     0
 71
     1
 74
     0
110
0.0
120
0.0
130
0.0
111
1.0
121
0.0
131
0.0
112
0.0
122
1.0
132
0.0
 79
     0
146
0.0
  0
VIEWPORT
  5
6D
102
{ACAD_XDICTIONARY
360
2BED
102
}
330
50
100
AcDbEntity
 67
     1
  8
0
100
AcDbViewport
 10
133.3499939441677
 20
101.5999939441678
 30
0.0
 40
213.3599903106689
 41
162.5599903106689
 68
     0
 69
     0
 12
210.0
 22
148.5
 13
0.0
 23
0.0
 14
10.0
 24
10.0
 15
10.0
 25
10.0
 16
0.0
 26
0.0
 36
1.0
 17
0.0
 27
0.0
 37
0.0
 42
50.0
 43
0.0
 44
0.0
 45
324.0677920111345
 50
0.0
 51
0.0
 72
   100
 90
    32864
  1

281
     0
 71
     1
 74
     0
110
0.0
120
0.0
130
0.0
111
1.0
121
0.0
131
0.0
112
0.0
122
1.0
132
0.0
 79
     0
146
0.0
  0
ENDBLK
  5
53
330
50
100
AcDbEntity
 67
     1
  8
0
100
AcDbBlockEnd
  0
ENDSEC
  0
SECTION
  2
ENTITIES
  0
MTEXT
  5
9D
330
1F
100
AcDbEntity
  8
レイヤー_5
 62
     7
100
AcDbMText
 10
134.2741470000001
 20
252.2029369999997
 30
0.0
 40
2.444193999999999
 41
0.0
 71
     1
 72
     5
  1
\W1.02;\fOsaka|b0|i0|c128;250A
  7
STD
 73
     1
 44
1.0
1001
ACAD
1000
MTEXTBEGIN
1070
    73
1070
     1
1070
    44
1040
1.0
1070
    74
1070
     0
1000
MTEXTEND
  0
MTEXT
  5
9F
330
1F
100
AcDbEntity
  8
レイヤー_5
 62
     7
100
AcDbMText
 10
148.1220530000001
 20
239.7725159999999
 30
0.0
 40
2.444193999999999
 41
0.0
 71
     1
 72
     5
  1
\W1.02;\fOsaka|b0|i0|c128;S400-GF
  7
STD
 73
     1
 44
1.0
1001
ACAD
1000
MTEXTBEGIN
1070
    73
1070
     1
1070
    44
1040
1.0
1070
    74
1070
     0
1000
MTEXTEND
  0
MTEXT
  5
A0
330
1F
100
AcDbEntity
  8
レイヤー_5
 62
     7
100
AcDbMText
 10
148.1220530000001
 20
245.1222319999998
 30
0.0
 40
2.444193999999999
 41
0.0
 71
     1
 72
     5
  1
{\fOsaka|b0|i0|c128|p0;\W1.02;S400-CF,S400-NF}
  7
STD
 73
     1
 44
1.0
1001
ACAD
1000
MTEXTBEGIN
1070
    73
1070
     1
1070
    44
1040
1.0
1070
    74
1070
     0
1000
MTEXTEND
  0
MTEXT
  5
2AC
330
1F
100
AcDbEntity
  8
VPORT-BORDERS
 62
     7
100
AcDbMText
 10
-10.77143499999996
 20
1.440292999999995
 30
0.0
 40
2.444193999999999
 41
0.0
 71
     1
 72
     5
  1
\W1.02;\fOsaka|b0|i0|c128;0.01S
  7
STD
 73
     1
 44
1.0
1001
ACAD
1000
MTEXTBEGIN
1070
    73
1070
     1
1070
    44
1040
1.0
1070
    74
1070
     0
1000
MTEXTEND
  0
LINE
  5
2AD
330
1F
100
AcDbEntity
  8
VPORT-BORDERS
 62
     7
100
AcDbLine
 10
194.3424879999997
 20
0.0
 30
0.0
 11
-0.0000000000000568
 21
0.0
 31
0.0
  0
LINE
  5
2AE
330
1F
100
AcDbEntity
  8
VPORT-BORDERS
 62
     7
100
AcDbLine
 10
-0.0000000000000568
 20
260.400471
 30
0.0
 11
-0.0000000000000568
 21
0.0
 31
0.0
  0
LINE
  5
2AF
330
1F
100
AcDbEntity
  8
VPORT-BORDERS
 62
     7
100
AcDbLine
 10
26.19995199999996
 20
260.400471
 30
0.0
 11
26.19995199999996
 21
0.0
 31
0.0
  0
LINE
  5
2B0
330
1F
100
AcDbEntity
  8
VPORT-BORDERS
 62
     7
100
AcDbLine
 10
13.09997599999985
 20
260.400471
 30
0.0
 11
13.09997599999985
 21
0.0
 31
0.0
  0
MTEXT
  5
2B1
330
1F
100
AcDbEntity
  8
VPORT-BORDERS
 62
     7
100
AcDbMText
 10
25.23783800000004
 20
-14.78531599999996
 30
0.0
 40
2.444193999999999
 41
0.0
 71
     1
 72
     5
  1
\fOsaka|b0|i0|c128;110V
  7
STD
 11
0.0
 21
1.0
 31
0.0
 73
     1
 44
1.0
1001
ACAD
1000
MTEXTBEGIN
1070
    73
1070
     1
1070
    44
1040
1.0
1070
    74
1070
     0
1000
MTEXTEND
  0
MTEXT
  5
2B2
330
1F
100
AcDbEntity
  8
VPORT-BORDERS
 62
     7
100
AcDbMText
 10
-1.444081999999979
 20
-14.78531599999996
 30
0.0
 40
2.444193999999999
 41
0.0
 71
     1
 72
     5
  1
\fOsaka|b0|i0|c128;440V
  7
STD
 11
0.0
 21
1.0
 31
0.0
 73
     1
 44
1.0
1001
ACAD
1000
MTEXTBEGIN
1070
    73
1070
     1
1070
    44
1040
1.0
1070
    74
1070
     0
1000
MTEXTEND
  0
MTEXT
  5
2B3
330
1F
100
AcDbEntity
  8
VPORT-BORDERS
 62
     7
100
AcDbMText
 10
11.65589399999992
 20
-14.78531599999996
 30
0.0
 40
2.444193999999999
 41
0.0
 71
     1
 72
     5
  1
\fOsaka|b0|i0|c128;220V
  7
STD
 11
0.0
 21
1.0
 31
0.0
 73
     1
 44
1.0
1001
ACAD
1000
MTEXTBEGIN
1070
    73
1070
     1
1070
    44
1040
1.0
1070
    74
1070
     0
1000
MTEXTEND
  0
LWPOLYLINE
  5
1118
330
1F
100
AcDbEntity
  8
0
100
AcDbPolyline
 90
      479
 70
     0
 43
0.0
 10
42.59997599999985
 20
260.400816
 10
42.63542946722753
 20
258.6430876033515
 10
42.67174660004764
 20
256.8853929469865
 10
42.70979106405262
 20
255.1277657711885
 10
42.75042652483493
 20
253.3702398162408
 10
42.79451664798696
 20
251.612848822427
 10
42.84292509910124
 20
249.8556265300305
 10
42.89651554377011
 20
248.0986066793349
 10
42.95615164758607
 20
246.3418230106234
 10
43.02269707614146
 20
244.5853092641797
 10
43.0970154950288
 20
242.8290991802871
 10
43.17997056984057
 20
241.0732264992293
 10
43.2724067544534
 20
239.3177279861327
 10
43.37489953250961
 20
237.5626827549058
 10
43.48782640278339
 20
235.8082010917464
 10
43.61156026856519
 20
234.0543940064016
 10
43.74647403314553
 20
232.3013725086181
 10
43.89294059981501
 20
230.5492476081429
 10
44.05133287186408
 20
228.7981303147229
 10
44.22202375258319
 20
227.0481316381049
 10
44.40538614526296
 20
225.2993625880358
 10
44.60179295319392
 20
223.5519341742625
 10
44.81161707966651
 20
221.8059574065319
 10
45.03523140513453
 20
220.0615434556496
 10
45.2730036160318
 20
218.3188401237806
 10
45.52528963209742
 20
216.5780781989159
 10
45.79244375297853
 20
214.8394998949119
 10
46.07482027832224
 20
213.1033474256254
 10
46.37277350777543
 20
211.3698630049132
 10
46.6866577409853
 20
209.6392888466318
 10
47.01682727759888
 20
207.9118671646381
 10
47.36363641726324
 20
206.1878401727887
 10
47.72743945962542
 20
204.4674500849404
 10
48.10859070433252
 20
202.7509391149497
 10
48.50744445103153
 20
201.0385494766734
 10
48.92431837613287
 20
199.3305132916592
 10
49.359036613778
 20
197.6269266754252
 10
49.81106942269789
 20
195.9277882256215
 10
50.27987934441011
 20
194.2330944132567
 10
50.764928920432
 20
192.5428417093391
 10
51.26568069228103
 20
190.8570265848777
 10
51.78159720147458
 20
189.1756455108805
 10
52.31214098953017
 20
187.4986949583564
 10
52.85677459796524
 20
185.8261713983138
 10
53.41496056829711
 20
184.1580713017611
 10
53.98616144204338
 20
182.494391139707
 10
54.56983976072143
 20
180.8351273831598
 10
55.16547744406766
 20
179.1802746235785
 10
55.77273211236506
 20
177.5298104107146
 10
56.39135492567561
 20
175.8837032216251
 10
57.02109791367433
 20
174.2419214490199
 10
57.66171310603606
 20
172.6044334856095
 10
58.3129525324358
 20
170.9712077241042
 10
58.97456822254849
 20
169.3422125572143
 10
59.64631220604894
 20
167.7174163776502
 10
60.32793651261219
 20
166.0967875781221
 10
61.01919317191311
 20
164.4802945513404
 10
61.71983421362664
 20
162.8679056900154
 10
62.42961166742764
 20
161.2595893868575
 10
63.14828087971124
 20
159.6553142604984
 10
63.87568764592531
 20
158.0550550905949
 10
64.61177685856938
 20
156.4587934068949
 10
65.35649846098481
 20
154.8665110831894
 10
66.10980239651313
 20
153.2781899932693
 10
66.87163860849579
 20
151.6938120109257
 10
67.64196011117006
 20
150.1133608122654
 10
68.42154805703756
 20
148.537306109666
 10
69.21312692220765
 20
146.967258156643
 10
70.01969961796333
 20
145.4049906209623
 10
70.8442690555875
 20
143.8522771703897
 10
71.68983814636317
 20
142.3108914726909
 10
72.55940980157328
 20
140.7826071956315
 10
73.454885524688
 20
139.2685928575155
 10
74.36853874910474
 20
137.7647270001673
 10
75.28766772652994
 20
136.2641546379307
 10
76.19952905880757
 20
134.7599979013535
 10
77.09137934778141
 20
133.2453789209836
 10
77.9504751952955
 20
131.7134198273687
 10
78.76408652991035
 20
130.1572508231633
 10
79.52491450767502
 20
128.5732918520468
 10
80.23941174701826
 20
126.966292236287
 10
80.91617419389251
 20
125.3422995341238
 10
81.56166421356736
 20
123.7061681510316
 10
82.17467989920633
 20
122.0584664359368
 10
82.75229901754654
 20
120.3988006873254
 10
83.29376392249697
 20
118.7272956261871
 10
83.80694394809006
 20
117.0461421506986
 10
84.30185728750695
 20
115.3580458134394
 10
84.78372082246487
 20
113.6644816173366
 10
85.23994885331655
 20
111.9623618618827
 10
85.65383194385299
 20
110.2475424294004
 10
86.01141335525147
 20
108.5174502107615
 10
86.30718331231305
 20
106.7743329144602
 10
86.5372468768486
 20
105.0213598623729
 10
86.69770911066892
 20
103.2617003763759
 10
86.78467507558471
 20
101.4985237783455
 10
86.79997609672055
 20
99.7369878415861
 10
86.79997609672055
 20
97.97915403780551
 10
86.79997609672055
 20
96.22132023402492
 10
86.79997609672055
 20
94.46348643024434
 10
86.79997609672055
 20
92.70565262646377
 10
86.79997609672055
 20
90.94781882268316
 10
86.79997609672055
 20
89.18998501890257
 10
86.79997609672055
 20
87.43215121512198
 10
86.79997609672055
 20
85.67431741134141
 10
86.79997609672055
 20
83.91648360756084
 10
86.79997609672055
 20
82.15864980378025
 10
86.79997609672055
 20
80.40081600000005
 10
86.79997609672055
 20
80.04040020941699
 10
86.79997609672055
 20
79.68242552465619
 10
86.79997609672055
 20
79.32688086058726
 10
86.79997609672055
 20
78.97375513207983
 10
86.79997609672055
 20
78.62303725400349
 10
86.79997609672055
 20
78.27471614122784
 10
86.79997609672055
 20
77.92878070862255
 10
86.79997609672055
 20
77.58521987105719
 10
86.79997609672055
 20
77.2440225434014
 10
86.79997609672055
 20
76.90517764052479
 10
86.79997609672055
 20
76.568674077297
 10
86.79997609672055
 20
76.23450076858762
 10
86.79997609672055
 20
75.90264662926628
 10
86.79997609672055
 20
75.57310057420257
 10
86.79997609672055
 20
75.24585151826619
 10
86.79997609672055
 20
74.92088837632664
 10
86.79997609672055
 20
74.59820006325363
 10
86.79997609672055
 20
74.2777754939167
 10
86.79997609672055
 20
73.95960358318555
 10
86.79997609672055
 20
73.64367324592976
 10
86.79997609672055
 20
73.32997339701893
 10
86.79997609672055
 20
73.01849295132268
 10
86.79997609672055
 20
72.70922082371066
 10
86.79997609672055
 20
72.40214592905245
 10
86.79997609672055
 20
72.09725718221772
 10
86.79997609672055
 20
71.79454349807603
 10
86.79997609672055
 20
71.493993791497
 10
86.79997609672055
 20
71.19559697735031
 10
86.79997609672055
 20
70.8993419705055
 10
86.79997609672055
 20
70.60521768583225
 10
86.79997609672055
 20
70.31321303820013
 10
86.79997609672055
 20
70.02331694247877
 10
86.79997609672055
 20
69.7355183135378
 10
86.79997609672055
 20
69.44980606624685
 10
86.79997609672055
 20
69.16616911547549
 10
86.79997609672055
 20
68.8845963760934
 10
86.79997609672055
 20
68.32759919097535
 10
86.79997609672055
 20
67.77872582984965
 10
86.79997609672055
 20
67.23788761167327
 10
86.79997609672055
 20
66.70499585540309
 10
86.79997609672055
 20
66.17996187999612
 10
86.79997609672055
 20
65.66269700440923
 10
86.79997609672055
 20
65.15311254759938
 10
86.79997609672055
 20
64.65111982852353
 10
86.79997609672055
 20
64.15663016613859
 10
86.79997609672055
 20
63.66955487940153
 10
86.79997609672055
 20
63.18980528726928
 10
86.79997609672055
 20
62.71729270869878
 10
86.79997609672055
 20
62.25192846264694
 10
86.79997609672055
 20
61.79362386807071
 10
86.79997609672055
 20
61.34229024392706
 10
86.79997609672055
 20
60.89783890917292
 10
86.79997609672055
 20
60.46018118276521
 10
86.79997609672055
 20
60.02922838366087
 10
86.79997609672055
 20
59.60489183081683
 10
86.79997609672055
 20
59.18708284319007
 10
86.79997609672055
 20
58.7757127397375
 10
86.79997609672055
 20
58.37069283941607
 10
86.79997609672055
 20
57.9719344611827
 10
86.79997609672055
 20
57.57934892399434
 10
86.79997609672055
 20
57.19284754680794
 10
86.79997609672055
 20
56.8123416485804
 10
86.79997609672055
 20
56.43774254826873
 10
86.79997609672055
 20
56.06896156482982
 10
86.79997609672055
 20
55.70591001722061
 10
86.79997609672055
 20
55.34849922439802
 10
86.79997609672055
 20
54.99664050531904
 10
86.79997609672055
 20
54.65024517894057
 10
86.79997609672055
 20
54.30922456421956
 10
86.79997609672055
 20
53.97348998011296
 10
86.79997609672055
 20
53.64295274557771
 10
86.79997609672055
 20
53.31752417957073
 10
86.79997609672055
 20
52.99711560104896
 10
86.79997609672055
 20
52.68163832896934
 10
86.79997609672055
 20
52.37100368228883
 10
86.79997609672055
 20
52.06512297996435
 10
86.79997609672055
 20
51.76390754095287
 10
86.79997609672055
 20
51.46726868421126
 10
86.79997609672055
 20
51.17511772869653
 10
86.79997609672055
 20
50.88736599336558
 10
86.79997609672055
 20
50.60392479717536
 10
86.79997609672055
 20
50.32470545908282
 10
86.79997609672055
 20
50.04961929804486
 10
86.79997609672055
 20
49.77857763301846
 10
86.79997609672055
 20
49.51149178296056
 10
86.79997609672055
 20
49.24827306682807
 10
86.79997609672055
 20
48.98883280357797
 10
86.79997609672055
 20
48.73308231216714
 10
86.79997609672055
 20
48.48093291155257
 10
86.79997609672055
 20
48.23229592069118
 10
86.79997609672055
 20
47.98708265853988
 10
86.79997609672055
 20
47.74520444405569
 10
86.79997609672055
 20
47.50657259619546
 10
86.79997609672055
 20
47.2710984339162
 10
86.79997609672055
 20
47.03869327617479
 10
86.79997609672055
 20
46.8092684419282
 10
86.79997609672055
 20
46.58273525013338
 10
86.79997609672055
 20
46.35900501974723
 10
86.79997609672055
 20
46.13798906972671
 10
86.79997609672055
 20
45.91959871902878
 10
86.79997609672055
 20
45.70374528661035
 10
86.79997609672055
 20
45.49034009142839
 10
86.79997609672055
 20
45.27929445243978
 10
86.79997609672055
 20
45.07051968860152
 10
86.79997609672055
 20
44.86392711887052
 10
86.79997609672055
 20
44.65942806220374
 10
86.79997609672055
 20
44.25635576389052
 10
86.79997609672055
 20
43.86059334531739
 10
86.79997609672055
 20
43.47143135813984
 10
86.79997609672055
 20
43.08816035401345
 10
86.79997609672055
 20
42.71007088459366
 10
86.79997609672055
 20
42.33645350153602
 10
86.79997609672055
 20
41.96659875649602
 10
86.79997609672055
 20
41.59979720112917
 10
86.79997609672055
 20
40.872515866037
 10
86.79997609672055
 20
40.51061718962271
 10
86.79997609672055
 20
40.42020388901621
 10
86.79997609672055
 20
40.4089026209147
 10
86.79997609672055
 20
40.40325199402665
 10
86.79997609672055
 20
40.40183933759265
 10
86.79997609672055
 20
40.40113300938979
 10
86.79997609672055
 20
40.40095642733965
 10
86.79997609672055
 20
40.4008681363146
 10
86.79997609672055
 20
40.40082399080207
 10
86.79998441501131
 20
40.39837026593729
 10
86.80006605628472
 20
40.374496402976
 10
86.80074449242717
 20
40.18457398810514
 10
86.80223668144163
 20
39.8103910722481
 10
86.80391004291506
 20
39.44367909617854
 10
86.80576547703095
 20
39.08434412542515
 10
86.80780388397293
 20
38.73229222551675
 10
86.81002616392445
 20
38.38742946198261
 10
86.81243321706906
 20
38.04966190035204
 10
86.81502594359031
 20
37.7188956061538
 10
86.81780524367168
 20
37.3950366449167
 10
86.82077201749672
 20
37.07799108217024
 10
86.82392716524899
 20
36.76766498344324
 10
86.827271587112
 20
36.46396441426448
 10
86.83080618326922
 20
36.16679544016346
 10
86.83453185390423
 20
35.87606412666899
 10
86.83844949920061
 20
35.5916765393099
 10
86.84256001934178
 20
35.31353874361563
 10
86.84686431451131
 20
35.04155680511502
 10
86.85136328489276
 20
34.7756367893369
 10
86.85605783066961
 20
34.5156847618107
 10
86.86094885202543
 20
34.26160678806525
 10
86.8660372491437
 20
34.01330893362941
 10
86.87132392220801
 20
33.77069726403242
 10
86.87680977140184
 20
33.53367784480346
 10
86.88249569690874
 20
33.3021567414714
 10
86.8883825989122
 20
33.07604001956511
 10
86.8944713775958
 20
32.85523374461379
 10
86.90076293314303
 20
32.63964398214664
 10
86.90725816573744
 20
32.42917679769254
 10
86.91395797556255
 20
32.22373825678034
 10
86.92086326280188
 20
32.02323442493927
 10
86.92797492763896
 20
31.82757136769849
 10
86.93529387025732
 20
31.63665515058688
 10
86.94282099084052
 20
31.45039183913335
 10
86.95055718957204
 20
31.26868749886708
 10
86.95850336663539
 20
31.09144819531723
 10
86.96666042221416
 20
30.91857999401269
 10
86.97502925649187
 20
30.74998896048239
 10
86.983610769652
 20
30.58558116025547
 10
86.99240586187814
 20
30.4252626588611
 10
87.00141543335375
 20
30.26893952182819
 10
87.01064038426244
 20
30.11651781468566
 10
87.0200816147876
 20
29.96790360296266
 10
87.02974002511291
 20
29.82300295218834
 10
87.03961651542178
 20
29.68172192789161
 10
87.04971198589779
 20
29.54396659560142
 10
87.06002733672454
 20
29.40964302084691
 10
87.07056346808547
 20
29.27865726915719
 10
87.08132128016409
 20
29.15091540606121
 10
87.09230167314396
 20
29.02632349708792
 10
87.10350554720861
 20
28.90478760776643
 10
87.11493380254159
 20
28.78621380362588
 10
87.1265873393264
 20
28.67050815019521
 10
87.13846705774656
 20
28.55757671300338
 10
87.15057385798564
 20
28.44732555757948
 10
87.16290864022708
 20
28.33966074945266
 10
87.17547230465447
 20
28.23448835415186
 10
87.18826575145138
 20
28.13171443720603
 10
87.20128988080125
 20
28.03124506414429
 10
87.21454559288767
 20
27.93298630049577
 10
87.24175536600418
 20
27.74272486355413
 10
87.26990227226915
 20
27.56017865061342
 10
87.29899351315076
 20
27.3845961859059
 10
87.32903629011728
 20
27.21522599366386
 10
87.3600378046369
 20
27.05131659811959
 10
87.39200525817782
 20
26.89211652350536
 10
87.4249458522083
 20
26.73687429405342
 10
87.45886678819653
 20
26.58483843399616
 10
87.49377526761076
 20
26.43525746756572
 10
87.56658366259001
 20
26.14045431251462
 10
87.64351978376998
 20
25.84743088333127
 10
87.72514056488573
 20
25.5555330074958
 10
87.81211717400706
 20
25.26533222600451
 10
87.90512078466814
 20
24.97740013848721
 10
88.00482257040329
 20
24.69230834457371
 10
88.05739502065312
 20
24.5510061826027
 10
88.11189370474677
 20
24.41062844389382
 10
88.16840251937604
 20
24.2712465784008
 10
88.22700536123276
 20
24.13293203607736
 10
88.28778612700867
 20
23.99575626687724
 10
88.35082871339556
 20
23.85979072075414
 10
88.41621701708524
 20
23.72510684766182
 10
88.48403493476942
 20
23.59177609755398
 10
88.55436636313999
 20
23.45986992038436
 10
88.62729519888864
 20
23.32945976610668
 10
88.70290533870718
 20
23.20061708467468
 10
88.78128067928736
 20
23.07341332604206
 10
88.86246986623431
 20
22.94790058414363
 10
88.94635407684189
 20
22.82403899774046
 10
89.03276480881073
 20
22.70176142702608
 10
89.12153355195751
 20
22.58100072786509
 10
89.21249179609898
 20
22.46168975612212
 10
89.3054710310519
 20
22.34376136766175
 10
89.400302746633
 20
22.22714841834865
 10
89.49681843265912
 20
22.11178376404735
 10
89.69422767531311
 20
21.88453076393875
 10
89.89635067754802
 20
21.66146521425278
 10
90.1019691739239
 20
21.44210092064267
 10
90.31070346132635
 20
21.22628086288337
 10
90.52250710400631
 20
21.01397884345551
 10
90.73733451441333
 20
20.80516899779654
 10
90.95514010499682
 20
20.59982546134387
 10
91.17587828820637
 20
20.39792236953494
 10
91.39950347649143
 20
20.19943385780718
 10
91.6259700823015
 20
20.00433406159802
 10
91.85523251808612
 20
19.81259711634489
 10
92.08724519629475
 20
19.62419715748521
 10
92.32196252937695
 20
19.43910832045643
 10
92.5593389297822
 20
19.25730474069596
 10
92.79932880995998
 20
19.07876055364124
 10
93.04188658235974
 20
18.90344989472974
 10
93.28696665943104
 20
18.73134689939884
 10
93.53452345362352
 20
18.56242570308595
 10
93.78451137738649
 20
18.39666044122853
 10
94.03688484316948
 20
18.23402524926401
 10
94.29159826342207
 20
18.07449426262982
 10
94.54860605059371
 20
17.91804161676338
 10
94.80786261713396
 20
17.76464144710214
 10
95.06932237549223
 20
17.61426788908351
 10
95.3329397381181
 20
17.46689507814494
 10
95.59866911746105
 20
17.32249714972384
 10
95.86646492597052
 20
17.18104823925766
 10
96.13628157609609
 20
17.04252248218384
 10
96.40807348028715
 20
16.90689401393979
 10
96.68179505099345
 20
16.77413696996291
 10
96.95740070066428
 20
16.64422548569066
 10
97.23484484174916
 20
16.51713369656047
 10
97.5140818866977
 20
16.39283573800977
 10
97.79506624795931
 20
16.271305745476
 10
98.07775233798357
 20
16.15251785439657
 10
98.36209456921984
 20
16.03644620020892
 10
98.64804735411778
 20
15.92306491835048
 10
98.93556510512681
 20
15.81234814425869
 10
99.22460223469645
 20
15.70427001337096
 10
99.51511315527612
 20
15.59880466112475
 10
99.80705227931546
 20
15.49592622295747
 10
100.1003740192639
 20
15.39560883430653
 10
100.395032787571
 20
15.29782663060939
 10
100.6909829966862
 20
15.20255374730346
 10
100.9881790590591
 20
15.10976431982619
 10
101.286575387139
 20
15.01943248361499
 10
101.5861263933757
 20
14.9315323741073
 10
101.8867864902184
 20
14.84603812674056
 10
102.1885100901168
 20
14.76292387695219
 10
102.4912516055203
 20
14.68216376017961
 10
102.7949654488785
 20
14.60373191186027
 10
103.0996060326407
 20
14.52760246743161
 10
103.4051277692566
 20
14.45374956233103
 10
103.7114850711758
 20
14.38214733199596
 10
104.0186323508475
 20
14.31276991186384
 10
104.3265240207215
 20
14.2455914373721
 10
104.635114493247
 20
14.18058604395818
 10
104.9443581808737
 20
14.11772786705949
 10
105.2542094960512
 20
14.05699104211348
 10
105.5646228512287
 20
13.99834970455756
 10
105.875552658856
 20
13.94177798982918
 10
106.1869533313824
 20
13.88725003336576
 10
106.8109849209307
 20
13.78422193698354
 10
107.4363529194698
 20
13.68905849891032
 10
108.0626926265956
 20
13.60155280264553
 10
108.6896393419042
 20
13.52149793168863
 10
109.3168283649917
 20
13.44868696953906
 10
109.9438949954538
 20
13.38291299969626
 10
110.5704745328869
 20
13.32396910565966
 10
111.1962022768868
 20
13.27164837092872
 10
111.8207135270496
 20
13.22574387900286
 10
112.4436435829712
 20
13.18604871338154
 10
113.0646277442478
 20
13.15235595756418
 10
113.6833013104754
 20
13.12445869505023
 10
114.29929958125
 20
13.10215000933913
 10
114.9122578561674
 20
13.08522298393032
 10
115.521811434824
 20
13.07347070232324
 10
116.1275956168156
 20
13.06668624801734
 10
116.729261980621
 20
13.0646466665847
 10
116.8791432035361
 20
13.06470560952907
 10
117.0313459805681
 20
13.06477377768078
 10
117.1114547630309
 20
13.06480249002317
 10
117.1962487776139
 20
13.06482778973487
 10
117.2872382514343
 20
13.06484980320963
 10
117.3355282315327
 20
13.0648596171062
 10
117.3859334116092
 20
13.06486865684117
 10
117.4386425700536
 20
13.06487693821378
 10
117.4938444852554
 20
13.06488447702322
 10
117.5517279356044
 20
13.06489128906873
 10
117.6124816994899
 20
13.06489739014951
 10
117.6762945553018
 20
13.06490279606479
 10
117.7433552814297
 20
13.06490752261377
 10
117.8138526562632
 20
13.06491158559568
 10
117.887975458192
 20
13.06491500080972
 10
117.9659124656055
 20
13.06491778405513
 10
118.0478524568935
 20
13.0649199511311
 10
118.1339842104456
 20
13.06492151783686
 10
118.2244965046512
 20
13.06492249997163
 10
118.3195781179001
 20
13.06492291333462
 10
118.4194178285821
 20
13.06492277372504
 10
118.5242044150867
 20
13.06492209694212
 10
118.6341266558035
 20
13.06492089878507
 10
118.749373329122
 20
13.0649191950531
 10
118.8701332134321
 20
13.06491700154543
 10
118.9965950871232
 20
13.06491433406128
 10
119.1289477285847
 20
13.06491120839986
 10
119.2673799162066
 20
13.0649076403604
 10
119.4120804283786
 20
13.06490364574209
 10
119.5632380434901
 20
13.06489924034417
 10
119.7210415399309
 20
13.06489443996585
 10
119.8856796960904
 20
13.06488926040634
 10
120.0573412903583
 20
13.06488371746486
 10
120.2362151011243
 20
13.06487782694063
 10
120.4224899067777
 20
13.06487160463285
 10
120.6163544857084
 20
13.06486506634076
 10
120.8179976163062
 20
13.06485822786356
 10
121.0276080769606
 20
13.06485110500047
 10
121.1354600493058
 20
13.06484744186147
 10
121.2453746460612
 20
13.06484371355071
 10
121.3573754645255
 20
13.06483992204308
 10
121.4714861019975
 20
13.06483606931349
 10
121.5877301557759
 20
13.06483215733683
 10
121.7061312231593
 20
13.06482818808802
 10
121.8267129014465
 20
13.06482416354195
 10
121.9494987879361
 20
13.06482008567353
 10
122.0745124799269
 20
13.06481595645766
 10
122.2017775747172
 20
13.06481177786924
 10
122.331317669606
 20
13.06480755188317
 10
122.4631563618925
 20
13.06480328047435
 10
122.5973172488749
 20
13.06479896561768
 10
122.7338239278521
 20
13.06479460928808
 10
122.8726999961226
 20
13.06479021346043
 10
123.0139690509852
 20
13.06478578010965
 10
123.1576546897386
 20
13.06478131121063
 10
123.3037805096815
 20
13.06477680873827
 10
123.4523701081126
 20
13.06477227466749
 10
123.6034470823306
 20
13.06476771097317
 10
123.7570350296342
 20
13.06476311963023
 10
123.9131575473221
 20
13.06475850261356
 10
124.071838232693
 20
13.06475386189806
 10
124.2331006830456
 20
13.06474919945865
 10
124.3969684956786
 20
13.06474451727021
 10
124.5634652678902
 20
13.06473981730765
 10
124.7326145969796
 20
13.06473510154588
 10
124.904440080246
 20
13.0647303719598
 10
125.0789653149877
 20
13.0647256305243
 10
125.2562138985033
 20
13.06472087921429
 10
125.4362094280915
 20
13.06471612000467
 10
125.6189755010511
 20
13.06471135487035
 10
125.8045357146807
 20
13.06470658578622
 10
125.992913666279
 20
13.0647018147272
  0
LWPOLYLINE
  5
1119
330
1F
100
AcDbEntity
  8
0
100
AcDbPolyline
 90
      437
 70
     0
 43
0.0
 10
42.59997599999985
 20
260.4008160000001
 10
42.63542946722753
 20
258.6430876033516
 10
42.67174660004764
 20
256.8853929469866
 10
42.70979106405262
 20
255.1277657711886
 10
42.75042652483493
 20
253.3702398162409
 10
42.79451664798696
 20
251.6128488224271
 10
42.84292509910124
 20
249.8556265300306
 10
42.89651554377011
 20
248.0986066793349
 10
42.95615164758607
 20
246.3418230106235
 10
43.02269707614146
 20
244.5853092641798
 10
43.0970154950288
 20
242.8290991802871
 10
43.17997056984057
 20
241.0732264992294
 10
43.2724067544534
 20
239.3177279861327
 10
43.37489953250961
 20
237.5626827549058
 10
43.48782640278339
 20
235.8082010917465
 10
43.61156026856519
 20
234.0543940064016
 10
43.74647403314553
 20
232.3013725086182
 10
43.89294059981501
 20
230.549247608143
 10
44.05133287186408
 20
228.798130314723
 10
44.22202375258319
 20
227.0481316381049
 10
44.40538614526296
 20
225.2993625880359
 10
44.60179295319392
 20
223.5519341742626
 10
44.81161707966651
 20
221.805957406532
 10
45.03523140513453
 20
220.0615434556497
 10
45.2730036160318
 20
218.3188401237806
 10
45.52528963209742
 20
216.5780781989159
 10
45.79244375297853
 20
214.8394998949119
 10
46.07482027832224
 20
213.1033474256255
 10
46.37277350777543
 20
211.3698630049132
 10
46.6866577409853
 20
209.6392888466319
 10
47.01682727759888
 20
207.9118671646382
 10
47.36363641726324
 20
206.1878401727888
 10
47.72743945962542
 20
204.4674500849404
 10
48.10859070433252
 20
202.7509391149497
 10
48.50744445103153
 20
201.0385494766734
 10
48.92431837613287
 20
199.3305132916593
 10
49.359036613778
 20
197.6269266754253
 10
49.81106942269789
 20
195.9277882256215
 10
50.27987934441011
 20
194.2330944132567
 10
50.764928920432
 20
192.5428417093393
 10
51.26568069228103
 20
190.8570265848777
 10
51.78159720147458
 20
189.1756455108805
 10
52.31214098953017
 20
187.4986949583565
 10
52.85677459796524
 20
185.8261713983138
 10
53.41496056829711
 20
184.1580713017611
 10
53.98616144204338
 20
182.494391139707
 10
54.56983976072143
 20
180.8351273831599
 10
55.16547744406766
 20
179.1802746235786
 10
55.77273211236506
 20
177.5298104107148
 10
56.39135492567561
 20
175.8837032216251
 10
57.02109791367433
 20
174.2419214490199
 10
57.66171310603606
 20
172.6044334856096
 10
58.3129525324358
 20
170.9712077241042
 10
58.97456822254849
 20
169.3422125572144
 10
59.64631220604894
 20
167.7174163776502
 10
60.32793651261219
 20
166.0967875781222
 10
61.01919317191311
 20
164.4802945513405
 10
61.71983421362664
 20
162.8679056900155
 10
62.42961166742764
 20
161.2595893868575
 10
63.14828087971124
 20
159.6553142604985
 10
63.87568764592531
 20
158.055055090595
 10
64.61177685856938
 20
156.4587934068949
 10
65.35649846098481
 20
154.8665110831894
 10
66.10980239651313
 20
153.2781899932693
 10
66.87163860849579
 20
151.6938120109258
 10
67.64196011117006
 20
150.1133608122655
 10
68.42154805703756
 20
148.537306109666
 10
69.21312692220765
 20
146.9672581566431
 10
70.01969961796333
 20
145.4049906209624
 10
70.8442690555875
 20
143.8522771703897
 10
71.68983814636317
 20
142.3108914726909
 10
72.55940980157328
 20
140.7826071956316
 10
73.454885524688
 20
139.2685928575156
 10
74.36853874910474
 20
137.7647270001673
 10
75.28766772652994
 20
136.2641546379307
 10
76.19952905880757
 20
134.7599979013535
 10
77.09137934778141
 20
133.2453789209836
 10
77.9504751952955
 20
131.7134198273688
 10
78.76408652991035
 20
130.1572508231633
 10
79.52491450767502
 20
128.5732918520468
 10
80.23941174701826
 20
126.9662922362871
 10
80.91617419389251
 20
125.3422995341238
 10
81.56166421356736
 20
123.7061681510317
 10
82.06183657425837
 20
122.3617737483101
 42
-0.0892799879891623
 10
85.1999759999998
 20
104.9271523437957
 10
85.1999759999998
 20
73.64367324592979
 10
85.1999759999998
 20
73.32997339701896
 10
85.1999759999998
 20
73.01849295132274
 10
85.1999759999998
 20
72.70922082371072
 10
85.1999759999998
 20
72.40214592905251
 10
85.1999759999998
 20
72.09725718221775
 10
85.1999759999998
 20
71.79454349807608
 10
85.1999759999998
 20
71.49399379149706
 10
85.1999759999998
 20
71.19559697735036
 10
85.1999759999998
 20
70.89934197050556
 10
85.1999759999998
 20
70.60521768583228
 10
85.1999759999998
 20
70.31321303820016
 10
85.1999759999998
 20
70.02331694247883
 10
85.1999759999998
 20
69.73551831353785
 10
85.1999759999998
 20
69.44980606624688
 10
85.1999759999998
 20
69.16616911547555
 10
85.1999759999998
 20
68.88459637609344
 10
85.1999759999998
 20
68.32759919097537
 10
85.1999759999998
 20
67.77872582984969
 10
85.1999759999998
 20
67.23788761167333
 10
85.1999759999998
 20
66.70499585540311
 10
85.1999759999998
 20
66.17996187999614
 10
85.1999759999998
 20
65.66269700440925
 10
85.1999759999998
 20
65.15311254759942
 10
85.1999759999998
 20
64.65111982852356
 10
85.1999759999998
 20
64.15663016613866
 10
85.1999759999998
 20
63.66955487940156
 10
85.1999759999998
 20
63.18980528726934
 10
85.1999759999998
 20
62.71729270869879
 10
85.1999759999998
 20
62.25192846264699
 10
85.1999759999998
 20
61.79362386807078
 10
85.1999759999998
 20
61.34229024392714
 10
85.1999759999998
 20
60.89783890917296
 10
85.1999759999998
 20
60.46018118276528
 10
85.1999759999998
 20
60.02922838366091
 10
85.1999759999998
 20
59.60489183081688
 10
85.1999759999998
 20
59.18708284319013
 10
85.1999759999998
 20
58.77571273973757
 10
85.1999759999998
 20
58.37069283941612
 10
85.1999759999998
 20
57.97193446118274
 10
85.1999759999998
 20
57.57934892399439
 10
85.1999759999998
 20
57.19284754680797
 10
85.1999759999998
 20
56.81234164858047
 10
85.1999759999998
 20
56.43774254826877
 10
85.1999759999998
 20
56.06896156482985
 10
85.1999759999998
 20
55.70591001722061
 10
85.1999759999998
 20
55.34849922439807
 10
85.1999759999998
 20
54.99664050531908
 10
85.1999759999998
 20
54.65024517894062
 10
85.1999759999998
 20
54.30922456421962
 10
85.1999759999998
 20
53.97348998011302
 10
85.1999759999998
 20
53.64295274557774
 10
85.1999759999998
 20
53.31752417957076
 10
85.1999759999998
 20
52.99711560104899
 10
85.1999759999998
 20
52.68163832896935
 10
85.1999759999998
 20
52.37100368228886
 10
85.1999759999998
 20
52.06512297996439
 10
85.1999759999998
 20
51.76390754095288
 10
85.1999759999998
 20
51.46726868421132
 10
85.1999759999998
 20
51.17511772869656
 10
85.1999759999998
 20
50.88736599336562
 10
85.1999759999998
 20
50.60392479717541
 10
85.1999759999998
 20
50.32470545908285
 10
85.1999759999998
 20
50.0496192980449
 10
85.1999759999998
 20
49.77857763301853
 10
85.1999759999998
 20
49.5114917829606
 10
85.1999759999998
 20
49.24827306682812
 10
85.1999759999998
 20
48.98883280357802
 10
85.1999759999998
 20
48.73308231216721
 10
85.1999759999998
 20
48.4809329115526
 10
85.1999759999998
 20
48.23229592069122
 10
85.1999759999998
 20
47.98708265853995
 10
85.1999759999998
 20
47.74520444405573
 10
85.1999759999998
 20
47.50657259619552
 10
85.1999759999998
 20
47.27109843391625
 10
85.1999759999998
 20
47.03869327617485
 10
85.1999759999998
 20
46.80926844192825
 10
85.1999759999998
 20
46.58273525013341
 10
85.1999759999998
 20
46.35900501974728
 10
85.1999759999998
 20
46.13798906972674
 10
85.1999759999998
 20
45.91959871902886
 10
85.1999759999998
 20
45.7037452866104
 10
85.1999759999998
 20
45.49034009142842
 10
85.1999759999998
 20
45.27929445243984
 10
85.1999759999998
 20
45.07051968860156
 10
85.1999759999998
 20
44.86392711887059
 10
85.1999759999998
 20
44.65942806220377
 10
85.1999759999998
 20
44.25635576389054
 10
85.1999759999998
 20
43.86059334531744
 10
85.1999759999998
 20
43.47143135813989
 10
85.1999759999998
 20
43.08816035401348
 10
85.1999759999998
 20
42.71007088459373
 10
85.1999759999998
 20
42.33645350153607
 10
85.1999759999998
 20
41.96659875649607
 10
85.1999759999998
 20
41.59979720112921
 10
85.1999759999998
 20
40.87251586603708
 10
85.1999759999998
 20
40.51061718962271
 10
85.1999759999998
 20
40.42020388901625
 10
85.1999759999998
 20
40.40890262091472
 10
85.1999759999998
 20
40.40325199402665
 10
85.1999759999998
 20
40.40183933759272
 10
85.1999759999998
 20
40.40113300938986
 10
85.1999759999998
 20
40.40095642733968
 10
85.1999759999998
 20
40.40086813631467
 10
85.1999759999998
 20
40.40082399080211
 10
85.19998431829057
 20
40.39837026593732
 10
85.20006595956397
 20
40.37449640297603
 10
85.20074439570644
 20
40.18457398810517
 10
85.20223658472088
 20
39.81039107224814
 10
85.20390994619431
 20
39.44367909617858
 10
85.20576538031022
 20
39.08434412542515
 10
85.20780378725218
 20
38.7322922255168
 10
85.21002606720371
 20
38.38742946198266
 10
85.21243312034831
 20
38.04966190035208
 10
85.21502584686956
 20
37.71889560615387
 10
85.21780514695093
 20
37.39503664491672
 10
85.22077192077597
 20
37.0779910821703
 10
85.22392706852825
 20
36.7676649834433
 10
85.22727149039122
 20
36.46396441426452
 10
85.23080608654849
 20
36.16679544016353
 10
85.2345317571835
 20
35.87606412666906
 10
85.23844940247984
 20
35.59167653930996
 10
85.24255992262101
 20
35.31353874361566
 10
85.24686421779056
 20
35.04155680511508
 10
85.25136318817201
 20
34.77563678933695
 10
85.25605773394886
 20
34.51568476181075
 10
85.26094875530469
 20
34.26160678806531
 10
85.26603715242297
 20
34.01330893362946
 10
85.27132382548726
 20
33.77069726403244
 10
85.27680967468111
 20
33.5336778448035
 10
85.28249560018798
 20
33.30215674147144
 10
85.28838250219145
 20
33.07604001956514
 10
85.29447128087506
 20
32.85523374461383
 10
85.30076283642229
 20
32.63964398214671
 10
85.30725806901671
 20
32.42917679769261
 10
85.3139578788418
 20
32.22373825678039
 10
85.32086316608115
 20
32.02323442493929
 10
85.32797483091821
 20
31.82757136769851
 10
85.33529377353659
 20
31.63665515058693
 10
85.34282089411975
 20
31.45039183913338
 10
85.3505570928513
 20
31.26868749886711
 10
85.35850326991463
 20
31.09144819531724
 10
85.36666032549344
 20
30.91857999401276
 10
85.37502915977112
 20
30.74998896048243
 10
85.38361067293125
 20
30.58558116025551
 10
85.39240576515739
 20
30.42526265886113
 10
85.401415336633
 20
30.26893952182826
 10
85.41064028754162
 20
30.11651781468572
 10
85.42008151806685
 20
29.96790360296268
 10
85.42973992839215
 20
29.8230029521884
 10
85.43961641870103
 20
29.68172192789166
 10
85.44971188917706
 20
29.54396659560149
 10
85.46002724000381
 20
29.40964302084694
 10
85.47056337136471
 20
29.27865726915724
 10
85.48132118344334
 20
29.15091540606125
 10
85.4923015764232
 20
29.02632349708796
 10
85.50350545048786
 20
28.90478760776648
 10
85.51493370582084
 20
28.78621380362591
 10
85.52658724260565
 20
28.67050815019524
 10
85.5384669610258
 20
28.55757671300342
 10
85.55057376126487
 20
28.44732555757952
 10
85.56290854350633
 20
28.33966074945272
 10
85.57547220793372
 20
28.23448835415189
 10
85.5882656547306
 20
28.13171443720609
 10
85.6012897840805
 20
28.03124506414434
 10
85.61454549616692
 20
27.93298630049577
 10
85.64175526928345
 20
27.74272486355414
 10
85.66990217554842
 20
27.56017865061347
 10
85.69899341643003
 20
27.38459618590594
 10
85.72903619339653
 20
27.21522599366392
 10
85.76003770791613
 20
27.05131659811963
 10
85.79200516145704
 20
26.89211652350536
 10
85.82494575548755
 20
26.73687429405345
 10
85.8588666914758
 20
26.5848384339962
 10
85.89377517089001
 20
26.43525746756575
 10
85.96658356586926
 20
26.14045431251464
 10
86.04351968704923
 20
25.8474308833313
 10
86.12514046816498
 20
25.55553300749585
 10
86.2121170772863
 20
25.26533222600455
 10
86.30512068794741
 20
24.97740013848727
 10
86.40482247368256
 20
24.69230834457375
 10
86.45739492393236
 20
24.55100618260275
 10
86.51189360802602
 20
24.41062844389387
 10
86.56840242265531
 20
24.27124657840085
 10
86.62700526451201
 20
24.13293203607743
 10
86.68778603028794
 20
23.99575626687727
 10
86.75082861667481
 20
23.85979072075418
 10
86.81621692036449
 20
23.72510684766183
 10
86.88403483804869
 20
23.59177609755403
 10
86.95436626641924
 20
23.45986992038439
 10
87.02729510216789
 20
23.32945976610671
 10
87.10290524198645
 20
23.20061708467472
 10
87.18128058256658
 20
23.0734133260421
 10
87.26246976951355
 20
22.94790058414367
 10
87.34635398012114
 20
22.8240389977405
 10
87.43276471208998
 20
22.7017614270261
 10
87.52153345523677
 20
22.58100072786517
 10
87.61249169937824
 20
22.46168975612215
 10
87.70547093433114
 20
22.34376136766178
 10
87.80030264991223
 20
22.22714841834869
 10
87.89681833593837
 20
22.1117837640474
 10
88.09422757859238
 20
21.88453076393881
 10
88.29635058082725
 20
21.66146521425281
 10
88.50196907720318
 20
21.4421009206427
 10
88.7107033646056
 20
21.22628086288341
 10
88.92250700728556
 20
21.01397884345556
 10
89.13733441769258
 20
20.80516899779656
 10
89.35514000827609
 20
20.59982546134393
 10
89.5758781914856
 20
20.39792236953497
 10
89.79950337977069
 20
20.19943385780721
 10
90.02596998558074
 20
20.00433406159806
 10
90.25523242136538
 20
19.81259711634493
 10
90.487245099574
 20
19.62419715748524
 10
90.7219624326562
 20
19.43910832045645
 10
90.95933883306143
 20
19.25730474069598
 10
91.19932871323923
 20
19.0787605536413
 10
91.44188648563901
 20
18.90344989472976
 10
91.68696656271031
 20
18.73134689939888
 10
91.93452335690272
 20
18.56242570308598
 10
92.18451128066572
 20
18.39666044122856
 10
92.43688474644876
 20
18.23402524926405
 10
92.69159816670136
 20
18.07449426262985
 10
92.94860595387293
 20
17.91804161676344
 10
93.20786252041321
 20
17.76464144710218
 10
93.46932227877147
 20
17.61426788908358
 10
93.73293964139737
 20
17.466895078145
 10
93.99866902074029
 20
17.32249714972391
 10
94.26646482924978
 20
17.18104823925768
 10
94.5362814793753
 20
17.04252248218387
 10
94.80807338356642
 20
16.90689401393985
 10
95.08179495427269
 20
16.77413696996296
 10
95.35740060394351
 20
16.6442254856907
 10
95.63484474502844
 20
16.5171336965605
 10
95.91408178997696
 20
16.3928357380098
 10
96.19506615123858
 20
16.27130574547601
 10
96.47775224126279
 20
16.15251785439659
 10
96.7620944724991
 20
16.03644620020896
 10
97.04804725739705
 20
15.92306491835052
 10
97.33556500840606
 20
15.81234814425875
 10
97.62460213797572
 20
15.704270013371
 10
97.91511305855536
 20
15.5988046611248
 10
98.20705218259472
 20
15.49592622295751
 10
98.50037392254318
 20
15.39560883430658
 10
98.79503269085027
 20
15.29782663060945
 10
99.09098289996551
 20
15.20255374730351
 10
99.38817896233835
 20
15.10976431982624
 10
99.68657529041834
 20
15.01943248361505
 10
99.98612629665494
 20
14.93153237410735
 10
100.2867863934977
 20
14.84603812674061
 10
100.588509993396
 20
14.76292387695224
 10
100.8912515087996
 20
14.68216376017966
 10
101.1949653521577
 20
14.60373191186033
 10
101.49960593592
 20
14.52760246743167
 10
101.8051276725359
 20
14.45374956233109
 10
102.111484974455
 20
14.38214733199601
 10
102.4186322541268
 20
14.31276991186388
 10
102.7265239240007
 20
14.24559143737212
 10
103.0351143965263
 20
14.18058604395821
 10
103.344358084153
 20
14.11772786705955
 10
103.6542093993304
 20
14.05699104211351
 10
103.964622754508
 20
13.99834970455759
 10
104.2755525621352
 20
13.94177798982923
 10
104.5869532346616
 20
13.88725003336583
 10
105.21098482421
 20
13.78422193698355
 10
105.836352822749
 20
13.68905849891035
 10
106.4626925298749
 20
13.60155280264558
 10
107.0896392451835
 20
13.52149793168865
 10
107.7168282682709
 20
13.44868696953909
 10
108.3438948987331
 20
13.38291299969631
 10
108.9704744361661
 20
13.32396910565973
 10
109.5962021801661
 20
13.27164837092874
 10
110.2207134303288
 20
13.22574387900289
 10
110.8436434862504
 20
13.18604871338158
 10
111.4646276475271
 20
13.15235595756422
 10
112.0833012137547
 20
13.12445869505029
 10
112.6992994845292
 20
13.1021500093392
 10
113.3122577594467
 20
13.08522298393035
 10
113.9218113381033
 20
13.07347070232327
 10
114.5275955200949
 20
13.06668624801739
 10
115.1292618839002
 20
13.06464666658473
 10
115.2791431068153
 20
13.06470560952914
 10
115.4313458838474
 20
13.06477377768084
 10
115.5114546663101
 20
13.06480249002322
 10
115.5962486808932
 20
13.06482778973492
 10
115.6872381547136
 20
13.06484980320965
 10
115.7355281348119
 20
13.06485961710626
 10
115.7859333148885
 20
13.06486865684121
 10
115.8386424733328
 20
13.06487693821384
 10
115.8938443885347
 20
13.06488447702327
 10
115.9517278388836
 20
13.06489128906878
 10
116.0124816027692
 20
13.06489739014955
 10
116.076294458581
 20
13.06490279606481
 10
116.143355184709
 20
13.06490752261379
 10
116.2138525595425
 20
13.06491158559572
 10
116.2879753614712
 20
13.06491500080978
 10
116.3659123688848
 20
13.06491778405518
 10
116.4478523601727
 20
13.06491995113111
 10
116.5339841137248
 20
13.06492151783692
 10
116.6244964079304
 20
13.06492249997166
 10
116.7195780211794
 20
13.06492291333467
 10
116.8194177318614
 20
13.06492277372507
 10
116.924204318366
 20
13.06492209694215
 10
117.0341265590827
 20
13.06492089878509
 10
117.1493732324013
 20
13.06491919505316
 10
117.2701331167113
 20
13.06491700154549
 10
117.3965949904024
 20
13.06491433406131
 10
117.528947631864
 20
13.0649112083999
 10
117.6673798194858
 20
13.06490764036044
 10
117.8120803316578
 20
13.06490364574216
 10
117.9632379467694
 20
13.06489924034423
 10
118.1210414432101
 20
13.06489443996588
 10
118.2856795993696
 20
13.0648892604064
 10
118.4573411936376
 20
13.06488371746491
 10
118.6362150044036
 20
13.06487782694069
 10
118.822489810057
 20
13.06487160463291
 10
119.0163543889876
 20
13.06486506634081
 10
119.2179975195855
 20
13.06485822786362
 10
119.4276079802399
 20
13.06485110500051
 10
119.535459952585
 20
13.0648474418615
 10
119.6453745493404
 20
13.06484371355077
 10
119.7573753678048
 20
13.06483992204312
 10
119.8714860052768
 20
13.06483606931351
 10
119.9877300590551
 20
13.06483215733686
 10
120.1061311264385
 20
13.06482818808808
 10
120.2267128047257
 20
13.06482416354203
 10
120.3494986912154
 20
13.0648200856736
 10
120.4745123832061
 20
13.06481595645772
 10
120.6017774779964
 20
13.06481177786929
 10
120.7313175728853
 20
13.06480755188323
 10
120.8631562651717
 20
13.06480328047439
 10
120.9973171521542
 20
13.06479896561774
 10
121.1338238311314
 20
13.06479460928813
 10
121.2726998994019
 20
13.06479021346047
 10
121.4139689542645
 20
13.06478578010967
 10
121.5576545930179
 20
13.06478131121065
 10
121.7037804129608
 20
13.06477680873831
 10
121.8523700113919
 20
13.06477227466752
 10
122.0034469856098
 20
13.06476771097323
 10
122.1570349329134
 20
13.0647631196303
 10
122.3131574506013
 20
13.06475850261358
 10
122.4718381359722
 20
13.06475386189811
 10
122.6331005863248
 20
13.06474919945867
 10
122.7969683989578
 20
13.06474451727024
 10
122.9634651711694
 20
13.06473981730772
 10
123.1326145002588
 20
13.06473510154592
 10
123.3044399835253
 20
13.06473037195985
 10
123.4789652182669
 20
13.06472563052432
 10
123.6562138017825
 20
13.06472087921435
 10
123.8362093313708
 20
13.06471612000473
 10
124.0189754043303
 20
13.06471135487038
 10
124.2045356179599
 20
13.06470658578627
 10
124.3929135695582
 20
13.06470181472724
  0
LWPOLYLINE
  5
111A
330
1F
100
AcDbEntity
  8
0
100
AcDbPolyline
 90
      450
 70
     0
 43
0.0
 10
42.59997599999985
 20
260.4008160000001
 10
42.63542946722753
 20
258.6430876033516
 10
42.67174660004764
 20
256.8853929469866
 10
42.70979106405262
 20
255.1277657711886
 10
42.75042652483493
 20
253.3702398162409
 10
42.79451664798696
 20
251.6128488224271
 10
42.84292509910124
 20
249.8556265300306
 10
42.89651554377011
 20
248.0986066793349
 10
42.95615164758607
 20
246.3418230106235
 10
43.02269707614146
 20
244.5853092641798
 10
43.0970154950288
 20
242.8290991802871
 10
43.17997056984057
 20
241.0732264992294
 10
43.2724067544534
 20
239.3177279861327
 10
43.37489953250961
 20
237.5626827549058
 10
43.48782640278339
 20
235.8082010917465
 10
43.61156026856519
 20
234.0543940064016
 10
43.74647403314553
 20
232.3013725086182
 10
43.89294059981501
 20
230.549247608143
 10
44.05133287186408
 20
228.798130314723
 10
44.22202375258319
 20
227.0481316381049
 10
44.40538614526296
 20
225.2993625880359
 10
44.60179295319392
 20
223.5519341742626
 10
44.81161707966651
 20
221.805957406532
 10
45.03523140513453
 20
220.0615434556497
 10
45.2730036160318
 20
218.3188401237806
 10
45.52528963209742
 20
216.5780781989159
 10
45.79244375297853
 20
214.8394998949119
 10
46.07482027832224
 20
213.1033474256255
 10
46.37277350777543
 20
211.3698630049132
 10
46.6866577409853
 20
209.6392888466319
 10
47.01682727759888
 20
207.9118671646382
 10
47.36363641726324
 20
206.1878401727888
 10
47.72743945962542
 20
204.4674500849404
 10
48.10859070433252
 20
202.7509391149497
 10
48.50744445103153
 20
201.0385494766734
 10
48.92431837613287
 20
199.3305132916593
 10
49.359036613778
 20
197.6269266754253
 10
49.81106942269789
 20
195.9277882256215
 10
50.27987934441011
 20
194.2330944132567
 10
50.764928920432
 20
192.5428417093393
 10
51.26568069228103
 20
190.8570265848777
 10
51.78159720147458
 20
189.1756455108805
 10
52.31214098953017
 20
187.4986949583565
 10
52.85677459796524
 20
185.8261713983138
 10
53.41496056829711
 20
184.1580713017611
 10
53.98616144204338
 20
182.494391139707
 10
54.56983976072143
 20
180.8351273831599
 10
55.16547744406766
 20
179.1802746235786
 10
55.77273211236506
 20
177.5298104107148
 10
56.39135492567561
 20
175.8837032216251
 10
57.02109791367433
 20
174.2419214490199
 10
57.66171310603606
 20
172.6044334856096
 10
58.3129525324358
 20
170.9712077241042
 10
58.97456822254849
 20
169.3422125572144
 10
59.64631220604894
 20
167.7174163776502
 10
60.32793651261219
 20
166.0967875781222
 10
61.01919317191311
 20
164.4802945513405
 10
61.71983421362664
 20
162.8679056900155
 10
62.42961166742764
 20
161.2595893868575
 10
63.14828087971124
 20
159.6553142604985
 10
63.87568764592531
 20
158.055055090595
 10
64.61177685856938
 20
156.4587934068949
 10
65.35649846098481
 20
154.8665110831894
 10
66.10980239651313
 20
153.2781899932693
 10
66.87163860849579
 20
151.6938120109258
 10
67.64196011117006
 20
150.1133608122655
 10
68.42154805703756
 20
148.537306109666
 10
69.21312692220765
 20
146.9672581566431
 10
70.01969961796333
 20
145.4049906209624
 10
70.8442690555875
 20
143.8522771703897
 10
71.68983814636317
 20
142.3108914726909
 10
72.55940980157328
 20
140.7826071956316
 10
73.454885524688
 20
139.2685928575156
 10
74.36853874910474
 20
137.7647270001673
 10
75.28766772652994
 20
136.2641546379307
 10
76.19952905880757
 20
134.7599979013535
 10
77.09137934778141
 20
133.2453789209836
 10
77.9504751952955
 20
131.7134198273688
 10
78.76408652991035
 20
130.1572508231633
 10
78.76408652991035
 20
130.1572508231633
 42
-0.1087626088652926
 10
83.39997599999987
 20
109.1201889282963
 10
83.39997599999987
 20
79.32688086058731
 10
83.39997599999987
 20
78.97375513207987
 10
83.39997599999987
 20
78.62303725400352
 10
83.39997599999987
 20
78.2747161412279
 10
83.39997599999987
 20
77.92878070862258
 10
83.39997599999987
 20
77.58521987105723
 10
83.39997599999987
 20
77.24402254340145
 10
83.39997599999987
 20
76.90517764052484
 10
83.39997599999987
 20
76.56867407729703
 10
83.39997599999987
 20
76.23450076858768
 10
83.39997599999987
 20
75.90264662926632
 10
83.39997599999987
 20
75.57310057420264
 10
83.39997599999987
 20
75.24585151826622
 10
83.39997599999987
 20
74.92088837632667
 10
83.39997599999987
 20
74.59820006325367
 10
83.39997599999987
 20
74.27777549391675
 10
83.39997599999987
 20
73.95960358318558
 10
83.39997599999987
 20
73.64367324592979
 10
83.39997599999987
 20
73.32997339701896
 10
83.39997599999987
 20
73.01849295132274
 10
83.39997599999987
 20
72.70922082371072
 10
83.39997599999987
 20
72.40214592905251
 10
83.39997599999987
 20
72.09725718221775
 10
83.39997599999987
 20
71.79454349807608
 10
83.39997599999987
 20
71.49399379149706
 10
83.39997599999987
 20
71.19559697735036
 10
83.39997599999987
 20
70.89934197050556
 10
83.39997599999987
 20
70.60521768583228
 10
83.39997599999987
 20
70.31321303820016
 10
83.39997599999987
 20
70.02331694247883
 10
83.39997599999987
 20
69.73551831353785
 10
83.39997599999987
 20
69.44980606624688
 10
83.39997599999987
 20
69.16616911547555
 10
83.39997599999987
 20
68.88459637609344
 10
83.39997599999987
 20
68.32759919097537
 10
83.39997599999987
 20
67.77872582984969
 10
83.39997599999987
 20
67.23788761167333
 10
83.39997599999987
 20
66.70499585540311
 10
83.39997599999987
 20
66.17996187999614
 10
83.39997599999987
 20
65.66269700440925
 10
83.39997599999987
 20
65.15311254759942
 10
83.39997599999987
 20
64.65111982852356
 10
83.39997599999987
 20
64.15663016613866
 10
83.39997599999987
 20
63.66955487940156
 10
83.39997599999987
 20
63.18980528726934
 10
83.39997599999987
 20
62.71729270869879
 10
83.39997599999987
 20
62.25192846264699
 10
83.39997599999987
 20
61.79362386807078
 10
83.39997599999987
 20
61.34229024392714
 10
83.39997599999987
 20
60.89783890917296
 10
83.39997599999987
 20
60.46018118276528
 10
83.39997599999987
 20
60.02922838366091
 10
83.39997599999987
 20
59.60489183081688
 10
83.39997599999987
 20
59.18708284319013
 10
83.39997599999987
 20
58.77571273973757
 10
83.39997599999987
 20
58.37069283941612
 10
83.39997599999987
 20
57.97193446118274
 10
83.39997599999987
 20
57.57934892399439
 10
83.39997599999987
 20
57.19284754680797
 10
83.39997599999987
 20
56.81234164858047
 10
83.39997599999987
 20
56.43774254826877
 10
83.39997599999987
 20
56.06896156482985
 10
83.39997599999987
 20
55.70591001722061
 10
83.39997599999987
 20
55.34849922439807
 10
83.39997599999987
 20
54.99664050531908
 10
83.39997599999987
 20
54.65024517894062
 10
83.39997599999987
 20
54.30922456421962
 10
83.39997599999987
 20
53.97348998011302
 10
83.39997599999987
 20
53.64295274557774
 10
83.39997599999987
 20
53.31752417957076
 10
83.39997599999987
 20
52.99711560104899
 10
83.39997599999987
 20
52.68163832896935
 10
83.39997599999987
 20
52.37100368228886
 10
83.39997599999987
 20
52.06512297996439
 10
83.39997599999987
 20
51.76390754095288
 10
83.39997599999987
 20
51.46726868421132
 10
83.39997599999987
 20
51.17511772869656
 10
83.39997599999987
 20
50.88736599336562
 10
83.39997599999987
 20
50.60392479717541
 10
83.39997599999987
 20
50.32470545908285
 10
83.39997599999987
 20
50.0496192980449
 10
83.39997599999987
 20
49.77857763301853
 10
83.39997599999987
 20
49.5114917829606
 10
83.39997599999987
 20
49.24827306682812
 10
83.39997599999987
 20
48.98883280357802
 10
83.39997599999987
 20
48.73308231216721
 10
83.39997599999987
 20
48.4809329115526
 10
83.39997599999987
 20
48.23229592069122
 10
83.39997599999987
 20
47.98708265853995
 10
83.39997599999987
 20
47.74520444405573
 10
83.39997599999987
 20
47.50657259619552
 10
83.39997599999987
 20
47.27109843391625
 10
83.39997599999987
 20
47.03869327617485
 10
83.39997599999987
 20
46.80926844192825
 10
83.39997599999987
 20
46.58273525013341
 10
83.39997599999987
 20
46.35900501974728
 10
83.39997599999987
 20
46.13798906972674
 10
83.39997599999987
 20
45.91959871902886
 10
83.39997599999987
 20
45.7037452866104
 10
83.39997599999987
 20
45.49034009142842
 10
83.39997599999987
 20
45.27929445243984
 10
83.39997599999987
 20
45.07051968860156
 10
83.39997599999987
 20
44.86392711887059
 10
83.39997599999987
 20
44.65942806220377
 10
83.39997599999987
 20
44.25635576389054
 10
83.39997599999987
 20
43.86059334531744
 10
83.39997599999987
 20
43.47143135813989
 10
83.39997599999987
 20
43.08816035401348
 10
83.39997599999987
 20
42.71007088459373
 10
83.39997599999987
 20
42.33645350153607
 10
83.39997599999987
 20
41.96659875649607
 10
83.39997599999987
 20
41.59979720112921
 10
83.39997599999987
 20
40.87251586603708
 10
83.39997599999987
 20
40.51061718962271
 10
83.39997599999987
 20
40.42020388901625
 10
83.39997599999987
 20
40.40890262091472
 10
83.39997599999987
 20
40.40325199402665
 10
83.39997599999987
 20
40.40183933759272
 10
83.39997599999987
 20
40.40113300938986
 10
83.39997599999987
 20
40.40095642733968
 10
83.39997599999987
 20
40.40086813631467
 10
83.39997599999987
 20
40.40082399080211
 10
83.39998431829064
 20
40.39837026593732
 10
83.40006595956403
 20
40.37449640297603
 10
83.40074439570647
 20
40.18457398810517
 10
83.40223658472092
 20
39.81039107224814
 10
83.40390994619435
 20
39.44367909617858
 10
83.40576538031028
 20
39.08434412542515
 10
83.40780378725222
 20
38.7322922255168
 10
83.41002606720378
 20
38.38742946198266
 10
83.41243312034839
 20
38.04966190035208
 10
83.41502584686962
 20
37.71889560615387
 10
83.41780514695098
 20
37.39503664491672
 10
83.42077192077603
 20
37.0779910821703
 10
83.4239270685283
 20
36.7676649834433
 10
83.42727149039125
 20
36.46396441426452
 10
83.43080608654853
 20
36.16679544016353
 10
83.43453175718353
 20
35.87606412666906
 10
83.43844940247988
 20
35.59167653930996
 10
83.44255992262104
 20
35.31353874361566
 10
83.44686421779059
 20
35.04155680511508
 10
83.45136318817203
 20
34.77563678933695
 10
83.45605773394892
 20
34.51568476181075
 10
83.46094875530473
 20
34.26160678806531
 10
83.466037152423
 20
34.01330893362946
 10
83.4713238254873
 20
33.77069726403244
 10
83.47680967468113
 20
33.5336778448035
 10
83.48249560018803
 20
33.30215674147144
 10
83.4883825021915
 20
33.07604001956514
 10
83.49447128087509
 20
32.85523374461383
 10
83.50076283642236
 20
32.63964398214671
 10
83.50725806901673
 20
32.42917679769261
 10
83.51395787884184
 20
32.22373825678039
 10
83.52086316608119
 20
32.02323442493929
 10
83.52797483091825
 20
31.82757136769851
 10
83.53529377353664
 20
31.63665515058693
 10
83.54282089411981
 20
31.45039183913338
 10
83.55055709285132
 20
31.26868749886711
 10
83.5585032699147
 20
31.09144819531724
 10
83.56666032549345
 20
30.91857999401276
 10
83.5750291597712
 20
30.74998896048243
 10
83.58361067293131
 20
30.58558116025551
 10
83.59240576515743
 20
30.42526265886113
 10
83.60141533663304
 20
30.26893952182826
 10
83.61064028754169
 20
30.11651781468572
 10
83.62008151806689
 20
29.96790360296268
 10
83.6297399283922
 20
29.8230029521884
 10
83.63961641870107
 20
29.68172192789166
 10
83.64971188917712
 20
29.54396659560149
 10
83.66002724000383
 20
29.40964302084694
 10
83.67056337136475
 20
29.27865726915724
 10
83.68132118344336
 20
29.15091540606125
 10
83.69230157642325
 20
29.02632349708796
 10
83.70350545048792
 20
28.90478760776648
 10
83.7149337058209
 20
28.78621380362591
 10
83.72658724260569
 20
28.67050815019524
 10
83.73846696102587
 20
28.55757671300342
 10
83.75057376126489
 20
28.44732555757952
 10
83.7629085435064
 20
28.33966074945272
 10
83.77547220793379
 20
28.23448835415189
 10
83.78826565473067
 20
28.13171443720609
 10
83.80128978408057
 20
28.03124506414434
 10
83.81454549616696
 20
27.93298630049577
 10
83.8417552692835
 20
27.74272486355414
 10
83.86990217554844
 20
27.56017865061347
 10
83.89899341643006
 20
27.38459618590594
 10
83.92903619339655
 20
27.21522599366392
 10
83.96003770791619
 20
27.05131659811963
 10
83.99200516145711
 20
26.89211652350536
 10
84.02494575548761
 20
26.73687429405345
 10
84.05886669147584
 20
26.5848384339962
 10
84.09377517089003
 20
26.43525746756575
 10
84.16658356586934
 20
26.14045431251464
 10
84.24351968704927
 20
25.8474308833313
 10
84.32514046816503
 20
25.55553300749585
 10
84.41211707728635
 20
25.26533222600455
 10
84.50512068794747
 20
24.97740013848727
 10
84.60482247368259
 20
24.69230834457375
 10
84.65739492393241
 20
24.55100618260275
 10
84.71189360802606
 20
24.41062844389387
 10
84.76840242265533
 20
24.27124657840085
 10
84.82700526451203
 20
24.13293203607743
 10
84.88778603028798
 20
23.99575626687727
 10
84.95082861667487
 20
23.85979072075418
 10
85.01621692036456
 20
23.72510684766183
 10
85.08403483804871
 20
23.59177609755403
 10
85.15436626641927
 20
23.45986992038439
 10
85.22729510216795
 20
23.32945976610671
 10
85.30290524198646
 20
23.20061708467472
 10
85.38128058256667
 20
23.0734133260421
 10
85.46246976951357
 20
22.94790058414367
 10
85.5463539801212
 20
22.8240389977405
 10
85.63276471209002
 20
22.7017614270261
 10
85.72153345523679
 20
22.58100072786517
 10
85.81249169937825
 20
22.46168975612215
 10
85.90547093433121
 20
22.34376136766178
 10
86.00030264991231
 20
22.22714841834869
 10
86.09681833593841
 20
22.1117837640474
 10
86.29422757859243
 20
21.88453076393881
 10
86.49635058082733
 20
21.66146521425281
 10
86.7019690772032
 20
21.4421009206427
 10
86.91070336460564
 20
21.22628086288341
 10
87.12250700728558
 20
21.01397884345556
 10
87.33733441769262
 20
20.80516899779656
 10
87.55514000827609
 20
20.59982546134393
 10
87.77587819148562
 20
20.39792236953497
 10
87.99950337977071
 20
20.19943385780721
 10
88.22596998558081
 20
20.00433406159806
 10
88.45523242136543
 20
19.81259711634493
 10
88.68724509957408
 20
19.62419715748524
 10
88.92196243265628
 20
19.43910832045645
 10
89.1593388330615
 20
19.25730474069598
 10
89.39932871323927
 20
19.0787605536413
 10
89.64188648563903
 20
18.90344989472976
 10
89.88696656271036
 20
18.73134689939888
 10
90.1345233569028
 20
18.56242570308598
 10
90.38451128066576
 20
18.39666044122856
 10
90.63688474644878
 20
18.23402524926405
 10
90.89159816670138
 20
18.07449426262985
 10
91.14860595387304
 20
17.91804161676344
 10
91.40786252041323
 20
17.76464144710218
 10
91.66932227877156
 20
17.61426788908358
 10
91.93293964139739
 20
17.466895078145
 10
92.19866902074031
 20
17.32249714972391
 10
92.4664648292498
 20
17.18104823925768
 10
92.73628147937536
 20
17.04252248218387
 10
93.00807338356646
 20
16.90689401393985
 10
93.28179495427272
 20
16.77413696996296
 10
93.55740060394357
 20
16.6442254856907
 10
93.83484474502848
 20
16.5171336965605
 10
94.11408178997699
 20
16.3928357380098
 10
94.39506615123859
 20
16.27130574547601
 10
94.67775224126283
 20
16.15251785439659
 10
94.96209447249915
 20
16.03644620020896
 10
95.24804725739706
 20
15.92306491835052
 10
95.53556500840612
 20
15.81234814425875
 10
95.82460213797579
 20
15.704270013371
 10
96.11511305855543
 20
15.5988046611248
 10
96.40705218259476
 20
15.49592622295751
 10
96.70037392254323
 20
15.39560883430658
 10
96.99503269085031
 20
15.29782663060945
 10
97.29098289996557
 20
15.20255374730351
 10
97.58817896233841
 20
15.10976431982624
 10
97.88657529041836
 20
15.01943248361505
 10
98.18612629665501
 20
14.93153237410735
 10
98.4867863934977
 20
14.84603812674061
 10
98.78850999339613
 20
14.76292387695224
 10
99.09125150879965
 20
14.68216376017966
 10
99.39496535215781
 20
14.60373191186033
 10
99.69960593592009
 20
14.52760246743167
 10
100.0051276725359
 20
14.45374956233109
 10
100.311484974455
 20
14.38214733199601
 10
100.6186322541268
 20
14.31276991186388
 10
100.9265239240007
 20
14.24559143737212
 10
101.2351143965263
 20
14.18058604395821
 10
101.5443580841531
 20
14.11772786705955
 10
101.8542093993305
 20
14.05699104211351
 10
102.164622754508
 20
13.99834970455759
 10
102.4755525621353
 20
13.94177798982923
 10
102.7869532346617
 20
13.88725003336583
 10
103.41098482421
 20
13.78422193698355
 10
104.0363528227491
 20
13.68905849891035
 10
104.6626925298749
 20
13.60155280264558
 10
105.2896392451835
 20
13.52149793168865
 10
105.9168282682709
 20
13.44868696953909
 10
106.5438948987331
 20
13.38291299969631
 10
107.1704744361662
 20
13.32396910565973
 10
107.7962021801661
 20
13.27164837092874
 10
108.4207134303289
 20
13.22574387900289
 10
109.0436434862505
 20
13.18604871338158
 10
109.6646276475271
 20
13.15235595756422
 10
110.2833012137547
 20
13.12445869505029
 10
110.8992994845293
 20
13.1021500093392
 10
111.5122577594467
 20
13.08522298393035
 10
112.1218113381033
 20
13.07347070232327
 10
112.7275955200949
 20
13.06668624801739
 10
113.3292618839003
 20
13.06464666658473
 10
113.4791431068154
 20
13.06470560952914
 10
113.6313458838474
 20
13.06477377768084
 10
113.7114546663102
 20
13.06480249002322
 10
113.7962486808932
 20
13.06482778973492
 10
113.8872381547136
 20
13.06484980320965
 10
113.935528134812
 20
13.06485961710626
 10
113.9859333148885
 20
13.06486865684121
 10
114.0386424733329
 20
13.06487693821384
 10
114.0938443885347
 20
13.06488447702327
 10
114.1517278388837
 20
13.06489128906878
 10
114.2124816027692
 20
13.06489739014955
 10
114.2762944585811
 20
13.06490279606481
 10
114.343355184709
 20
13.06490752261379
 10
114.4138525595425
 20
13.06491158559572
 10
114.4879753614713
 20
13.06491500080978
 10
114.5659123688848
 20
13.06491778405518
 10
114.6478523601728
 20
13.06491995113111
 10
114.7339841137249
 20
13.06492151783692
 10
114.8244964079305
 20
13.06492249997166
 10
114.9195780211794
 20
13.06492291333467
 10
115.0194177318614
 20
13.06492277372507
 10
115.124204318366
 20
13.06492209694215
 10
115.2341265590828
 20
13.06492089878509
 10
115.3493732324014
 20
13.06491919505316
 10
115.4701331167114
 20
13.06491700154549
 10
115.5965949904025
 20
13.06491433406131
 10
115.728947631864
 20
13.0649112083999
 10
115.8673798194859
 20
13.06490764036044
 10
116.0120803316579
 20
13.06490364574216
 10
116.1632379467694
 20
13.06489924034423
 10
116.3210414432102
 20
13.06489443996588
 10
116.4856795993697
 20
13.0648892604064
 10
116.6573411936376
 20
13.06488371746491
 10
116.8362150044035
 20
13.06487782694069
 10
117.022489810057
 20
13.06487160463291
 10
117.2163543889877
 20
13.06486506634081
 10
117.4179975195855
 20
13.06485822786362
 10
117.6276079802399
 20
13.06485110500051
 10
117.7354599525851
 20
13.0648474418615
 10
117.8453745493405
 20
13.06484371355077
 10
117.9573753678048
 20
13.06483992204312
 10
118.0714860052768
 20
13.06483606931351
 10
118.1877300590552
 20
13.06483215733686
 10
118.3061311264386
 20
13.06482818808808
 10
118.4267128047258
 20
13.06482416354203
 10
118.5494986912154
 20
13.0648200856736
 10
118.6745123832062
 20
13.06481595645772
 10
118.8017774779965
 20
13.06481177786929
 10
118.9313175728853
 20
13.06480755188323
 10
119.0631562651718
 20
13.06480328047439
 10
119.1973171521542
 20
13.06479896561774
 10
119.3338238311314
 20
13.06479460928813
 10
119.4726998994019
 20
13.06479021346047
 10
119.6139689542645
 20
13.06478578010967
 10
119.7576545930179
 20
13.06478131121065
 10
119.9037804129608
 20
13.06477680873831
 10
120.0523700113919
 20
13.06477227466752
 10
120.2034469856099
 20
13.06476771097323
 10
120.3570349329135
 20
13.0647631196303
 10
120.5131574506014
 20
13.06475850261358
 10
120.6718381359723
 20
13.06475386189811
 10
120.8331005863249
 20
13.06474919945867
 10
120.9969683989579
 20
13.06474451727024
 10
121.1634651711695
 20
13.06473981730772
 10
121.3326145002589
 20
13.06473510154592
 10
121.5044399835253
 20
13.06473037195985
 10
121.678965218267
 20
13.06472563052432
 10
121.8562138017826
 20
13.06472087921435
 10
122.0362093313708
 20
13.06471612000473
 10
122.2189754043304
 20
13.06471135487038
 10
122.40453561796
 20
13.06470658578627
 10
122.5929135695583
 20
13.06470181472724
  0
LWPOLYLINE
  5
111B
330
1F
100
AcDbEntity
  8
0
100
AcDbPolyline
 90
      521
 70
     0
 43
0.0
 10
42.59997599999985
 20
260.4008160000001
 10
42.63542946722753
 20
258.6430876033516
 10
42.67174660004764
 20
256.8853929469866
 10
42.70979106405262
 20
255.1277657711886
 10
42.75042652483493
 20
253.3702398162409
 10
42.79451664798696
 20
251.6128488224271
 10
42.84292509910124
 20
249.8556265300306
 10
42.89651554377011
 20
248.0986066793349
 10
42.95615164758607
 20
246.3418230106235
 10
43.02269707614146
 20
244.5853092641798
 10
43.0970154950288
 20
242.8290991802871
 10
43.17997056984057
 20
241.0732264992294
 10
43.2724067544534
 20
239.3177279861327
 10
43.37489953250961
 20
237.5626827549058
 10
43.48782640278339
 20
235.8082010917465
 10
43.61156026856519
 20
234.0543940064016
 10
43.74647403314553
 20
232.3013725086182
 10
43.89294059981501
 20
230.549247608143
 10
44.05133287186408
 20
228.798130314723
 10
44.22202375258319
 20
227.0481316381049
 10
44.40538614526296
 20
225.2993625880359
 10
44.60179295319392
 20
223.5519341742626
 10
44.81161707966651
 20
221.805957406532
 10
45.03523140513453
 20
220.0615434556497
 10
45.2730036160318
 20
218.3188401237806
 10
45.52528963209742
 20
216.5780781989159
 10
45.79244375297853
 20
214.8394998949119
 10
46.07482027832224
 20
213.1033474256255
 10
46.37277350777543
 20
211.3698630049132
 10
46.6866577409853
 20
209.6392888466319
 10
47.01682727759888
 20
207.9118671646382
 10
47.36363641726324
 20
206.1878401727888
 10
47.72743945962542
 20
204.4674500849404
 10
48.10859070433252
 20
202.7509391149497
 10
48.50744445103153
 20
201.0385494766734
 10
48.92431837613287
 20
199.3305132916593
 10
49.359036613778
 20
197.6269266754253
 10
49.81106942269789
 20
195.9277882256215
 10
50.27987934441011
 20
194.2330944132567
 10
50.764928920432
 20
192.5428417093393
 10
51.26568069228103
 20
190.8570265848777
 10
51.78159720147458
 20
189.1756455108805
 10
52.31214098953017
 20
187.4986949583565
 10
52.85677459796524
 20
185.8261713983138
 10
53.41496056829711
 20
184.1580713017611
 10
53.98616144204338
 20
182.494391139707
 10
54.56983976072143
 20
180.8351273831599
 10
55.16547744406766
 20
179.1802746235786
 10
55.77273211236506
 20
177.5298104107148
 10
56.39135492567561
 20
175.8837032216251
 10
57.02109791367433
 20
174.2419214490199
 10
57.66171310603606
 20
172.6044334856096
 10
58.3129525324358
 20
170.9712077241042
 10
58.97456822254849
 20
169.3422125572144
 10
59.64631220604894
 20
167.7174163776502
 10
60.32793651261219
 20
166.0967875781222
 10
61.01919317191311
 20
164.4802945513405
 10
61.71983421362664
 20
162.8679056900155
 10
62.42961166742764
 20
161.2595893868575
 10
63.14828087971124
 20
159.6553142604985
 10
63.87568764592531
 20
158.055055090595
 10
64.61177685856938
 20
156.4587934068949
 10
65.35649846098481
 20
154.8665110831894
 10
66.10980239651313
 20
153.2781899932693
 10
66.87163860849579
 20
151.6938120109258
 10
67.64196011117006
 20
150.1133608122655
 10
68.42154805703756
 20
148.537306109666
 10
69.21312692220765
 20
146.9672581566431
 10
70.01969961796333
 20
145.4049906209624
 10
70.8442690555875
 20
143.8522771703897
 10
71.68983814636317
 20
142.3108914726909
 10
72.55940980157328
 20
140.7826071956316
 10
73.454885524688
 20
139.2685928575156
 10
74.36853874910474
 20
137.7647270001673
 10
75.28766772652994
 20
136.2641546379307
 10
76.19952905880757
 20
134.7599979013535
 10
77.09137934778141
 20
133.2453789209836
 10
77.09137934778141
 20
133.2453789209836
 10
77.09137934778141
 20
133.2453789209836
 10
77.09137934778141
 20
133.2453789209836
 42
-0.1107802132887534
 10
81.39997599999984
 20
113.2839658066656
 10
81.39997599999984
 20
78.62303725400352
 10
81.39997599999984
 20
78.2747161412279
 10
81.39997599999984
 20
77.92878070862258
 10
81.39997599999984
 20
77.58521987105723
 10
81.39997599999984
 20
77.24402254340145
 10
81.39997599999984
 20
76.90517764052484
 10
81.39997599999984
 20
76.56867407729703
 10
81.39997599999984
 20
76.23450076858768
 10
81.39997599999984
 20
75.90264662926632
 10
81.39997599999984
 20
75.57310057420264
 10
81.39997599999984
 20
75.24585151826622
 10
81.39997599999984
 20
74.92088837632667
 10
81.39997599999984
 20
74.59820006325367
 10
81.39997599999984
 20
74.27777549391675
 10
81.39997599999984
 20
73.95960358318558
 10
81.39997599999984
 20
73.64367324592979
 10
81.39997599999984
 20
73.32997339701896
 10
81.39997599999984
 20
73.01849295132274
 10
81.39997599999984
 20
72.70922082371072
 10
81.39997599999984
 20
72.40214592905251
 10
81.39997599999984
 20
72.09725718221775
 10
81.39997599999984
 20
71.79454349807608
 10
81.39997599999984
 20
71.49399379149706
 10
81.39997599999984
 20
71.19559697735036
 10
81.39997599999984
 20
70.89934197050556
 10
81.39997599999984
 20
70.60521768583228
 10
81.39997599999984
 20
70.31321303820016
 10
81.39997599999984
 20
70.02331694247883
 10
81.39997599999984
 20
69.73551831353785
 10
81.39997599999984
 20
69.44980606624688
 10
81.39997599999984
 20
69.16616911547555
 10
81.39997599999984
 20
68.88459637609344
 10
81.39997599999984
 20
68.60507676297018
 10
81.39997599999984
 20
68.32759919097537
 10
81.39997599999984
 20
68.05215257497869
 10
81.39997599999984
 20
67.77872582984969
 10
81.39997599999984
 20
67.50730787045802
 10
81.39997599999984
 20
67.23788761167333
 10
81.39997599999984
 20
66.97045396836512
 10
81.39997599999984
 20
66.70499585540311
 10
81.39997599999984
 20
66.44150218765694
 10
81.39997599999984
 20
66.17996187999614
 10
81.39997599999984
 20
65.92036384729039
 10
81.39997599999984
 20
65.66269700440925
 10
81.39997599999984
 20
65.40695026622239
 10
81.39997599999984
 20
65.15311254759942
 10
81.39997599999984
 20
64.90117276340993
 10
81.39997599999984
 20
64.65111982852356
 10
81.39997599999984
 20
64.40294265780996
 10
81.39997599999984
 20
64.15663016613866
 10
81.39997599999984
 20
63.91217126837933
 10
81.39997599999984
 20
63.66955487940156
 10
81.39997599999984
 20
63.42876991407504
 10
81.39997599999984
 20
63.18980528726934
 10
81.39997599999984
 20
62.95264991385402
 10
81.39997599999984
 20
62.71729270869879
 10
81.39997599999984
 20
62.48372258667325
 10
81.39997599999984
 20
62.25192846264699
 10
81.39997599999984
 20
62.02189925148963
 10
81.39997599999984
 20
61.79362386807078
 10
81.39997599999984
 20
61.56709122726002
 10
81.39997599999984
 20
61.34229024392714
 10
81.39997599999984
 20
61.11920983294155
 10
81.39997599999984
 20
60.89783890917296
 10
81.39997599999984
 20
60.67816638749099
 10
81.39997599999984
 20
60.46018118276528
 10
81.39997599999984
 20
60.24387220986534
 10
81.39997599999984
 20
60.02922838366091
 10
81.39997599999984
 20
59.81623861902156
 10
81.39997599999984
 20
59.60489183081688
 10
81.39997599999984
 20
59.39517693391656
 10
81.39997599999984
 20
59.18708284319013
 10
81.39997599999984
 20
58.98059847350726
 10
81.39997599999984
 20
58.77571273973757
 10
81.39997599999984
 20
58.37069283941612
 10
81.39997599999984
 20
57.97193446118274
 10
81.39997599999984
 20
57.57934892399439
 10
81.39997599999984
 20
57.19284754680797
 10
81.39997599999984
 20
56.81234164858047
 10
81.39997599999984
 20
56.43774254826877
 10
81.39997599999984
 20
56.06896156482985
 10
81.39997599999984
 20
55.70591001722061
 10
81.39997599999984
 20
55.34849922439807
 10
81.39997599999984
 20
54.99664050531908
 10
81.39997599999984
 20
54.65024517894062
 10
81.39997599999984
 20
54.30922456421962
 10
81.39997599999984
 20
53.97348998011302
 10
81.39997599999984
 20
53.64295274557774
 10
81.39997599999984
 20
53.31752417957076
 10
81.39997599999984
 20
52.99711560104899
 10
81.39997599999984
 20
52.68163832896935
 10
81.39997599999984
 20
52.37100368228886
 10
81.39997599999984
 20
52.06512297996439
 10
81.39997599999984
 20
51.76390754095288
 10
81.39997599999984
 20
51.46726868421132
 10
81.39997599999984
 20
51.17511772869656
 10
81.39997599999984
 20
50.88736599336562
 10
81.39997599999984
 20
50.60392479717541
 10
81.39997599999984
 20
50.32470545908285
 10
81.39997599999984
 20
50.0496192980449
 10
81.39997599999984
 20
49.77857763301853
 10
81.39997599999984
 20
49.5114917829606
 10
81.39997599999984
 20
49.24827306682812
 10
81.39997599999984
 20
48.98883280357802
 10
81.39997599999984
 20
48.73308231216721
 10
81.39997599999984
 20
48.4809329115526
 10
81.39997599999984
 20
48.23229592069122
 10
81.39997599999984
 20
47.98708265853995
 10
81.39997599999984
 20
47.74520444405573
 10
81.39997599999984
 20
47.50657259619552
 10
81.39997599999984
 20
47.27109843391625
 10
81.39997599999984
 20
47.03869327617485
 10
81.39997599999984
 20
46.80926844192825
 10
81.39997599999984
 20
46.58273525013341
 10
81.39997599999984
 20
46.35900501974728
 10
81.39997599999984
 20
46.13798906972674
 10
81.39997599999984
 20
45.91959871902886
 10
81.39997599999984
 20
45.7037452866104
 10
81.39997599999984
 20
45.49034009142842
 10
81.39997599999984
 20
45.27929445243984
 10
81.39997599999984
 20
45.07051968860156
 10
81.39997599999984
 20
44.86392711887059
 10
81.39997599999984
 20
44.65942806220377
 10
81.39997599999984
 20
44.45693383755812
 10
81.39997599999984
 20
44.25635576389054
 10
81.39997599999984
 20
44.05760516015803
 10
81.39997599999984
 20
43.86059334531744
 10
81.39997599999984
 20
43.47143135813989
 10
81.39997599999984
 20
43.08816035401348
 10
81.39997599999984
 20
42.71007088459373
 10
81.39997599999984
 20
42.33645350153607
 10
81.39997599999984
 20
41.96659875649607
 10
81.39997599999984
 20
41.59979720112921
 10
81.39997599999984
 20
41.23533938709099
 10
81.39997599999984
 20
40.87251586603708
 10
81.39997599999984
 20
40.51061718962271
 10
81.39997599999984
 20
40.42020388901625
 10
81.39997599999984
 20
40.40890262091472
 10
81.39997599999984
 20
40.40325199402665
 10
81.39997599999984
 20
40.40183933759272
 10
81.39997599999984
 20
40.40113300938986
 10
81.39997599999984
 20
40.40095642733968
 10
81.39997599999984
 20
40.40086813631467
 10
81.39997599999984
 20
40.40082399080211
 10
81.39998431829061
 20
40.39837026593732
 10
81.40006595956402
 20
40.37449640297603
 10
81.40074439570648
 20
40.18457398810517
 10
81.4014678999178
 20
39.99654279179885
 10
81.40223658472093
 20
39.81039107224814
 10
81.4030505626388
 20
39.62610708764425
 10
81.40390994619435
 20
39.44367909617858
 10
81.40481484791051
 20
39.2630953560419
 10
81.40576538031027
 20
39.08434412542515
 10
81.40676165591653
 20
38.90741366251979
 10
81.40780378725223
 20
38.7322922255168
 10
81.40889188684033
 20
38.55896807260734
 10
81.41002606720377
 20
38.38742946198266
 10
81.41120644086544
 20
38.21766465183379
 10
81.41243312034838
 20
38.04966190035208
 10
81.41370621817543
 20
37.88340946572847
 10
81.41502584686959
 20
37.71889560615387
 10
81.41639211895379
 20
37.55610857981952
 10
81.41780514695097
 20
37.39503664491672
 10
81.4192650433841
 20
37.23566805963651
 10
81.42077192077605
 20
37.0779910821703
 10
81.42232589164978
 20
36.9219939707089
 10
81.42392706852831
 20
36.7676649834433
 10
81.42557556393445
 20
36.61499237856475
 10
81.42727149039128
 20
36.46396441426452
 10
81.42901496042165
 20
36.31456934873364
 10
81.43080608654852
 20
36.16679544016353
 10
81.43264498129484
 20
36.02063094674504
 10
81.43453175718354
 20
35.87606412666906
 10
81.43844940247989
 20
35.59167653930996
 10
81.44255992262106
 20
35.31353874361566
 10
81.44686421779061
 20
35.04155680511508
 10
81.45136318817206
 20
34.77563678933695
 10
81.45605773394891
 20
34.51568476181075
 10
81.4609487553047
 20
34.26160678806531
 10
81.46603715242301
 20
34.01330893362946
 10
81.47132382548731
 20
33.77069726403244
 10
81.47680967468113
 20
33.5336778448035
 10
81.48249560018802
 20
33.30215674147144
 10
81.48838250219148
 20
33.07604001956514
 10
81.49447128087507
 20
32.85523374461383
 10
81.50076283642235
 20
32.63964398214671
 10
81.50725806901673
 20
32.42917679769261
 10
81.51395787884185
 20
32.22373825678039
 10
81.52086316608118
 20
32.02323442493929
 10
81.52797483091827
 20
31.82757136769851
 10
81.53529377353661
 20
31.63665515058693
 10
81.54282089411982
 20
31.45039183913338
 10
81.55055709285134
 20
31.26868749886711
 10
81.55850326991471
 20
31.09144819531724
 10
81.56666032549349
 20
30.91857999401276
 10
81.57502915977117
 20
30.74998896048243
 10
81.58361067293132
 20
30.58558116025551
 10
81.59240576515744
 20
30.42526265886113
 10
81.60141533663304
 20
30.26893952182826
 10
81.6106402875417
 20
30.11651781468572
 10
81.6200815180669
 20
29.96790360296268
 10
81.62973992839217
 20
29.8230029521884
 10
81.63961641870107
 20
29.68172192789166
 10
81.64971188917711
 20
29.54396659560149
 10
81.66002724000383
 20
29.40964302084694
 10
81.67056337136475
 20
29.27865726915724
 10
81.68132118344336
 20
29.15091540606125
 10
81.69230157642326
 20
29.02632349708796
 10
81.70350545048792
 20
28.90478760776648
 10
81.71493370582089
 20
28.78621380362591
 10
81.72658724260569
 20
28.67050815019524
 10
81.73846696102586
 20
28.55757671300342
 10
81.75057376126494
 20
28.44732555757952
 10
81.76290854350638
 20
28.33966074945272
 10
81.77547220793377
 20
28.23448835415189
 10
81.78826565473071
 20
28.13171443720609
 10
81.80128978408056
 20
28.03124506414434
 10
81.81454549616697
 20
27.93298630049577
 10
81.82803369117344
 20
27.83684421178941
 10
81.84175526928347
 20
27.74272486355414
 10
81.85571113068066
 20
27.65053432131913
 10
81.86990217554845
 20
27.56017865061347
 10
81.8843293040704
 20
27.47156391696609
 10
81.89899341643004
 20
27.38459618590594
 10
81.92903619339658
 20
27.21522599366392
 10
81.96003770791618
 20
27.05131659811963
 10
81.99200516145713
 20
26.89211652350536
 10
82.0249457554876
 20
26.73687429405345
 10
82.05886669147584
 20
26.5848384339962
 10
82.09377517089007
 20
26.43525746756575
 10
82.16658356586933
 20
26.14045431251464
 10
82.24351968704928
 20
25.8474308833313
 10
82.32514046816504
 20
25.55553300749585
 10
82.41211707728636
 20
25.26533222600455
 10
82.45782355907854
 20
25.12104687052233
 10
82.50512068794746
 20
24.97740013848727
 10
82.55409236058488
 20
24.83446347985319
 10
82.60482247368257
 20
24.69230834457375
 10
82.65739492393239
 20
24.55100618260275
 10
82.71189360802607
 20
24.41062844389387
 10
82.76840242265533
 20
24.27124657840085
 10
82.82700526451206
 20
24.13293203607743
 10
82.88778603028799
 20
23.99575626687727
 10
82.95082861667486
 20
23.85979072075418
 10
83.01621692036455
 20
23.72510684766183
 10
83.08403483804873
 20
23.59177609755403
 10
83.15436626641927
 20
23.45986992038439
 10
83.22729510216792
 20
23.32945976610671
 10
83.30290524198645
 20
23.20061708467472
 10
83.38128058256669
 20
23.0734133260421
 10
83.46246976951361
 20
22.94790058414367
 10
83.54635398012119
 20
22.8240389977405
 10
83.63276471209003
 20
22.7017614270261
 10
83.72153345523678
 20
22.58100072786517
 10
83.81249169937825
 20
22.46168975612215
 10
83.9054709343312
 20
22.34376136766178
 10
84.00030264991228
 20
22.22714841834869
 10
84.09681833593841
 20
22.1117837640474
 10
84.19484948222621
 20
21.99760026062256
 10
84.29422757859242
 20
21.88453076393881
 10
84.49635058082732
 20
21.66146521425281
 10
84.70196907720319
 20
21.4421009206427
 10
84.91070336460564
 20
21.22628086288341
 10
85.12250700728563
 20
21.01397884345556
 10
85.33733441769262
 20
20.80516899779656
 10
85.55514000827612
 20
20.59982546134393
 10
85.77587819148567
 20
20.39792236953497
 10
85.9995033797707
 20
20.19943385780721
 10
86.22596998558078
 20
20.00433406159806
 10
86.45523242136544
 20
19.81259711634493
 10
86.68724509957407
 20
19.62419715748524
 10
86.92196243265625
 20
19.43910832045645
 10
87.15933883306147
 20
19.25730474069598
 10
87.39932871323928
 20
19.0787605536413
 10
87.64188648563903
 20
18.90344989472976
 10
87.8869665627104
 20
18.73134689939888
 10
88.13452335690278
 20
18.56242570308598
 10
88.38451128066576
 20
18.39666044122856
 10
88.63688474644879
 20
18.23402524926405
 10
88.89159816670137
 20
18.07449426262985
 10
89.14860595387303
 20
17.91804161676344
 10
89.40786252041325
 20
17.76464144710218
 10
89.66932227877157
 20
17.61426788908358
 10
89.93293964139738
 20
17.466895078145
 10
90.19866902074031
 20
17.32249714972391
 10
90.46646482924984
 20
17.18104823925768
 10
90.73628147937537
 20
17.04252248218387
 10
91.00807338356647
 20
16.90689401393985
 10
91.28179495427273
 20
16.77413696996296
 10
91.55740060394355
 20
16.6442254856907
 10
91.83484474502847
 20
16.5171336965605
 10
92.11408178997698
 20
16.3928357380098
 10
92.39506615123859
 20
16.27130574547601
 10
92.67775224126284
 20
16.15251785439659
 10
92.96209447249916
 20
16.03644620020896
 10
93.24804725739706
 20
15.92306491835052
 10
93.53556500840609
 20
15.81234814425875
 10
93.82460213797576
 20
15.704270013371
 10
94.1151130585554
 20
15.5988046611248
 10
94.40705218259472
 20
15.49592622295751
 10
94.70037392254321
 20
15.39560883430658
 10
94.99503269085035
 20
15.29782663060945
 10
95.29098289996555
 20
15.20255374730351
 10
95.5881789623384
 20
15.10976431982624
 10
95.88657529041842
 20
15.01943248361505
 10
96.186126296655
 20
14.93153237410735
 10
96.48678639349776
 20
14.84603812674061
 10
96.78850999339616
 20
14.76292387695224
 10
97.09125150879962
 20
14.68216376017966
 10
97.3949653521578
 20
14.60373191186033
 10
97.69960593592006
 20
14.52760246743167
 10
98.00512767253595
 20
14.45374956233109
 10
98.31148497445507
 20
14.38214733199601
 10
98.61863225412683
 20
14.31276991186388
 10
98.92652392400076
 20
14.24559143737212
 10
99.23511439652635
 20
14.18058604395821
 10
99.54435808415308
 20
14.11772786705955
 10
99.85420939933051
 20
14.05699104211351
 10
100.164622754508
 20
13.99834970455759
 10
100.4755525621353
 20
13.94177798982923
 10
100.7869532346617
 20
13.88725003336583
 10
101.0987791845368
 20
13.8347399706048
 10
101.41098482421
 20
13.78422193698355
 10
101.7235245661309
 20
13.73567006793962
 10
102.0363528227491
 20
13.68905849891035
 10
102.3494240065139
 20
13.64436136533317
 10
102.6626925298749
 20
13.60155280264558
 10
102.9761128052816
 20
13.5606069462849
 10
103.2896392451835
 20
13.52149793168865
 10
103.6032262620301
 20
13.48419989429425
 10
103.9168282682709
 20
13.44868696953909
 10
104.2303996763554
 20
13.41493329286066
 10
104.5438948987331
 20
13.38291299969631
 10
104.8572683478536
 20
13.35260022548351
 10
105.1704744361662
 20
13.32396910565973
 10
105.4834675761205
 20
13.29699377566231
 10
105.7962021801661
 20
13.27164837092874
 10
106.1086326607524
 20
13.24790702689648
 10
106.4207134303289
 20
13.22574387900289
 10
106.732398901345
 20
13.20513306268549
 10
107.0436434862505
 20
13.18604871338158
 10
107.6646276475271
 20
13.15235595756422
 10
108.2833012137547
 20
13.12445869505029
 10
108.8992994845292
 20
13.1021500093392
 10
109.5122577594468
 20
13.08522298393035
 10
110.1218113381033
 20
13.07347070232327
 10
110.7275955200949
 20
13.06668624801739
 10
111.3292618839003
 20
13.06464666658473
 10
111.4791431799619
 20
13.06470560952914
 10
111.5545096971444
 20
13.06474152631404
 10
111.6320249903351
 20
13.06477377768084
 10
111.7136393199554
 20
13.06480249002322
 10
111.7565930798082
 20
13.06481555855828
 10
111.8013029464264
 20
13.06482778973492
 10
111.8480127023627
 20
13.06483919935232
 10
111.8969661301697
 20
13.06484980320965
 10
111.9484070124
 20
13.06485961710626
 10
112.0025791316065
 20
13.06486865684121
 10
112.0597262703416
 20
13.06487693821384
 10
112.1200922111581
 20
13.06488447702327
 10
112.1839207366086
 20
13.06489128906878
 10
112.2514556292456
 20
13.06489739014955
 10
112.3229406716221
 20
13.06490279606481
 10
112.3986196462907
 20
13.06490752261379
 10
112.478736335804
 20
13.06491158559572
 10
112.5635345227146
 20
13.06491500080978
 10
112.6532579895752
 20
13.06491778405518
 10
112.7481505189386
 20
13.06491995113111
 10
112.8484558933573
 20
13.06492151783692
 10
112.9544178953838
 20
13.06492249997166
 10
113.066280307571
 20
13.06492291333467
 10
113.1842869124717
 20
13.06492277372507
 10
113.2456704692372
 20
13.06492250149284
 10
113.3086814926384
 20
13.06492209694215
 10
113.3733504554942
 20
13.06492156204797
 10
113.4397078306238
 20
13.06492089878509
 10
113.5077840908462
 20
13.06492010912853
 10
113.5776097089805
 20
13.06491919505316
 10
113.6492151578458
 20
13.06491815853383
 10
113.7226309102612
 20
13.06491700154549
 10
113.7978874390458
 20
13.06491572606302
 10
113.8750152170187
 20
13.06491433406131
 10
113.9540447169988
 20
13.06491282751534
 10
114.0350064118051
 20
13.0649112083999
 10
114.117930774257
 20
13.06490947868997
 10
114.2028482771736
 20
13.06490764036044
 10
114.2897893933739
 20
13.06490569538619
 10
114.378784595677
 20
13.06490364574216
 10
114.4698643569019
 20
13.06490149340317
 10
114.5630591498677
 20
13.06489924034423
 10
114.6583994473935
 20
13.06489688854014
 10
114.7559157222984
 20
13.06489443996588
 10
114.8556384474015
 20
13.06489189659635
 10
114.9575980955218
 20
13.0648892604064
 10
115.0618251394784
 20
13.06488653337095
 10
115.1683500520904
 20
13.06488371746491
 10
115.277203306177
 20
13.06488081466318
 10
115.3884153745571
 20
13.06487782694069
 10
115.5020167300499
 20
13.06487475627227
 10
115.6180378454741
 20
13.06487160463291
 10
115.7365091936491
 20
13.06486837399745
 10
115.8574612473944
 20
13.06486506634081
 10
115.9809244795286
 20
13.0648616836379
 10
116.106929362871
 20
13.06485822786362
 10
116.2355063702405
 20
13.06485470099284
 10
116.3666859744562
 20
13.06485110500051
 10
116.5004986483373
 20
13.0648474418615
 10
116.6369748647028
 20
13.06484371355077
 10
116.7761450963718
 20
13.06483992204312
 10
116.9180398161633
 20
13.06483606931351
 10
117.0626894968966
 20
13.06483215733686
 10
117.2101246113905
 20
13.06482818808808
 10
117.3603756324643
 20
13.06482416354203
 10
117.513473032937
 20
13.0648200856736
 10
117.6694472856277
 20
13.06481595645772
 10
117.828328863355
 20
13.06481177786929
 10
117.9901482389384
 20
13.06480755188323
 10
118.1549358851976
 20
13.06480328047439
 10
118.3227222749511
 20
13.06479896561774
 10
118.493537881018
 20
13.06479460928813
 10
118.6674131762174
 20
13.06479021346047
 10
118.8443786333683
 20
13.06478578010967
 10
119.02446472529
 20
13.06478131121065
 10
119.2077019248013
 20
13.06477680873831
 10
119.3941207047215
 20
13.06477227466752
 10
119.5837515378696
 20
13.06476771097323
 10
119.7766248970647
 20
13.0647631196303
 10
119.9727712551258
 20
13.06475850261358
 10
120.1722210848721
 20
13.06475386189811
 10
120.3750048591227
 20
13.06474919945867
 10
120.5811530506966
 20
13.06474451727024
 10
120.7906961324122
 20
13.06473981730772
 10
121.0036645770893
 20
13.06473510154592
 10
121.2200888575477
 20
13.06473037195985
 10
121.4399994466056
 20
13.06472563052432
 10
121.6634268170824
 20
13.06472087921435
 10
121.8904014417969
 20
13.06471612000473
 10
122.1209537935683
 20
13.06471135487038
 10
122.3551143452158
 20
13.06470658578627
 10
122.5929135695583
 20
13.06470181472724
  0
LWPOLYLINE
  5
111D
330
1F
100
AcDbEntity
  8
0
100
AcDbPolyline
 90
      635
 70
     0
 43
0.0
 10
42.59997599999985
 20
260.4008160000001
 10
42.63542946722753
 20
258.6430876033516
 10
42.67174660004764
 20
256.8853929469866
 10
42.70979106405262
 20
255.1277657711886
 10
42.75042652483493
 20
253.3702398162409
 10
42.79451664798696
 20
251.6128488224271
 10
42.84292509910124
 20
249.8556265300306
 10
42.89651554377011
 20
248.0986066793349
 10
42.95615164758607
 20
246.3418230106235
 10
43.02269707614146
 20
244.5853092641798
 10
43.0970154950288
 20
242.8290991802871
 10
43.17997056984057
 20
241.0732264992294
 10
43.2724067544534
 20
239.3177279861327
 10
43.37489953250961
 20
237.5626827549058
 10
43.48782640278339
 20
235.8082010917465
 10
43.61156026856519
 20
234.0543940064016
 10
43.74647403314553
 20
232.3013725086182
 10
43.89294059981501
 20
230.549247608143
 10
44.05133287186408
 20
228.798130314723
 10
44.22202375258319
 20
227.0481316381049
 10
44.40538614526296
 20
225.2993625880359
 10
44.60179295319392
 20
223.5519341742626
 10
44.81161707966651
 20
221.805957406532
 10
45.03523140513453
 20
220.0615434556497
 10
45.2730036160318
 20
218.3188401237806
 10
45.52528963209742
 20
216.5780781989159
 10
45.79244375297853
 20
214.8394998949119
 10
46.07482027832224
 20
213.1033474256255
 10
46.37277350777543
 20
211.3698630049132
 10
46.6866577409853
 20
209.6392888466319
 10
47.01682727759888
 20
207.9118671646382
 10
47.36363641726324
 20
206.1878401727888
 10
47.72743945962542
 20
204.4674500849404
 10
48.10859070433252
 20
202.7509391149497
 10
48.50744445103153
 20
201.0385494766734
 10
48.92431837613287
 20
199.3305132916593
 10
49.359036613778
 20
197.6269266754253
 10
49.81106942269789
 20
195.9277882256215
 10
50.27987934441011
 20
194.2330944132567
 10
50.764928920432
 20
192.5428417093393
 10
51.26568069228103
 20
190.8570265848777
 10
51.78159720147458
 20
189.1756455108805
 10
52.31214098953017
 20
187.4986949583565
 10
52.85677459796524
 20
185.8261713983138
 10
53.41496056829711
 20
184.1580713017611
 10
53.98616144204338
 20
182.494391139707
 10
54.56983976072143
 20
180.8351273831599
 10
55.16547744406766
 20
179.1802746235786
 10
55.77273211236506
 20
177.5298104107148
 10
56.39135492567561
 20
175.8837032216251
 10
57.02109791367433
 20
174.2419214490199
 10
57.66171310603606
 20
172.6044334856096
 10
58.3129525324358
 20
170.9712077241042
 10
58.97456822254849
 20
169.3422125572144
 10
59.64631220604894
 20
167.7174163776502
 10
60.32793651261219
 20
166.0967875781222
 10
61.01919317191311
 20
164.4802945513405
 10
61.71983421362664
 20
162.8679056900155
 10
62.42961166742764
 20
161.2595893868575
 10
63.14828087971124
 20
159.6553142604985
 10
63.87568764592531
 20
158.055055090595
 10
64.61177685856938
 20
156.4587934068949
 10
65.35649846098481
 20
154.8665110831894
 10
66.10980239651313
 20
153.2781899932693
 10
66.87163860849579
 20
151.6938120109258
 10
67.64196011117006
 20
150.1133608122655
 10
68.42154805703756
 20
148.537306109666
 10
69.21312692220765
 20
146.9672581566431
 10
71.12821451313206
 20
143.2578849196989
 42
-0.1197143428216784
 10
76.69997599999985
 20
120.3203257073451
 10
76.69997599999985
 20
77.24402254340145
 10
76.69997599999985
 20
76.90517764052484
 10
76.69997599999985
 20
76.56867407729703
 10
76.69997599999985
 20
76.23450076858768
 10
76.69997599999985
 20
75.90264662926632
 10
76.69997599999985
 20
75.57310057420264
 10
76.69997599999985
 20
75.24585151826622
 10
76.69997599999985
 20
74.92088837632667
 10
76.69997599999985
 20
74.59820006325367
 10
76.69997599999985
 20
74.27777549391675
 10
76.69997599999985
 20
73.95960358318558
 10
76.69997599999985
 20
73.64367324592979
 10
76.69997599999985
 20
73.32997339701896
 10
76.69997599999985
 20
73.01849295132274
 10
76.69997599999985
 20
72.70922082371072
 10
76.69997599999985
 20
72.40214592905251
 10
76.69997599999985
 20
72.09725718221775
 10
76.69997599999985
 20
71.79454349807608
 10
76.69997599999985
 20
71.49399379149706
 10
76.69997599999985
 20
71.19559697735036
 10
76.69997599999985
 20
70.89934197050556
 10
76.69997599999985
 20
70.60521768583228
 10
76.69997599999985
 20
70.31321303820016
 10
76.69997599999985
 20
70.02331694247883
 10
76.69997599999985
 20
69.73551831353785
 10
76.69997599999985
 20
69.44980606624688
 10
76.69997599999985
 20
69.16616911547555
 10
76.69997599999985
 20
68.88459637609344
 10
76.69997599999985
 20
68.60507676297018
 10
76.69997599999985
 20
68.32759919097537
 10
76.69997599999985
 20
68.05215257497869
 10
76.69997599999985
 20
67.77872582984969
 10
76.69997599999985
 20
67.50730787045802
 10
76.69997599999985
 20
67.23788761167333
 10
76.69997599999985
 20
66.97045396836512
 10
76.69997599999985
 20
66.70499585540311
 10
76.69997599999985
 20
66.44150218765694
 10
76.69997599999985
 20
66.17996187999614
 10
76.69997599999985
 20
65.92036384729039
 10
76.69997599999985
 20
65.66269700440925
 10
76.69997599999985
 20
65.40695026622239
 10
76.69997599999985
 20
65.15311254759942
 10
76.69997599999985
 20
64.90117276340993
 10
76.69997599999985
 20
64.65111982852356
 10
76.69997599999985
 20
64.40294265780996
 10
76.69997599999985
 20
64.15663016613866
 10
76.69997599999985
 20
63.91217126837933
 10
76.69997599999985
 20
63.66955487940156
 10
76.69997599999985
 20
63.42876991407504
 10
76.69997599999985
 20
63.18980528726934
 10
76.69997599999985
 20
62.95264991385402
 10
76.69997599999985
 20
62.71729270869879
 10
76.69997599999985
 20
62.48372258667325
 10
76.69997599999985
 20
62.25192846264699
 10
76.69997599999985
 20
62.02189925148963
 10
76.69997599999985
 20
61.79362386807078
 10
76.69997599999985
 20
61.56709122726002
 10
76.69997599999985
 20
61.34229024392714
 10
76.69997599999985
 20
61.11920983294155
 10
76.69997599999985
 20
60.89783890917296
 10
76.69997599999985
 20
60.67816638749099
 10
76.69997599999985
 20
60.46018118276528
 10
76.69997599999985
 20
60.24387220986534
 10
76.69997599999985
 20
60.02922838366091
 10
76.69997599999985
 20
59.81623861902156
 10
76.69997599999985
 20
59.60489183081688
 10
76.69997599999985
 20
59.39517693391656
 10
76.69997599999985
 20
59.18708284319013
 10
76.69997599999985
 20
58.98059847350726
 10
76.69997599999985
 20
58.77571273973757
 10
76.69997599999985
 20
58.57241455675063
 10
76.69997599999985
 20
58.37069283941612
 10
76.69997599999985
 20
58.17053650260362
 10
76.69997599999985
 20
57.97193446118274
 10
76.69997599999985
 20
57.77487563002313
 10
76.69997599999985
 20
57.57934892399439
 10
76.69997599999985
 20
57.38534325796614
 10
76.69997599999985
 20
57.19284754680797
 10
76.69997599999985
 20
57.00185070538957
 10
76.69997599999985
 20
56.81234164858047
 10
76.69997599999985
 20
56.62430929125031
 10
76.69997599999985
 20
56.43774254826877
 10
76.69997599999985
 20
56.2526303345054
 10
76.69997599999985
 20
56.06896156482985
 10
76.69997599999985
 20
55.88672515411173
 10
76.69997599999985
 20
55.70591001722061
 10
76.69997599999985
 20
55.5265050690262
 10
76.69997599999985
 20
55.34849922439807
 10
76.69997599999985
 20
55.17188139820581
 10
76.69997599999985
 20
54.99664050531908
 10
76.69997599999985
 20
54.82276546060745
 10
76.69997599999985
 20
54.65024517894062
 10
76.69997599999985
 20
54.47906857518812
 10
76.69997599999985
 20
54.30922456421962
 10
76.69997599999985
 20
54.14070206090468
 10
76.69997599999985
 20
53.97348998011302
 10
76.69997599999985
 20
53.80757723671415
 10
76.69997599999985
 20
53.64295274557774
 10
76.69997599999985
 20
53.47960542157341
 10
76.69997599999985
 20
53.31752417957076
 10
76.69997599999985
 20
53.15669793443942
 10
76.69997599999985
 20
52.99711560104899
 10
76.69997599999985
 20
52.83876609426911
 10
76.69997599999985
 20
52.68163832896935
 10
76.69997599999985
 20
52.52572122001943
 10
76.69997599999985
 20
52.37100368228886
 10
76.69997599999985
 20
52.21747463064732
 10
76.69997599999985
 20
52.06512297996439
 10
76.69997599999985
 20
51.91393764510971
 10
76.69997599999985
 20
51.76390754095288
 10
76.69997599999985
 20
51.61502158236356
 10
76.69997599999985
 20
51.46726868421132
 10
76.69997599999985
 20
51.32063776136575
 10
76.69997599999985
 20
51.17511772869656
 10
76.69997599999985
 20
51.03069750107332
 10
76.69997599999985
 20
50.88736599336562
 10
76.69997599999985
 20
50.7451121204431
 10
76.69997599999985
 20
50.60392479717541
 10
76.69997599999985
 20
50.46379293843211
 10
76.69997599999985
 20
50.32470545908285
 10
76.69997599999985
 20
50.0496192980449
 10
76.69997599999985
 20
49.77857763301853
 10
76.69997599999985
 20
49.5114917829606
 10
76.69997599999985
 20
49.24827306682812
 10
76.69997599999985
 20
48.98883280357802
 10
76.69997599999985
 20
48.73308231216721
 10
76.69997599999985
 20
48.4809329115526
 10
76.69997599999985
 20
48.23229592069122
 10
76.69997599999985
 20
47.98708265853995
 10
76.69997599999985
 20
47.74520444405573
 10
76.69997599999985
 20
47.50657259619552
 10
76.69997599999985
 20
47.27109843391625
 10
76.69997599999985
 20
47.03869327617485
 10
76.69997599999985
 20
46.80926844192825
 10
76.69997599999985
 20
46.58273525013341
 10
76.69997599999985
 20
46.35900501974728
 10
76.69997599999985
 20
46.13798906972674
 10
76.69997599999985
 20
45.91959871902886
 10
76.69997599999985
 20
45.7037452866104
 10
76.69997599999985
 20
45.49034009142842
 10
76.69997599999985
 20
45.27929445243984
 10
76.69997599999985
 20
45.07051968860156
 10
76.69997599999985
 20
44.86392711887059
 10
76.69997599999985
 20
44.65942806220377
 10
76.69997599999985
 20
44.45693383755812
 10
76.69997599999985
 20
44.25635576389054
 10
76.69997599999985
 20
44.05760516015803
 10
76.69997599999985
 20
43.86059334531744
 10
76.69997599999985
 20
43.66523163832574
 10
76.69997599999985
 20
43.47143135813989
 10
76.69997599999985
 20
43.27910382371686
 10
76.69997599999985
 20
43.08816035401348
 10
76.69997599999985
 20
42.89851226798679
 10
76.69997599999985
 20
42.71007088459373
 10
76.69997599999985
 20
42.33645350153607
 10
76.69997599999985
 20
41.96659875649607
 10
76.69997599999985
 20
41.59979720112921
 10
76.69997599999985
 20
41.23533938709099
 10
76.69997599999985
 20
40.87251586603708
 10
76.69997599999985
 20
40.51061718962271
 10
76.69997599999985
 20
40.42020388901625
 10
76.69997599999985
 20
40.40890262091472
 10
76.69997599999985
 20
40.40325199402665
 10
76.69997599999985
 20
40.40183933759272
 10
76.69997599999985
 20
40.40113300938986
 10
76.69997599999985
 20
40.40095642733968
 10
76.69997599999985
 20
40.40086813631467
 10
76.69997599999985
 20
40.40082399080211
 10
76.69998431829061
 20
40.39837026593732
 10
76.70006595956403
 20
40.37449640297603
 10
76.70074439570645
 20
40.18457398810517
 10
76.70146789991775
 20
39.99654279179885
 10
76.70223658472091
 20
39.81039107224814
 10
76.70305056263877
 20
39.62610708764425
 10
76.70390994619431
 20
39.44367909617858
 10
76.70481484791048
 20
39.2630953560419
 10
76.70576538031022
 20
39.08434412542515
 10
76.70676165591648
 20
38.90741366251979
 10
76.7078037872522
 20
38.7322922255168
 10
76.70889188684029
 20
38.55896807260734
 10
76.71002606720373
 20
38.38742946198266
 10
76.71120644086544
 20
38.21766465183379
 10
76.71243312034834
 20
38.04966190035208
 10
76.71370621817541
 20
37.88340946572847
 10
76.71502584686956
 20
37.71889560615387
 10
76.71639211895378
 20
37.55610857981952
 10
76.71780514695095
 20
37.39503664491672
 10
76.71926504338404
 20
37.23566805963651
 10
76.72077192077601
 20
37.0779910821703
 10
76.72232589164976
 20
36.9219939707089
 10
76.72392706852825
 20
36.7676649834433
 10
76.72557556393444
 20
36.61499237856475
 10
76.72727149039126
 20
36.46396441426452
 10
76.72901496042162
 20
36.31456934873364
 10
76.73080608654848
 20
36.16679544016353
 10
76.73264498129481
 20
36.02063094674504
 10
76.73453175718352
 20
35.87606412666906
 10
76.73646652673757
 20
35.733083238127
 10
76.73844940247986
 20
35.59167653930996
 10
76.74048049693337
 20
35.45183228840904
 10
76.74255992262103
 20
35.31353874361566
 10
76.74468779206581
 20
35.17678416312072
 10
76.74686421779056
 20
35.04155680511508
 10
76.74908931231832
 20
34.90784492779011
 10
76.75136318817202
 20
34.77563678933695
 10
76.75368595787457
 20
34.64492064794672
 10
76.75605773394888
 20
34.51568476181075
 10
76.75847862891794
 20
34.38791738911993
 10
76.7609487553047
 20
34.26160678806531
 10
76.76346822563207
 20
34.13674121683806
 10
76.76603715242298
 20
34.01330893362946
 10
76.7686556482004
 20
33.89129819663054
 10
76.77132382548727
 20
33.77069726403244
 10
76.77404179680654
 20
33.65149439402632
 10
76.77680967468113
 20
33.5336778448035
 10
76.77962757163394
 20
33.41723587455488
 10
76.782495600188
 20
33.30215674147144
 10
76.78541387286618
 20
33.18842870374448
 10
76.78838250219148
 20
33.07604001956514
 10
76.7914016006868
 20
32.96497894712457
 10
76.79447128087506
 20
32.85523374461383
 10
76.79759165527926
 20
32.74679267022412
 10
76.80076283642231
 20
32.63964398214671
 10
76.80398493682715
 20
32.53377593857255
 10
76.80725806901674
 20
32.42917679769261
 10
76.81058234551398
 20
32.32583481769814
 10
76.81395787884181
 20
32.22373825678039
 10
76.81738478152325
 20
32.1228753731304
 10
76.82086316608115
 20
32.02323442493929
 10
76.82439314503851
 20
31.92480367039827
 10
76.82797483091824
 20
31.82757136769851
 10
76.83160833624332
 20
31.73152577503112
 10
76.83529377353661
 20
31.63665515058693
 10
76.83903125532111
 20
31.54294775255733
 10
76.84282089411979
 20
31.45039183913338
 10
76.84666280245551
 20
31.35897566850628
 10
76.85055709285129
 20
31.26868749886711
 10
76.85450387783006
 20
31.17951558840701
 10
76.85850326991467
 20
31.09144819531724
 10
76.86255538162817
 20
31.00447357778882
 10
76.86666032549346
 20
30.91857999401276
 10
76.87081821403348
 20
30.83375570218021
 10
76.87502915977113
 20
30.74998896048243
 10
76.87929327522943
 20
30.66726802711048
 10
76.88361067293129
 20
30.58558116025551
 10
76.8924057651574
 20
30.42526265886113
 10
76.90141533663299
 20
30.26893952182826
 10
76.91064028754166
 20
30.11651781468572
 10
76.92008151806688
 20
29.96790360296268
 10
76.92973992839215
 20
29.8230029521884
 10
76.93961641870107
 20
29.68172192789166
 10
76.94971188917711
 20
29.54396659560149
 10
76.96002724000383
 20
29.40964302084694
 10
76.97056337136473
 20
29.27865726915724
 10
76.98132118344336
 20
29.15091540606125
 10
76.99230157642323
 20
29.02632349708796
 10
77.00350545048791
 20
28.90478760776648
 10
77.01493370582085
 20
28.78621380362591
 10
77.02658724260567
 20
28.67050815019524
 10
77.03846696102583
 20
28.55757671300342
 10
77.05057376126489
 20
28.44732555757952
 10
77.06290854350632
 20
28.33966074945272
 10
77.07547220793377
 20
28.23448835415189
 10
77.08826565473064
 20
28.13171443720609
 10
77.10128978408055
 20
28.03124506414434
 10
77.11454549616695
 20
27.93298630049577
 10
77.12803369117342
 20
27.83684421178941
 10
77.14175526928348
 20
27.74272486355414
 10
77.15571113068063
 20
27.65053432131913
 10
77.16990217554844
 20
27.56017865061347
 10
77.18432930407039
 20
27.47156391696609
 10
77.19899341643006
 20
27.38459618590594
 10
77.21389541281094
 20
27.29918152296221
 10
77.22903619339655
 20
27.21522599366392
 10
77.24441665837045
 20
27.13263566354005
 10
77.26003770791617
 20
27.05131659811963
 10
77.2759002422172
 20
26.97117486293172
 10
77.29200516145708
 20
26.89211652350536
 10
77.32494575548756
 20
26.73687429405345
 10
77.35886669147581
 20
26.5848384339962
 10
77.39377517089003
 20
26.43525746756575
 10
77.42967839519849
 20
26.28737991899448
 10
77.46658356586933
 20
26.14045431251464
 10
77.504507990264
 20
25.9938376067438
 10
77.54351968704927
 20
25.8474308833313
 10
77.58370254745234
 20
25.70130553359741
 10
77.62514046816503
 20
25.55553300749585
 10
77.66791734587909
 20
25.41018475498032
 10
77.71211707728635
 20
25.26533222600455
 10
77.75782355907852
 20
25.12104687052233
 10
77.80512068794743
 20
24.97740013848727
 10
77.85409236058488
 20
24.83446347985319
 10
77.9048224736826
 20
24.69230834457375
 10
77.95739492393237
 20
24.55100618260275
 10
78.01189360802604
 20
24.41062844389387
 10
78.06840242265533
 20
24.27124657840085
 10
78.12700526451203
 20
24.13293203607743
 10
78.18778603028795
 20
23.99575626687727
 10
78.25082861667484
 20
23.85979072075418
 10
78.31621692036455
 20
23.72510684766183
 10
78.38403483804872
 20
23.59177609755403
 10
78.45436626641927
 20
23.45986992038439
 10
78.52729510216789
 20
23.32945976610671
 10
78.60290524198646
 20
23.20061708467472
 10
78.68128058256665
 20
23.0734133260421
 10
78.76246976951356
 20
22.94790058414367
 10
78.84635398012118
 20
22.8240389977405
 10
78.93276471209
 20
22.7017614270261
 10
79.02153345523678
 20
22.58100072786517
 10
79.11249169937825
 20
22.46168975612215
 10
79.20547093433119
 20
22.34376136766178
 10
79.30030264991228
 20
22.22714841834869
 10
79.39681833593839
 20
22.1117837640474
 10
79.49484948222618
 20
21.99760026062256
 10
79.59422757859241
 20
21.88453076393881
 10
79.69478411485387
 20
21.77250812986068
 10
79.79635058082729
 20
21.66146521425281
 10
79.89876718784056
 20
21.55133829657245
 10
80.00196907720319
 20
21.4421009206427
 10
80.10594970227279
 20
21.33374952043647
 10
80.21070336460562
 20
21.22628086288341
 10
80.3162243657578
 20
21.11969171491319
 10
80.42250700728557
 20
21.01397884345556
 10
80.5295455907451
 20
20.90913901544013
 10
80.63733441769256
 20
20.80516899779656
 10
80.74586778968415
 20
20.7020655574546
 10
80.85514000827606
 20
20.59982546134393
 10
80.96514537502448
 20
20.49844547639413
 10
81.07587819148562
 20
20.39792236953497
 10
81.1873327592156
 20
20.29825290769611
 10
81.29950337977065
 20
20.19943385780721
 10
81.41238435470699
 20
20.10146198679797
 10
81.52596998558077
 20
20.00433406159806
 10
81.64025457394815
 20
19.90804684913718
 10
81.75523242136538
 20
19.81259711634493
 10
81.87089782938858
 20
19.71798163015108
 10
81.98724509957401
 20
19.62419715748524
 10
82.10426853347783
 20
19.53124046527715
 10
82.22196243265619
 20
19.43910832045645
 10
82.34032109866536
 20
19.34779748995287
 10
82.45933883306145
 20
19.25730474069598
 10
82.57900993740067
 20
19.16762683961559
 10
82.69932871323922
 20
19.0787605536413
 10
82.94188648563901
 20
18.90344989472976
 10
83.18696656271034
 20
18.73134689939888
 10
83.43452335690273
 20
18.56242570308598
 10
83.68451128066572
 20
18.39666044122856
 10
83.93688474644873
 20
18.23402524926405
 10
84.19159816670131
 20
18.07449426262985
 10
84.44860595387297
 20
17.91804161676344
 10
84.70786252041319
 20
17.76464144710218
 10
84.96932227877147
 20
17.61426788908358
 10
85.23293964139734
 20
17.466895078145
 10
85.49866902074027
 20
17.32249714972391
 10
85.76646482924978
 20
17.18104823925768
 10
86.03628147937531
 20
17.04252248218387
 10
86.30807338356644
 20
16.90689401393985
 10
86.58179495427267
 20
16.77413696996296
 10
86.85740060394348
 20
16.6442254856907
 10
87.13484474502847
 20
16.5171336965605
 10
87.41408178997696
 20
16.3928357380098
 10
87.69506615123855
 20
16.27130574547601
 10
87.97775224126279
 20
16.15251785439659
 10
88.26209447249913
 20
16.03644620020896
 10
88.54804725739704
 20
15.92306491835052
 10
88.83556500840606
 20
15.81234814425875
 10
89.12460213797571
 20
15.704270013371
 10
89.4151130585554
 20
15.5988046611248
 10
89.70705218259467
 20
15.49592622295751
 10
90.00037392254318
 20
15.39560883430658
 10
90.29503269085028
 20
15.29782663060945
 10
90.59098289996548
 20
15.20255374730351
 10
90.88817896233836
 20
15.10976431982624
 10
91.18657529041831
 20
15.01943248361505
 10
91.48612629665493
 20
14.93153237410735
 10
91.78678639349769
 20
14.84603812674061
 10
92.08850999339608
 20
14.76292387695224
 10
92.39125150879957
 20
14.68216376017966
 10
92.69496535215777
 20
14.60373191186033
 10
92.99960593591999
 20
14.52760246743167
 10
93.30512767253592
 20
14.45374956233109
 10
93.61148497445505
 20
14.38214733199601
 10
93.91863225412679
 20
14.31276991186388
 10
94.22652392400072
 20
14.24559143737212
 10
94.53511439652631
 20
14.18058604395821
 10
94.84435808415303
 20
14.11772786705955
 10
95.15420939933044
 20
14.05699104211351
 10
95.46462275450805
 20
13.99834970455759
 10
95.77555256213527
 20
13.94177798982923
 10
96.08695323466172
 20
13.88725003336583
 10
96.39877918453681
 20
13.8347399706048
 10
96.71098482421001
 20
13.78422193698355
 10
97.02352456613088
 20
13.73567006793962
 10
97.33635282274905
 20
13.68905849891035
 10
97.64942400651388
 20
13.64436136533317
 10
97.96269252987487
 20
13.60155280264558
 10
98.27611280528159
 20
13.5606069462849
 10
98.58963924518349
 20
13.52149793168865
 10
98.90322626203008
 20
13.48419989429425
 10
99.21682826827087
 20
13.44868696953909
 10
99.5303996763554
 20
13.41493329286066
 10
99.84389489873313
 20
13.38291299969631
 10
100.1572683478535
 20
13.35260022548351
 10
100.4704744361662
 20
13.32396910565973
 10
100.7834675761205
 20
13.29699377566231
 10
101.0962021801661
 20
13.27164837092874
 10
101.4086326607523
 20
13.24790702689648
 10
101.7207134303288
 20
13.22574387900289
 10
102.032398901345
 20
13.20513306268549
 10
102.3436434862504
 20
13.18604871338158
 10
102.6544015974947
 20
13.16846496652869
 10
102.964627647527
 20
13.15235595756422
 10
103.2742760487973
 20
13.1376958219256
 10
103.5833012137546
 20
13.12445869505029
 10
103.8916575548488
 20
13.11261871237565
 10
104.1992994845292
 20
13.1021500093392
 10
104.5061814152453
 20
13.09302672137829
 10
104.8122577594467
 20
13.08522298393035
 10
105.1174829295829
 20
13.07871293243289
 10
105.4218113381033
 20
13.07347070232327
 10
105.7251973974575
 20
13.06947042903897
 10
106.0275955200949
 20
13.06668624801739
 10
106.3289601184651
 20
13.06509229469594
 10
106.6292618839003
 20
13.06464666658473
 10
106.7791433521144
 20
13.06470560952914
 10
106.8547393800353
 20
13.06474152631404
 10
106.893583730973
 20
13.0647581022751
 10
106.9336232886522
 20
13.06477377768084
 10
106.97523128964
 20
13.06478856833047
 10
107.0187809705039
 20
13.06480249002322
 10
107.0646455678111
 20
13.06481555855828
 10
107.1131983181289
 20
13.06482778973492
 10
107.1648124580249
 20
13.06483919935232
 10
107.2198612240664
 20
13.06484980320965
 10
107.2787178528206
 20
13.06485961710626
 10
107.3096907521423
 20
13.06486423275646
 10
107.341755580855
 20
13.06486865684121
 10
107.3749589935295
 20
13.06487289133537
 10
107.4093476447369
 20
13.06487693821384
 10
107.4449681890479
 20
13.06488079945149
 10
107.4818672810336
 20
13.06488447702327
 10
107.5200915752648
 20
13.06488797290404
 10
107.5596877263125
 20
13.06489128906878
 10
107.6007023887475
 20
13.06489442749233
 10
107.6431822171408
 20
13.06489739014955
 10
107.6871738660632
 20
13.06490017901541
 10
107.7327239900859
 20
13.06490279606481
 10
107.7798792437797
 20
13.06490524327267
 10
107.8286862817154
 20
13.06490752261379
 10
107.8791917584641
 20
13.06490963606319
 10
107.9314423285966
 20
13.06491158559572
 10
107.9854846466838
 20
13.0649133731863
 10
108.0413653672966
 20
13.06491500080978
 10
108.099131145006
 20
13.06491647044112
 10
108.158828634383
 20
13.06491778405518
 10
108.2205044899983
 20
13.06491894362688
 10
108.2842053664229
 20
13.06491995113111
 10
108.3499779182278
 20
13.06492080854286
 10
108.4178687999839
 20
13.06492151783692
 10
108.487924666262
 20
13.06492208098819
 10
108.560192171633
 20
13.06492249997166
 10
108.6347179706678
 20
13.06492277676222
 10
108.7115487179378
 20
13.06492291333467
 10
108.7907310680134
 20
13.06492291166398
 10
108.8723116754658
 20
13.06492277372507
 10
108.9563371948657
 20
13.06492250149284
 10
109.0428542807841
 20
13.06492209694215
 10
109.131909587792
 20
13.06492156204797
 10
109.2235497704603
 20
13.06492089878509
 10
109.3178214833598
 20
13.06492010912853
 10
109.4147713810615
 20
13.06491919505316
 10
109.5144461181363
 20
13.06491815853383
 10
109.6168923491552
 20
13.06491700154549
 10
109.722156728689
 20
13.06491572606302
 10
109.8302859113086
 20
13.06491433406131
 10
109.9413265515851
 20
13.06491282751534
 10
110.0553253040889
 20
13.0649112083999
 10
110.1723288233913
 20
13.06490947868997
 10
110.2923837640636
 20
13.06490764036044
 10
110.4155367806764
 20
13.06490569538619
 10
110.5418345278005
 20
13.06490364574216
 10
110.6713236600069
 20
13.06490149340317
 10
110.8040508318666
 20
13.06489924034423
 10
110.9400626979504
 20
13.06489688854014
 10
111.0794059128292
 20
13.06489443996588
 10
111.222127131074
 20
13.06489189659635
 10
111.3682730072557
 20
13.0648892604064
 10
111.5178901959452
 20
13.06488653337095
 10
111.6710253517135
 20
13.06488371746491
 10
111.8277251291314
 20
13.06488081466318
 10
111.9880361827699
 20
13.06487782694069
 10
112.1520051671998
 20
13.06487475627227
 10
112.3196787369916
 20
13.06487160463291
 10
112.4911035467168
 20
13.06486837399745
 10
112.6663262509467
 20
13.06486506634081
 10
112.8453935042518
 20
13.0648616836379
 10
113.0283519612029
 20
13.06485822786362
 10
113.215248276371
 20
13.06485470099284
 10
113.4061291043271
 20
13.06485110500051
 10
113.601041099642
 20
13.0648474418615
 10
113.8000309168866
 20
13.06484371355077
 10
113.901069588286
 20
13.06484182557312
 10
114.0031452106319
 20
13.06483992204312
 10
114.1062636157458
 20
13.06483800320762
 10
114.2104306354488
 20
13.06483606931351
 10
114.3156521015626
 20
13.06483412060766
 10
114.4219338459083
 20
13.06483215733686
 10
114.5292817003073
 20
13.06483017974807
 10
114.6377014965811
 20
13.06482818808808
 10
114.747199066551
 20
13.06482618260378
 10
114.8577802420383
 20
13.06482416354203
 10
114.9694508548645
 20
13.06482213114964
 10
115.0822167368508
 20
13.0648200856736
 10
115.1960837198187
 20
13.06481802736061
 10
115.3110576355895
 20
13.06481595645772
 10
115.4271443159845
 20
13.06481387321162
 10
115.5443495928245
 20
13.06481177786929
 10
115.6626792979315
 20
13.0648096706775
 10
115.7821392631276
 20
13.06480755188323
 10
115.9027353202334
 20
13.06480542173318
 10
116.0244733010703
 20
13.06480328047439
 10
116.1473590374596
 20
13.06480112835362
 10
116.2713983612228
 20
13.06479896561774
 10
116.3965971041812
 20
13.06479679251362
 10
116.5229610981562
 20
13.06479460928813
 10
116.650496174969
 20
13.06479241618814
 10
116.7792081664412
 20
13.06479021346047
 10
116.909102904394
 20
13.06478800135204
 10
117.0401862206489
 20
13.06478578010967
 10
117.1724639470271
 20
13.06478354998029
 10
117.3059419153501
 20
13.06478131121065
 10
117.4406259574392
 20
13.06477906404774
 10
117.5765219051158
 20
13.06477680873831
 10
117.7136355902012
 20
13.0647745455293
 10
117.8519728445168
 20
13.06477227466752
 10
117.991539499884
 20
13.06476999639989
 10
118.1323413881241
 20
13.06476771097323
 10
118.2743843410585
 20
13.06476541863441
 10
118.4176741905086
 20
13.0647631196303
 10
118.5622167682958
 20
13.06476081420771
 10
118.7080179062413
 20
13.06475850261358
 10
118.8550834361666
 20
13.06475618509478
 10
119.003419189893
 20
13.06475386189811
 10
119.1530309992419
 20
13.06475153327045
 10
119.3039246960347
 20
13.06474919945867
 10
119.4561061120927
 20
13.06474686070965
 10
119.6095810792373
 20
13.06474451727024
 10
119.7643554292898
 20
13.06474216938733
 10
119.9204349940707
 20
13.06473981730772
 10
120.0778256054023
 20
13.0647374612783
 10
120.2365330951068
 20
13.06473510154592
 10
120.3965632950048
 20
13.06473273835746
 10
120.5579220369175
 20
13.06473037195985
 10
120.7206151526664
 20
13.06472800259985
 10
120.8846484740728
 20
13.06472563052432
 10
121.0500278329581
 20
13.0647232559802
 10
121.2167590611436
 20
13.06472087921435
 10
121.3848479904507
 20
13.06471850047353
 10
121.5543004527007
 20
13.06471612000473
 10
121.7251222797151
 20
13.0647137380547
 10
121.8973193033152
 20
13.06471135487038
 10
122.0708973553224
 20
13.06470897069863
 10
122.245862267558
 20
13.06470658578627
 10
122.4222198718433
 20
13.06470420038016
 10
122.5999759999998
 20
13.06470181472724
  0
LWPOLYLINE
  5
2A8A
330
1F
100
AcDbEntity
  8
0
100
AcDbPolyline
 90
      561
 70
     0
 43
0.0
 10
42.59997599999985
 20
260.4008160000001
 10
42.63542946722753
 20
258.6430876033516
 10
42.67174660004764
 20
256.8853929469866
 10
42.70979106405262
 20
255.1277657711886
 10
42.75042652483493
 20
253.3702398162409
 10
42.79451664798696
 20
251.6128488224271
 10
42.84292509910124
 20
249.8556265300306
 10
42.89651554377011
 20
248.0986066793349
 10
42.95615164758607
 20
246.3418230106235
 10
43.02269707614146
 20
244.5853092641798
 10
43.0970154950288
 20
242.8290991802871
 10
43.17997056984057
 20
241.0732264992294
 10
43.2724067544534
 20
239.3177279861327
 10
43.37489953250961
 20
237.5626827549058
 10
43.48782640278339
 20
235.8082010917465
 10
43.61156026856519
 20
234.0543940064016
 10
43.74647403314553
 20
232.3013725086182
 10
43.89294059981501
 20
230.549247608143
 10
44.05133287186408
 20
228.798130314723
 10
44.22202375258319
 20
227.0481316381049
 10
44.40538614526296
 20
225.2993625880359
 10
44.60179295319392
 20
223.5519341742626
 10
44.81161707966651
 20
221.805957406532
 10
45.03523140513453
 20
220.0615434556497
 10
45.2730036160318
 20
218.3188401237806
 10
45.52528963209742
 20
216.5780781989159
 10
45.79244375297853
 20
214.8394998949119
 10
46.07482027832224
 20
213.1033474256255
 10
46.37277350777543
 20
211.3698630049132
 10
46.6866577409853
 20
209.6392888466319
 10
47.01682727759888
 20
207.9118671646382
 10
47.36363641726324
 20
206.1878401727888
 10
47.72743945962542
 20
204.4674500849404
 10
48.10859070433252
 20
202.7509391149497
 10
48.50744445103153
 20
201.0385494766734
 10
48.92431837613287
 20
199.3305132916593
 10
49.359036613778
 20
197.6269266754253
 10
49.81106942269789
 20
195.9277882256215
 10
50.27987934441011
 20
194.2330944132567
 10
50.764928920432
 20
192.5428417093393
 10
51.26568069228103
 20
190.8570265848777
 10
51.78159720147458
 20
189.1756455108805
 10
52.31214098953017
 20
187.4986949583565
 10
52.85677459796524
 20
185.8261713983138
 10
53.41496056829711
 20
184.1580713017611
 10
53.98616144204338
 20
182.494391139707
 10
54.56983976072143
 20
180.8351273831599
 10
55.16547744406766
 20
179.1802746235786
 10
55.77273211236506
 20
177.5298104107148
 10
56.39135492567561
 20
175.8837032216251
 10
57.02109791367433
 20
174.2419214490199
 10
57.66171310603606
 20
172.6044334856096
 10
58.3129525324358
 20
170.9712077241042
 10
58.97456822254849
 20
169.3422125572144
 10
59.64631220604894
 20
167.7174163776502
 10
60.32793651261219
 20
166.0967875781222
 10
61.01919317191311
 20
164.4802945513405
 10
61.71983421362664
 20
162.8679056900155
 10
62.42961166742764
 20
161.2595893868575
 10
63.14828087971124
 20
159.6553142604985
 10
63.87568764592531
 20
158.055055090595
 10
64.61177685856938
 20
156.4587934068949
 10
65.35649846098481
 20
154.8665110831894
 10
66.10980239651313
 20
153.2781899932693
 10
66.87163860849579
 20
151.6938120109258
 10
67.64196011117006
 20
150.1133608122655
 10
68.42154805703756
 20
148.537306109666
 10
69.21312692220765
 20
146.9672581566431
 10
70.01969961796333
 20
145.4049906209624
 10
70.8442690555875
 20
143.8522771703897
 10
71.68983814636317
 20
142.3108914726909
 10
71.68983814636317
 20
142.3108914726909
 10
71.68983814636317
 20
142.3108914726909
 10
71.68983814636317
 20
142.3108914726909
 42
-0.1376578825250712
 10
79.19997599999985
 20
115.8142385489719
 10
79.19997599999985
 20
75.90264662926632
 10
79.19997599999985
 20
75.57310057420264
 10
79.19997599999985
 20
75.24585151826622
 10
79.19997599999985
 20
74.92088837632667
 10
79.19997599999985
 20
74.59820006325367
 10
79.19997599999985
 20
74.27777549391675
 10
79.19997599999985
 20
73.95960358318558
 10
79.19997599999985
 20
73.64367324592979
 10
79.19997599999985
 20
73.32997339701896
 10
79.19997599999985
 20
73.01849295132274
 10
79.19997599999985
 20
72.70922082371072
 10
79.19997599999985
 20
72.40214592905251
 10
79.19997599999985
 20
72.09725718221775
 10
79.19997599999985
 20
71.79454349807608
 10
79.19997599999985
 20
71.49399379149706
 10
79.19997599999985
 20
71.19559697735036
 10
79.19997599999985
 20
70.89934197050556
 10
79.19997599999985
 20
70.60521768583228
 10
79.19997599999985
 20
70.31321303820016
 10
79.19997599999985
 20
70.02331694247883
 10
79.19997599999985
 20
69.73551831353785
 10
79.19997599999985
 20
69.44980606624688
 10
79.19997599999985
 20
69.16616911547555
 10
79.19997599999985
 20
68.88459637609344
 10
79.19997599999985
 20
68.60507676297018
 10
79.19997599999985
 20
68.32759919097537
 10
79.19997599999985
 20
68.05215257497869
 10
79.19997599999985
 20
67.77872582984969
 10
79.19997599999985
 20
67.50730787045802
 10
79.19997599999985
 20
67.23788761167333
 10
79.19997599999985
 20
66.97045396836512
 10
79.19997599999985
 20
66.70499585540311
 10
79.19997599999985
 20
66.44150218765694
 10
79.19997599999985
 20
66.17996187999614
 10
79.19997599999985
 20
65.92036384729039
 10
79.19997599999985
 20
65.66269700440925
 10
79.19997599999985
 20
65.40695026622239
 10
79.19997599999985
 20
65.15311254759942
 10
79.19997599999985
 20
64.90117276340993
 10
79.19997599999985
 20
64.65111982852356
 10
79.19997599999985
 20
64.40294265780996
 10
79.19997599999985
 20
64.15663016613866
 10
79.19997599999985
 20
63.91217126837933
 10
79.19997599999985
 20
63.66955487940156
 10
79.19997599999985
 20
63.42876991407504
 10
79.19997599999985
 20
63.18980528726934
 10
79.19997599999985
 20
62.95264991385402
 10
79.19997599999985
 20
62.71729270869879
 10
79.19997599999985
 20
62.48372258667325
 10
79.19997599999985
 20
62.25192846264699
 10
79.19997599999985
 20
62.02189925148963
 10
79.19997599999985
 20
61.79362386807078
 10
79.19997599999985
 20
61.56709122726002
 10
79.19997599999985
 20
61.34229024392714
 10
79.19997599999985
 20
61.11920983294155
 10
79.19997599999985
 20
60.89783890917296
 10
79.19997599999985
 20
60.67816638749099
 10
79.19997599999985
 20
60.46018118276528
 10
79.19997599999985
 20
60.24387220986534
 10
79.19997599999985
 20
60.02922838366091
 10
79.19997599999985
 20
59.81623861902156
 10
79.19997599999985
 20
59.60489183081688
 10
79.19997599999985
 20
59.39517693391656
 10
79.19997599999985
 20
59.18708284319013
 10
79.19997599999985
 20
58.98059847350726
 10
79.19997599999985
 20
58.77571273973757
 10
79.19997599999985
 20
58.57241455675063
 10
79.19997599999985
 20
58.37069283941612
 10
79.19997599999985
 20
58.17053650260362
 10
79.19997599999985
 20
57.97193446118274
 10
79.19997599999985
 20
57.77487563002313
 10
79.19997599999985
 20
57.57934892399439
 10
79.19997599999985
 20
57.38534325796614
 10
79.19997599999985
 20
57.19284754680797
 10
79.19997599999985
 20
57.00185070538957
 10
79.19997599999985
 20
56.81234164858047
 10
79.19997599999985
 20
56.62430929125031
 10
79.19997599999985
 20
56.43774254826877
 10
79.19997599999985
 20
56.2526303345054
 10
79.19997599999985
 20
56.06896156482985
 10
79.19997599999985
 20
55.88672515411173
 10
79.19997599999985
 20
55.70591001722061
 10
79.19997599999985
 20
55.5265050690262
 10
79.19997599999985
 20
55.34849922439807
 10
79.19997599999985
 20
55.17188139820581
 10
79.19997599999985
 20
54.99664050531908
 10
79.19997599999985
 20
54.82276546060745
 10
79.19997599999985
 20
54.65024517894062
 10
79.19997599999985
 20
54.47906857518812
 10
79.19997599999985
 20
54.30922456421962
 10
79.19997599999985
 20
54.14070206090468
 10
79.19997599999985
 20
53.97348998011302
 10
79.19997599999985
 20
53.80757723671415
 10
79.19997599999985
 20
53.64295274557774
 10
79.19997599999985
 20
53.31752417957076
 10
79.19997599999985
 20
52.99711560104899
 10
79.19997599999985
 20
52.68163832896935
 10
79.19997599999985
 20
52.37100368228886
 10
79.19997599999985
 20
52.06512297996439
 10
79.19997599999985
 20
51.76390754095288
 10
79.19997599999985
 20
51.46726868421132
 10
79.19997599999985
 20
51.17511772869656
 10
79.19997599999985
 20
50.88736599336562
 10
79.19997599999985
 20
50.60392479717541
 10
79.19997599999985
 20
50.32470545908285
 10
79.19997599999985
 20
50.0496192980449
 10
79.19997599999985
 20
49.77857763301853
 10
79.19997599999985
 20
49.5114917829606
 10
79.19997599999985
 20
49.24827306682812
 10
79.19997599999985
 20
48.98883280357802
 10
79.19997599999985
 20
48.73308231216721
 10
79.19997599999985
 20
48.4809329115526
 10
79.19997599999985
 20
48.23229592069122
 10
79.19997599999985
 20
47.98708265853995
 10
79.19997599999985
 20
47.74520444405573
 10
79.19997599999985
 20
47.50657259619552
 10
79.19997599999985
 20
47.27109843391625
 10
79.19997599999985
 20
47.03869327617485
 10
79.19997599999985
 20
46.80926844192825
 10
79.19997599999985
 20
46.58273525013341
 10
79.19997599999985
 20
46.35900501974728
 10
79.19997599999985
 20
46.13798906972674
 10
79.19997599999985
 20
45.91959871902886
 10
79.19997599999985
 20
45.7037452866104
 10
79.19997599999985
 20
45.49034009142842
 10
79.19997599999985
 20
45.27929445243984
 10
79.19997599999985
 20
45.07051968860156
 10
79.19997599999985
 20
44.86392711887059
 10
79.19997599999985
 20
44.65942806220377
 10
79.19997599999985
 20
44.45693383755812
 10
79.19997599999985
 20
44.25635576389054
 10
79.19997599999985
 20
44.05760516015803
 10
79.19997599999985
 20
43.86059334531744
 10
79.19997599999985
 20
43.66523163832574
 10
79.19997599999985
 20
43.47143135813989
 10
79.19997599999985
 20
43.27910382371686
 10
79.19997599999985
 20
43.08816035401348
 10
79.19997599999985
 20
42.71007088459373
 10
79.19997599999985
 20
42.33645350153607
 10
79.19997599999985
 20
41.96659875649607
 10
79.19997599999985
 20
41.59979720112921
 10
79.19997599999985
 20
41.23533938709099
 10
79.19997599999985
 20
40.87251586603708
 10
79.19997599999985
 20
40.51061718962271
 10
79.19997599999985
 20
40.42020388901625
 10
79.19997599999985
 20
40.40890262091472
 10
79.19997599999985
 20
40.40325199402665
 10
79.19997599999985
 20
40.40183933759272
 10
79.19997599999985
 20
40.40113300938986
 10
79.19997599999985
 20
40.40095642733968
 10
79.19997599999985
 20
40.40086813631467
 10
79.19997599999985
 20
40.40082399080211
 10
79.19998431829061
 20
40.39837026593732
 10
79.20006595956401
 20
40.37449640297603
 10
79.20074439570647
 20
40.18457398810517
 10
79.20146789991779
 20
39.99654279179885
 10
79.20223658472091
 20
39.81039107224814
 10
79.20305056263877
 20
39.62610708764425
 10
79.20390994619433
 20
39.44367909617858
 10
79.20481484791051
 20
39.2630953560419
 10
79.20576538031025
 20
39.08434412542515
 10
79.20676165591648
 20
38.90741366251979
 10
79.2078037872522
 20
38.7322922255168
 10
79.20889188684029
 20
38.55896807260734
 10
79.21002606720373
 20
38.38742946198266
 10
79.21120644086546
 20
38.21766465183379
 10
79.21243312034834
 20
38.04966190035208
 10
79.21370621817541
 20
37.88340946572847
 10
79.21502584686959
 20
37.71889560615387
 10
79.21639211895381
 20
37.55610857981952
 10
79.21780514695097
 20
37.39503664491672
 10
79.21926504338407
 20
37.23566805963651
 10
79.22077192077601
 20
37.0779910821703
 10
79.22232589164976
 20
36.9219939707089
 10
79.22392706852829
 20
36.7676649834433
 10
79.22557556393446
 20
36.61499237856475
 10
79.22727149039126
 20
36.46396441426452
 10
79.22901496042164
 20
36.31456934873364
 10
79.23080608654853
 20
36.16679544016353
 10
79.23264498129483
 20
36.02063094674504
 10
79.23453175718352
 20
35.87606412666906
 10
79.23646652673757
 20
35.733083238127
 10
79.23844940247987
 20
35.59167653930996
 10
79.24048049693339
 20
35.45183228840904
 10
79.24255992262103
 20
35.31353874361566
 10
79.24468779206581
 20
35.17678416312072
 10
79.24686421779059
 20
35.04155680511508
 10
79.24908931231835
 20
34.90784492779011
 10
79.25136318817203
 20
34.77563678933695
 10
79.25368595787457
 20
34.64492064794672
 10
79.25605773394889
 20
34.51568476181075
 10
79.25847862891796
 20
34.38791738911993
 10
79.2609487553047
 20
34.26160678806531
 10
79.26346822563207
 20
34.13674121683806
 10
79.26603715242302
 20
34.01330893362946
 10
79.26865564820042
 20
33.89129819663054
 10
79.2713238254873
 20
33.77069726403244
 10
79.27404179680654
 20
33.65149439402632
 10
79.27680967468113
 20
33.5336778448035
 10
79.27962757163395
 20
33.41723587455488
 10
79.28249560018802
 20
33.30215674147144
 10
79.2854138728662
 20
33.18842870374448
 10
79.28838250219148
 20
33.07604001956514
 10
79.2914016006868
 20
32.96497894712457
 10
79.29447128087509
 20
32.85523374461383
 10
79.29759165527928
 20
32.74679267022412
 10
79.30076283642231
 20
32.63964398214671
 10
79.30398493682715
 20
32.53377593857255
 10
79.30725806901674
 20
32.42917679769261
 10
79.31395787884183
 20
32.22373825678039
 10
79.32086316608115
 20
32.02323442493929
 10
79.32797483091825
 20
31.82757136769851
 10
79.33529377353662
 20
31.63665515058693
 10
79.34282089411979
 20
31.45039183913338
 10
79.35055709285132
 20
31.26868749886711
 10
79.35850326991467
 20
31.09144819531724
 10
79.36666032549346
 20
30.91857999401276
 10
79.37502915977116
 20
30.74998896048243
 10
79.38361067293129
 20
30.58558116025551
 10
79.39240576515742
 20
30.42526265886113
 10
79.40141533663299
 20
30.26893952182826
 10
79.41064028754168
 20
30.11651781468572
 10
79.42008151806688
 20
29.96790360296268
 10
79.42973992839217
 20
29.8230029521884
 10
79.43961641870107
 20
29.68172192789166
 10
79.44971188917709
 20
29.54396659560149
 10
79.46002724000383
 20
29.40964302084694
 10
79.47056337136473
 20
29.27865726915724
 10
79.48132118344336
 20
29.15091540606125
 10
79.49230157642323
 20
29.02632349708796
 10
79.50350545048792
 20
28.90478760776648
 10
79.51493370582088
 20
28.78621380362591
 10
79.52658724260567
 20
28.67050815019524
 10
79.53846696102584
 20
28.55757671300342
 10
79.55057376126489
 20
28.44732555757952
 10
79.56290854350638
 20
28.33966074945272
 10
79.57547220793377
 20
28.23448835415189
 10
79.58826565473064
 20
28.13171443720609
 10
79.60128978408055
 20
28.03124506414434
 10
79.61454549616695
 20
27.93298630049577
 10
79.62803369117342
 20
27.83684421178941
 10
79.64175526928348
 20
27.74272486355414
 10
79.65571113068063
 20
27.65053432131913
 10
79.66990217554844
 20
27.56017865061347
 10
79.68432930407039
 20
27.47156391696609
 10
79.69899341643006
 20
27.38459618590594
 10
79.71389541281094
 20
27.29918152296221
 10
79.72903619339655
 20
27.21522599366392
 10
79.74441665837045
 20
27.13263566354005
 10
79.76003770791617
 20
27.05131659811963
 10
79.79200516145708
 20
26.89211652350536
 10
79.82494575548756
 20
26.73687429405345
 10
79.85886669147581
 20
26.5848384339962
 10
79.89377517089003
 20
26.43525746756575
 10
79.92967839519845
 20
26.28737991899448
 10
79.96658356586931
 20
26.14045431251464
 10
80.04351968704924
 20
25.8474308833313
 10
80.08370254745235
 20
25.70130553359741
 10
80.12514046816503
 20
25.55553300749585
 10
80.1679173458791
 20
25.41018475498032
 10
80.21211707728635
 20
25.26533222600455
 10
80.25782355907852
 20
25.12104687052233
 10
80.30512068794743
 20
24.97740013848727
 10
80.35409236058489
 20
24.83446347985319
 10
80.40482247368258
 20
24.69230834457375
 10
80.45739492393236
 20
24.55100618260275
 10
80.51189360802604
 20
24.41062844389387
 10
80.56840242265533
 20
24.27124657840085
 10
80.62700526451203
 20
24.13293203607743
 10
80.68778603028794
 20
23.99575626687727
 10
80.75082861667484
 20
23.85979072075418
 10
80.81621692036454
 20
23.72510684766183
 10
80.88403483804873
 20
23.59177609755403
 10
80.95436626641927
 20
23.45986992038439
 10
81.02729510216789
 20
23.32945976610671
 10
81.10290524198644
 20
23.20061708467472
 10
81.18128058256665
 20
23.0734133260421
 10
81.26246976951355
 20
22.94790058414367
 10
81.34635398012118
 20
22.8240389977405
 10
81.43276471209
 20
22.7017614270261
 10
81.52153345523677
 20
22.58100072786517
 10
81.61249169937825
 20
22.46168975612215
 10
81.70547093433119
 20
22.34376136766178
 10
81.80030264991229
 20
22.22714841834869
 10
81.89681833593839
 20
22.1117837640474
 10
81.99484948222618
 20
21.99760026062256
 10
82.09422757859242
 20
21.88453076393881
 10
82.19478411485388
 20
21.77250812986068
 10
82.29635058082729
 20
21.66146521425281
 10
82.50196907720319
 20
21.4421009206427
 10
82.71070336460562
 20
21.22628086288341
 10
82.92250700728557
 20
21.01397884345556
 10
83.1373344176926
 20
20.80516899779656
 10
83.35514000827609
 20
20.59982546134393
 10
83.57587819148561
 20
20.39792236953497
 10
83.79950337977069
 20
20.19943385780721
 10
84.02596998558079
 20
20.00433406159806
 10
84.2552324213654
 20
19.81259711634493
 10
84.48724509957406
 20
19.62419715748524
 10
84.72196243265623
 20
19.43910832045645
 10
84.95933883306149
 20
19.25730474069598
 10
85.19932871323925
 20
19.0787605536413
 10
85.44188648563903
 20
18.90344989472976
 10
85.68696656271034
 20
18.73134689939888
 10
85.93452335690278
 20
18.56242570308598
 10
86.18451128066574
 20
18.39666044122856
 10
86.43688474644877
 20
18.23402524926405
 10
86.69159816670136
 20
18.07449426262985
 10
86.948605953873
 20
17.91804161676344
 10
87.20786252041323
 20
17.76464144710218
 10
87.46932227877151
 20
17.61426788908358
 10
87.73293964139737
 20
17.466895078145
 10
87.99866902074032
 20
17.32249714972391
 10
88.26646482924983
 20
17.18104823925768
 10
88.53628147937534
 20
17.04252248218387
 10
88.80807338356644
 20
16.90689401393985
 10
89.08179495427271
 20
16.77413696996296
 10
89.35740060394353
 20
16.6442254856907
 10
89.63484474502847
 20
16.5171336965605
 10
89.914081789977
 20
16.3928357380098
 10
90.19506615123859
 20
16.27130574547601
 10
90.47775224126279
 20
16.15251785439659
 10
90.76209447249913
 20
16.03644620020896
 10
91.04804725739708
 20
15.92306491835052
 10
91.3355650084061
 20
15.81234814425875
 10
91.62460213797571
 20
15.704270013371
 10
91.9151130585554
 20
15.5988046611248
 10
92.20705218259473
 20
15.49592622295751
 10
92.5003739225432
 20
15.39560883430658
 10
92.79503269085031
 20
15.29782663060945
 10
93.09098289996551
 20
15.20255374730351
 10
93.38817896233836
 20
15.10976431982624
 10
93.68657529041836
 20
15.01943248361505
 10
93.98612629665498
 20
14.93153237410735
 10
94.28678639349772
 20
14.84603812674061
 10
94.58850999339608
 20
14.76292387695224
 10
94.89125150879962
 20
14.68216376017966
 10
95.19496535215781
 20
14.60373191186033
 10
95.49960593592009
 20
14.52760246743167
 10
95.80512767253596
 20
14.45374956233109
 10
96.11148497445507
 20
14.38214733199601
 10
96.41863225412684
 20
14.31276991186388
 10
96.72652392400076
 20
14.24559143737212
 10
97.03511439652631
 20
14.18058604395821
 10
97.34435808415309
 20
14.11772786705955
 10
97.65420939933049
 20
14.05699104211351
 10
97.96462275450807
 20
13.99834970455759
 10
98.27555256213528
 20
13.94177798982923
 10
98.58695323466172
 20
13.88725003336583
 10
98.89877918453681
 20
13.8347399706048
 10
99.21098482421001
 20
13.78422193698355
 10
99.52352456613093
 20
13.73567006793962
 10
99.83635282274908
 20
13.68905849891035
 10
100.1494240065139
 20
13.64436136533317
 10
100.4626925298749
 20
13.60155280264558
 10
100.7761128052816
 20
13.5606069462849
 10
101.0896392451835
 20
13.52149793168865
 10
101.4032262620301
 20
13.48419989429425
 10
101.7168282682709
 20
13.44868696953909
 10
102.0303996763554
 20
13.41493329286066
 10
102.3438948987331
 20
13.38291299969631
 10
102.6572683478536
 20
13.35260022548351
 10
102.9704744361662
 20
13.32396910565973
 10
103.2834675761205
 20
13.29699377566231
 10
103.5962021801661
 20
13.27164837092874
 10
103.9086326607524
 20
13.24790702689648
 10
104.2207134303288
 20
13.22574387900289
 10
104.532398901345
 20
13.20513306268549
 10
104.8436434862505
 20
13.18604871338158
 10
105.1544015974947
 20
13.16846496652869
 10
105.4646276475271
 20
13.15235595756422
 10
105.7742760487973
 20
13.1376958219256
 10
106.0833012137547
 20
13.12445869505029
 10
106.3916575548488
 20
13.11261871237565
 10
106.6992994845292
 20
13.1021500093392
 10
107.0061814152453
 20
13.09302672137829
 10
107.3122577594467
 20
13.08522298393035
 10
107.6174829295829
 20
13.07871293243289
 10
107.9218113381033
 20
13.07347070232327
 10
108.2251973974575
 20
13.06947042903897
 10
108.5275955200949
 20
13.06668624801739
 10
108.8289601184651
 20
13.06509229469594
 10
109.1292618839003
 20
13.06464666658473
 10
109.2791432606813
 20
13.06470560952914
 10
109.3546173915901
 20
13.06474152631404
 10
109.4327744055427
 20
13.06477377768084
 10
109.4736201970692
 20
13.06478856833047
 10
109.5160501534473
 20
13.06480249002322
 10
109.5603687560406
 20
13.06481555855828
 10
109.6068804862124
 20
13.06482778973492
 10
109.6558898253265
 20
13.06483919935232
 10
109.7077012547463
 20
13.06484980320965
 10
109.7626192558355
 20
13.06485961710626
 10
109.8209483099576
 20
13.06486865684121
 10
109.882992898476
 20
13.06487693821384
 10
109.9490575027544
 20
13.06488447702327
 10
110.0194466041564
 20
13.06489128906878
 10
110.0944646840452
 20
13.06489739014955
 10
110.1338047413483
 20
13.06490017901541
 10
110.1744162237847
 20
13.06490279606481
 10
110.2163371915245
 20
13.06490524327267
 10
110.2596057047384
 20
13.06490752261379
 10
110.3042598235967
 20
13.06490963606319
 10
110.3503376082698
 20
13.06491158559572
 10
110.3978771189283
 20
13.0649133731863
 10
110.4469164157425
 20
13.06491500080978
 10
110.4974935588829
 20
13.06491647044112
 10
110.5496466085199
 20
13.06491778405518
 10
110.6034136248241
 20
13.06491894362688
 10
110.6588326679657
 20
13.06491995113117
 10
110.7159417981154
 20
13.06492080854286
 10
110.7747790754434
 20
13.06492151783692
 10
110.8353825601204
 20
13.06492208098819
 10
110.8977903123164
 20
13.06492249997166
 10
110.962040392202
 20
13.06492277676222
 10
111.0281708599483
 20
13.06492291333467
 10
111.0962197757251
 20
13.06492291166398
 10
111.1662251997029
 20
13.06492277372507
 10
111.2382251920523
 20
13.06492250149284
 10
111.3122578129437
 20
13.06492209694215
 10
111.3883611225475
 20
13.06492156204797
 10
111.4665731810341
 20
13.06492089878515
 10
111.5469320485739
 20
13.06492010912853
 10
111.6294757853376
 20
13.06491919505316
 10
111.7142424514954
 20
13.06491815853383
 10
111.8012701072179
 20
13.06491700154549
 10
111.8905968126754
 20
13.06491572606302
 10
111.9822606280385
 20
13.06491433406131
 10
112.0762996134774
 20
13.06491282751534
 10
112.1727518291625
 20
13.0649112083999
 10
112.2716553352645
 20
13.06490947868997
 10
112.373048191954
 20
13.06490764036044
 10
112.4769684594012
 20
13.06490569538619
 10
112.5834541977766
 20
13.06490364574216
 10
112.6925434672507
 20
13.06490149340317
 10
112.8042743279938
 20
13.06489924034423
 10
112.9186848401764
 20
13.06489688854014
 10
113.0358130639689
 20
13.06489443996588
 10
113.1556970595418
 20
13.06489189659635
 10
113.2783748870656
 20
13.0648892604064
 10
113.4038846067107
 20
13.06488653337095
 10
113.5322642786475
 20
13.06488371746491
 10
113.6635519630464
 20
13.06488081466318
 10
113.797785720078
 20
13.06487782694069
 10
113.9350036099125
 20
13.06487475627227
 10
114.0752436927203
 20
13.06487160463291
 10
114.2185440286719
 20
13.06486837399745
 10
114.3649426779383
 20
13.06486506634081
 10
114.5144777006895
 20
13.0648616836379
 10
114.6671871570961
 20
13.06485822786362
 10
114.8231091073283
 20
13.06485470099284
 10
114.9822816115567
 20
13.06485110500051
 10
115.1447427299517
 20
13.06484744186156
 10
115.3105305226837
 20
13.06484371355077
 10
115.4796830499232
 20
13.06483992204312
 10
115.6522383718407
 20
13.06483606931357
 10
115.8282345486065
 20
13.06483215733692
 10
116.0077096403912
 20
13.06482818808808
 10
116.1907017073651
 20
13.06482416354203
 10
116.3772488096987
 20
13.0648200856736
 10
116.5673890075625
 20
13.06481595645772
 10
116.7611603611263
 20
13.06481177786929
 10
116.9586009305611
 20
13.06480755188323
 10
117.159748776038
 20
13.06480328047445
 10
117.3646419577268
 20
13.06479896561774
 10
117.5733185357979
 20
13.06479460928813
 10
117.7858165704219
 20
13.06479021346052
 10
118.0021741217691
 20
13.06478578010973
 10
118.2224292500101
 20
13.06478131121071
 10
118.4466200153151
 20
13.06477680873837
 10
118.6747844778548
 20
13.06477227466757
 10
118.9069606977995
 20
13.06476771097328
 10
119.1431867353196
 20
13.0647631196303
 10
119.3835006505857
 20
13.06475850261364
 10
119.6279405037682
 20
13.06475386189817
 10
119.8765443550374
 20
13.06474919945873
 10
120.1293502645639
 20
13.0647445172703
 10
120.3863962925173
 20
13.06473981730772
 10
120.6477204990688
 20
13.06473510154598
 10
120.9133609443897
 20
13.06473037195991
 10
121.1833556886495
 20
13.06472563052438
 10
121.4577427920189
 20
13.0647208792144
 10
121.7365603146682
 20
13.06471612000479
 10
122.0198463167678
 20
13.06471135487044
 10
122.3076388584882
 20
13.06470658578632
 10
122.5999759999998
 20
13.0647018147273
  0
LWPOLYLINE
  5
2A8D
330
1F
100
AcDbEntity
  8
0
100
AcDbPolyline
 90
      685
 70
     0
 43
0.0
 10
42.59997599999985
 20
260.4008160000001
 10
42.63542946722753
 20
258.6430876033516
 10
42.67174660004764
 20
256.8853929469866
 10
42.70979106405262
 20
255.1277657711886
 10
42.75042652483493
 20
253.3702398162409
 10
42.79451664798696
 20
251.6128488224271
 10
42.84292509910124
 20
249.8556265300306
 10
42.89651554377011
 20
248.0986066793349
 10
42.95615164758607
 20
246.3418230106235
 10
43.02269707614146
 20
244.5853092641798
 10
43.0970154950288
 20
242.8290991802871
 10
43.17997056984057
 20
241.0732264992294
 10
43.2724067544534
 20
239.3177279861327
 10
43.37489953250961
 20
237.5626827549058
 10
43.48782640278339
 20
235.8082010917465
 10
43.61156026856519
 20
234.0543940064016
 10
43.74647403314553
 20
232.3013725086182
 10
43.89294059981501
 20
230.549247608143
 10
44.05133287186408
 20
228.798130314723
 10
44.22202375258319
 20
227.0481316381049
 10
44.40538614526296
 20
225.2993625880359
 10
44.60179295319392
 20
223.5519341742626
 10
44.81161707966651
 20
221.805957406532
 10
45.03523140513453
 20
220.0615434556497
 10
45.2730036160318
 20
218.3188401237806
 10
45.52528963209742
 20
216.5780781989159
 10
45.79244375297853
 20
214.8394998949119
 10
46.07482027832224
 20
213.1033474256255
 10
46.37277350777543
 20
211.3698630049132
 10
46.6866577409853
 20
209.6392888466319
 10
47.01682727759888
 20
207.9118671646382
 10
47.36363641726324
 20
206.1878401727888
 10
47.72743945962542
 20
204.4674500849404
 10
48.10859070433252
 20
202.7509391149497
 10
48.50744445103153
 20
201.0385494766734
 10
48.92431837613287
 20
199.3305132916593
 10
49.359036613778
 20
197.6269266754253
 10
49.81106942269789
 20
195.9277882256215
 10
50.27987934441011
 20
194.2330944132567
 10
50.764928920432
 20
192.5428417093393
 10
51.26568069228103
 20
190.8570265848777
 10
51.78159720147458
 20
189.1756455108805
 10
52.31214098953017
 20
187.4986949583565
 10
52.85677459796524
 20
185.8261713983138
 10
53.41496056829711
 20
184.1580713017611
 10
53.98616144204338
 20
182.494391139707
 10
54.56983976072143
 20
180.8351273831599
 10
55.16547744406766
 20
179.1802746235786
 10
55.77273211236506
 20
177.5298104107148
 10
56.39135492567561
 20
175.8837032216251
 10
57.02109791367433
 20
174.2419214490199
 10
57.66171310603606
 20
172.6044334856096
 10
58.3129525324358
 20
170.9712077241042
 10
58.97456822254849
 20
169.3422125572144
 10
59.64631220604894
 20
167.7174163776502
 10
60.32793651261219
 20
166.0967875781222
 10
61.01919317191311
 20
164.4802945513405
 10
61.71983421362664
 20
162.8679056900155
 10
62.42961166742764
 20
161.2595893868575
 10
63.14828087971124
 20
159.6553142604985
 10
63.87568764592531
 20
158.055055090595
 10
64.61177685856938
 20
156.4587934068949
 10
65.35649846098481
 20
154.8665110831894
 10
68.97650448665096
 20
147.2338257286773
 42
-0.1111691358864911
 10
73.79997599999985
 20
125.8076437567347
 10
73.79997599999985
 20
74.27777549391675
 10
73.79997599999985
 20
73.95960358318558
 10
73.79997599999985
 20
73.64367324592979
 10
73.79997599999985
 20
73.32997339701896
 10
73.79997599999985
 20
73.01849295132274
 10
73.79997599999985
 20
72.70922082371072
 10
73.79997599999985
 20
72.40214592905251
 10
73.79997599999985
 20
72.09725718221775
 10
73.79997599999985
 20
71.79454349807608
 10
73.79997599999985
 20
71.49399379149706
 10
73.79997599999985
 20
71.19559697735036
 10
73.79997599999985
 20
70.89934197050556
 10
73.79997599999985
 20
70.60521768583228
 10
73.79997599999985
 20
70.31321303820016
 10
73.79997599999985
 20
70.02331694247883
 10
73.79997599999985
 20
69.73551831353785
 10
73.79997599999985
 20
69.44980606624688
 10
73.79997599999985
 20
69.16616911547555
 10
73.79997599999985
 20
68.88459637609344
 10
73.79997599999985
 20
68.60507676297018
 10
73.79997599999985
 20
68.32759919097537
 10
73.79997599999985
 20
68.05215257497869
 10
73.79997599999985
 20
67.77872582984969
 10
73.79997599999985
 20
67.50730787045802
 10
73.79997599999985
 20
67.23788761167333
 10
73.79997599999985
 20
66.97045396836512
 10
73.79997599999985
 20
66.70499585540311
 10
73.79997599999985
 20
66.44150218765694
 10
73.79997599999985
 20
66.17996187999614
 10
73.79997599999985
 20
65.92036384729039
 10
73.79997599999985
 20
65.66269700440925
 10
73.79997599999985
 20
65.40695026622239
 10
73.79997599999985
 20
65.15311254759942
 10
73.79997599999985
 20
64.90117276340993
 10
73.79997599999985
 20
64.65111982852356
 10
73.79997599999985
 20
64.40294265780996
 10
73.79997599999985
 20
64.15663016613866
 10
73.79997599999985
 20
63.91217126837933
 10
73.79997599999985
 20
63.66955487940156
 10
73.79997599999985
 20
63.42876991407504
 10
73.79997599999985
 20
63.18980528726934
 10
73.79997599999985
 20
62.95264991385402
 10
73.79997599999985
 20
62.71729270869879
 10
73.79997599999985
 20
62.48372258667325
 10
73.79997599999985
 20
62.25192846264699
 10
73.79997599999985
 20
62.02189925148963
 10
73.79997599999985
 20
61.79362386807078
 10
73.79997599999985
 20
61.56709122726002
 10
73.79997599999985
 20
61.34229024392714
 10
73.79997599999985
 20
61.11920983294155
 10
73.79997599999985
 20
60.89783890917296
 10
73.79997599999985
 20
60.67816638749099
 10
73.79997599999985
 20
60.46018118276528
 10
73.79997599999985
 20
60.24387220986534
 10
73.79997599999985
 20
60.02922838366091
 10
73.79997599999985
 20
59.81623861902156
 10
73.79997599999985
 20
59.60489183081688
 10
73.79997599999985
 20
59.39517693391656
 10
73.79997599999985
 20
59.18708284319013
 10
73.79997599999985
 20
58.98059847350726
 10
73.79997599999985
 20
58.77571273973757
 10
73.79997599999985
 20
58.57241455675063
 10
73.79997599999985
 20
58.37069283941612
 10
73.79997599999985
 20
58.17053650260362
 10
73.79997599999985
 20
57.97193446118274
 10
73.79997599999985
 20
57.77487563002313
 10
73.79997599999985
 20
57.57934892399439
 10
73.79997599999985
 20
57.38534325796614
 10
73.79997599999985
 20
57.19284754680797
 10
73.79997599999985
 20
57.00185070538957
 10
73.79997599999985
 20
56.81234164858047
 10
73.79997599999985
 20
56.62430929125031
 10
73.79997599999985
 20
56.43774254826877
 10
73.79997599999985
 20
56.2526303345054
 10
73.79997599999985
 20
56.06896156482985
 10
73.79997599999985
 20
55.88672515411173
 10
73.79997599999985
 20
55.70591001722061
 10
73.79997599999985
 20
55.5265050690262
 10
73.79997599999985
 20
55.34849922439807
 10
73.79997599999985
 20
55.17188139820581
 10
73.79997599999985
 20
54.99664050531908
 10
73.79997599999985
 20
54.82276546060745
 10
73.79997599999985
 20
54.65024517894062
 10
73.79997599999985
 20
54.47906857518812
 10
73.79997599999985
 20
54.30922456421962
 10
73.79997599999985
 20
54.14070206090468
 10
73.79997599999985
 20
53.97348998011302
 10
73.79997599999985
 20
53.80757723671415
 10
73.79997599999985
 20
53.64295274557774
 10
73.79997599999985
 20
53.47960542157341
 10
73.79997599999985
 20
53.31752417957076
 10
73.79997599999985
 20
53.15669793443942
 10
73.79997599999985
 20
52.99711560104899
 10
73.79997599999985
 20
52.83876609426911
 10
73.79997599999985
 20
52.68163832896935
 10
73.79997599999985
 20
52.52572122001943
 10
73.79997599999985
 20
52.37100368228886
 10
73.79997599999985
 20
52.21747463064732
 10
73.79997599999985
 20
52.06512297996439
 10
73.79997599999985
 20
51.91393764510971
 10
73.79997599999985
 20
51.76390754095288
 10
73.79997599999985
 20
51.61502158236356
 10
73.79997599999985
 20
51.46726868421132
 10
73.79997599999985
 20
51.32063776136575
 10
73.79997599999985
 20
51.17511772869656
 10
73.79997599999985
 20
51.03069750107332
 10
73.79997599999985
 20
50.88736599336562
 10
73.79997599999985
 20
50.7451121204431
 10
73.79997599999985
 20
50.60392479717541
 10
73.79997599999985
 20
50.46379293843211
 10
73.79997599999985
 20
50.32470545908285
 10
73.79997599999985
 20
50.18665127399724
 10
73.79997599999985
 20
50.0496192980449
 10
73.79997599999985
 20
49.91359844609545
 10
73.79997599999985
 20
49.77857763301853
 10
73.79997599999985
 20
49.64454577368369
 10
73.79997599999985
 20
49.5114917829606
 10
73.79997599999985
 20
49.37940457571887
 10
73.79997599999985
 20
49.24827306682812
 10
73.79997599999985
 20
49.11808617115795
 10
73.79997599999985
 20
48.98883280357802
 10
73.79997599999985
 20
48.86050187895786
 10
73.79997599999985
 20
48.73308231216721
 10
73.79997599999985
 20
48.60656301807559
 10
73.79997599999985
 20
48.4809329115526
 10
73.79997599999985
 20
48.35618090746796
 10
73.79997599999985
 20
48.23229592069122
 10
73.79997599999985
 20
47.98708265853995
 10
73.79997599999985
 20
47.74520444405573
 10
73.79997599999985
 20
47.50657259619552
 10
73.79997599999985
 20
47.27109843391625
 10
73.79997599999985
 20
47.03869327617485
 10
73.79997599999985
 20
46.80926844192825
 10
73.79997599999985
 20
46.58273525013341
 10
73.79997599999985
 20
46.35900501974728
 10
73.79997599999985
 20
46.13798906972674
 10
73.79997599999985
 20
45.91959871902886
 10
73.79997599999985
 20
45.7037452866104
 10
73.79997599999985
 20
45.49034009142842
 10
73.79997599999985
 20
45.27929445243984
 10
73.79997599999985
 20
45.07051968860156
 10
73.79997599999985
 20
44.86392711887059
 10
73.79997599999985
 20
44.65942806220377
 10
73.79997599999985
 20
44.45693383755812
 10
73.79997599999985
 20
44.25635576389054
 10
73.79997599999985
 20
44.05760516015803
 10
73.79997599999985
 20
43.86059334531744
 10
73.79997599999985
 20
43.66523163832574
 10
73.79997599999985
 20
43.47143135813989
 10
73.79997599999985
 20
43.27910382371686
 10
73.79997599999985
 20
43.08816035401348
 10
73.79997599999985
 20
42.89851226798679
 10
73.79997599999985
 20
42.71007088459373
 10
73.79997599999985
 20
42.52274752279117
 10
73.79997599999985
 20
42.33645350153607
 10
73.79997599999985
 20
41.96659875649607
 10
73.79997599999985
 20
41.59979720112921
 10
73.79997599999985
 20
41.23533938709099
 10
73.79997599999985
 20
40.87251586603708
 10
73.79997599999985
 20
40.51061718962271
 10
73.79997599999985
 20
40.42020388901625
 10
73.79997599999985
 20
40.40890262091472
 10
73.79997599999985
 20
40.40325199402665
 10
73.79997599999985
 20
40.40183933759272
 10
73.79997599999985
 20
40.40113300938986
 10
73.79997599999985
 20
40.40095642733968
 10
73.79997599999985
 20
40.40086813631467
 10
73.79997599999985
 20
40.40082399080211
 10
73.79998431829064
 20
40.39837026593732
 10
73.80006595956402
 20
40.37449640297603
 10
73.80074439570647
 20
40.18457398810517
 10
73.80146789991778
 20
39.99654279179885
 10
73.8022365847209
 20
39.81039107224814
 10
73.80305056263877
 20
39.62610708764425
 10
73.80390994619431
 20
39.44367909617858
 10
73.80481484791052
 20
39.2630953560419
 10
73.80576538031023
 20
39.08434412542515
 10
73.8067616559165
 20
38.90741366251979
 10
73.80780378725218
 20
38.7322922255168
 10
73.80889188684029
 20
38.55896807260734
 10
73.81002606720372
 20
38.38742946198266
 10
73.81120644086543
 20
38.21766465183379
 10
73.81243312034834
 20
38.04966190035208
 10
73.8137062181754
 20
37.88340946572847
 10
73.81502584686955
 20
37.71889560615387
 10
73.81639211895375
 20
37.55610857981952
 10
73.81780514695098
 20
37.39503664491672
 10
73.81926504338406
 20
37.23566805963651
 10
73.82077192077601
 20
37.0779910821703
 10
73.82232589164975
 20
36.9219939707089
 10
73.82392706852826
 20
36.7676649834433
 10
73.82557556393445
 20
36.61499237856475
 10
73.82727149039125
 20
36.46396441426452
 10
73.82901496042163
 20
36.31456934873364
 10
73.83080608654847
 20
36.16679544016353
 10
73.83264498129482
 20
36.02063094674504
 10
73.83453175718351
 20
35.87606412666906
 10
73.83646652673757
 20
35.733083238127
 10
73.83844940247984
 20
35.59167653930996
 10
73.84048049693338
 20
35.45183228840904
 10
73.84255992262101
 20
35.31353874361566
 10
73.8446877920658
 20
35.17678416312072
 10
73.84686421779058
 20
35.04155680511508
 10
73.84908931231834
 20
34.90784492779011
 10
73.85136318817202
 20
34.77563678933695
 10
73.85368595787456
 20
34.64492064794672
 10
73.85605773394887
 20
34.51568476181075
 10
73.85847862891795
 20
34.38791738911993
 10
73.86094875530469
 20
34.26160678806531
 10
73.86346822563206
 20
34.13674121683806
 10
73.86603715242298
 20
34.01330893362946
 10
73.8686556482004
 20
33.89129819663054
 10
73.87132382548728
 20
33.77069726403244
 10
73.87404179680655
 20
33.65149439402632
 10
73.87680967468111
 20
33.5336778448035
 10
73.87962757163395
 20
33.41723587455488
 10
73.88249560018802
 20
33.30215674147144
 10
73.88541387286619
 20
33.18842870374448
 10
73.88838250219149
 20
33.07604001956514
 10
73.89140160068682
 20
32.96497894712457
 10
73.89447128087508
 20
32.85523374461383
 10
73.89759165527927
 20
32.74679267022412
 10
73.9007628364223
 20
32.63964398214671
 10
73.90398493682714
 20
32.53377593857255
 10
73.90725806901672
 20
32.42917679769261
 10
73.91058234551396
 20
32.32583481769814
 10
73.91395787884182
 20
32.22373825678039
 10
73.91738478152324
 20
32.1228753731304
 10
73.92086316608114
 20
32.02323442493929
 10
73.9243931450385
 20
31.92480367039827
 10
73.92797483091825
 20
31.82757136769851
 10
73.9316083362433
 20
31.73152577503112
 10
73.93529377353663
 20
31.63665515058693
 10
73.93903125532112
 20
31.54294775255733
 10
73.94282089411979
 20
31.45039183913338
 10
73.94666280245555
 20
31.35897566850628
 10
73.95055709285131
 20
31.26868749886711
 10
73.95450387783005
 20
31.17951558840701
 10
73.95850326991468
 20
31.09144819531724
 10
73.96255538162819
 20
31.00447357778882
 10
73.96666032549345
 20
30.91857999401276
 10
73.97081821403347
 20
30.83375570218021
 10
73.97502915977115
 20
30.74998896048243
 10
73.97929327522945
 20
30.66726802711048
 10
73.9836106729313
 20
30.58558116025551
 10
73.98798146539963
 20
30.50491661810867
 10
73.9924057651574
 20
30.42526265886113
 10
73.99688368472753
 20
30.34660754070399
 10
74.00141533663301
 20
30.26893952182826
 10
74.00600083339672
 20
30.19224686042509
 10
74.01064028754166
 20
30.11651781468572
 10
74.01533381159073
 20
30.04174064280119
 10
74.02008151806687
 20
29.96790360296268
 10
74.02488351949305
 20
29.89499495336133
 10
74.02973992839214
 20
29.8230029521884
 10
74.03465085728718
 20
29.7519158576348
 10
74.03961641870107
 20
29.68172192789166
 10
74.04463672515672
 20
29.61240942115018
 10
74.04971188917709
 20
29.54396659560149
 10
74.06002724000384
 20
29.40964302084694
 10
74.07056337136474
 20
29.27865726915724
 10
74.08132118344338
 20
29.15091540606125
 10
74.09230157642325
 20
29.02632349708796
 10
74.10350545048792
 20
28.90478760776648
 10
74.11493370582087
 20
28.78621380362591
 10
74.12658724260565
 20
28.67050815019524
 10
74.13846696102583
 20
28.55757671300342
 10
74.15057376126488
 20
28.44732555757952
 10
74.16290854350636
 20
28.33966074945272
 10
74.17547220793377
 20
28.23448835415189
 10
74.18826565473065
 20
28.13171443720609
 10
74.20128978408055
 20
28.03124506414434
 10
74.21454549616695
 20
27.93298630049577
 10
74.22803369117341
 20
27.83684421178941
 10
74.24175526928348
 20
27.74272486355414
 10
74.25571113068063
 20
27.65053432131913
 10
74.26990217554844
 20
27.56017865061347
 10
74.28432930407041
 20
27.47156391696609
 10
74.29899341643007
 20
27.38459618590594
 10
74.31389541281093
 20
27.29918152296221
 10
74.32903619339654
 20
27.21522599366392
 10
74.34441665837046
 20
27.13263566354005
 10
74.36003770791614
 20
27.05131659811963
 10
74.37590024221718
 20
26.97117486293172
 10
74.39200516145709
 20
26.89211652350536
 10
74.40835336581938
 20
26.81404764536968
 10
74.42494575548757
 20
26.73687429405345
 10
74.4588666914758
 20
26.5848384339962
 10
74.49377517089003
 20
26.43525746756575
 10
74.52967839519847
 20
26.28737991899448
 10
74.56658356586931
 20
26.14045431251464
 10
74.60450799026401
 20
25.9938376067438
 10
74.64351968704926
 20
25.8474308833313
 10
74.68370254745234
 20
25.70130553359741
 10
74.72514046816503
 20
25.55553300749585
 10
74.76791734587911
 20
25.41018475498032
 10
74.81211707728634
 20
25.26533222600455
 10
74.85782355907851
 20
25.12104687052233
 10
74.90512068794743
 20
24.97740013848727
 10
74.95409236058488
 20
24.83446347985319
 10
75.00482247368259
 20
24.69230834457375
 10
75.05739492393239
 20
24.55100618260275
 10
75.11189360802602
 20
24.41062844389387
 10
75.16840242265534
 20
24.27124657840085
 10
75.22700526451204
 20
24.13293203607743
 10
75.28778603028793
 20
23.99575626687727
 10
75.35082861667484
 20
23.85979072075418
 10
75.4162169203645
 20
23.72510684766183
 10
75.48403483804872
 20
23.59177609755403
 10
75.55436626641927
 20
23.45986992038439
 10
75.62729510216789
 20
23.32945976610671
 10
75.70290524198644
 20
23.20061708467472
 10
75.78128058256665
 20
23.0734133260421
 10
75.86246976951355
 20
22.94790058414367
 10
75.9463539801212
 20
22.8240389977405
 10
76.03276471209001
 20
22.7017614270261
 10
76.1215334552368
 20
22.58100072786517
 10
76.21249169937826
 20
22.46168975612215
 10
76.30547093433118
 20
22.34376136766178
 10
76.40030264991231
 20
22.22714841834869
 10
76.49681833593837
 20
22.1117837640474
 10
76.59484948222619
 20
21.99760026062256
 10
76.69422757859241
 20
21.88453076393881
 10
76.79478411485388
 20
21.77250812986068
 10
76.89635058082726
 20
21.66146521425281
 10
76.99876718784054
 20
21.55133829657245
 10
77.1019690772032
 20
21.4421009206427
 10
77.20594970227279
 20
21.33374952043647
 10
77.3107033646056
 20
21.22628086288341
 10
77.41622436575781
 20
21.11969171491319
 10
77.52250700728559
 20
21.01397884345556
 10
77.62954559074511
 20
20.90913901544013
 10
77.73733441769258
 20
20.80516899779656
 10
77.84586778968415
 20
20.7020655574546
 10
77.95514000827608
 20
20.59982546134393
 10
78.06514537502451
 20
20.49844547639413
 10
78.17587819148562
 20
20.39792236953497
 10
78.28733275921561
 20
20.29825290769611
 10
78.39950337977066
 20
20.19943385780721
 10
78.51238435470698
 20
20.10146198679797
 10
78.62596998558077
 20
20.00433406159806
 10
78.74025457394814
 20
19.90804684913718
 10
78.8552324213654
 20
19.81259711634493
 10
78.97089782938863
 20
19.71798163015108
 10
79.08724509957403
 20
19.62419715748524
 10
79.20426853347784
 20
19.53124046527715
 10
79.32196243265623
 20
19.43910832045645
 10
79.44032109866537
 20
19.34779748995287
 10
79.55933883306146
 20
19.25730474069598
 10
79.67900993740068
 20
19.16762683961559
 10
79.79932871323923
 20
19.0787605536413
 10
79.92028946213324
 20
18.99070264970282
 10
80.04188648563902
 20
18.90344989472976
 10
80.16411408531267
 20
18.81699905565193
 10
80.28696656271035
 20
18.73134689939888
 10
80.4104382193883
 20
18.64649019290033
 10
80.53452335690277
 20
18.56242570308598
 10
80.65921627680982
 20
18.47915019688554
 10
80.78451128066573
 20
18.39666044122856
 10
80.91040267002664
 20
18.31495320304486
 10
81.03688474644874
 20
18.23402524926405
 10
81.16395181148826
 20
18.15387334681583
 10
81.29159816670135
 20
18.07449426262985
 10
81.4198181136442
 20
17.99588476363584
 10
81.54860595387296
 20
17.91804161676344
 10
81.67795598894393
 20
17.84096158894232
 10
81.8078625204132
 20
17.76464144710218
 10
81.93831984983701
 20
17.68907795817273
 10
82.0693222787715
 20
17.61426788908358
 10
82.20086410877287
 20
17.54020800676443
 10
82.33293964139734
 20
17.466895078145
 10
82.46554317820109
 20
17.39432587015488
 10
82.5986690207403
 20
17.32249714972391
 10
82.73231147057114
 20
17.25140568378157
 10
82.86646482924981
 20
17.18104823925768
 10
83.00112339833242
 20
17.11142158308195
 10
83.13628147937533
 20
17.04252248218387
 10
83.27193337393461
 20
16.97434770349326
 10
83.40807338356642
 20
16.90689401393985
 10
83.54469580982707
 20
16.84015818045316
 10
83.6817949542727
 20
16.77413696996296
 10
83.9574006039435
 20
16.6442254856907
 10
84.23484474502846
 20
16.5171336965605
 10
84.51408178997697
 20
16.3928357380098
 10
84.7950661512386
 20
16.27130574547601
 10
85.07775224126278
 20
16.15251785439659
 10
85.36209447249911
 20
16.03644620020896
 10
85.64804725739703
 20
15.92306491835052
 10
85.93556500840604
 20
15.81234814425875
 10
86.22460213797571
 20
15.704270013371
 10
86.51511305855541
 20
15.5988046611248
 10
86.8070521825947
 20
15.49592622295751
 10
87.10037392254319
 20
15.39560883430658
 10
87.39503269085025
 20
15.29782663060945
 10
87.69098289996547
 20
15.20255374730351
 10
87.98817896233837
 20
15.10976431982624
 10
88.28657529041834
 20
15.01943248361505
 10
88.58612629665495
 20
14.93153237410735
 10
88.8867863934977
 20
14.84603812674061
 10
89.18850999339609
 20
14.76292387695224
 10
89.49125150879959
 20
14.68216376017966
 10
89.79496535215778
 20
14.60373191186033
 10
90.09960593592005
 20
14.52760246743167
 10
90.40512767253591
 20
14.45374956233109
 10
90.71148497445504
 20
14.38214733199601
 10
91.0186322541268
 20
14.31276991186388
 10
91.32652392400073
 20
14.24559143737212
 10
91.6351143965263
 20
14.18058604395821
 10
91.94435808415304
 20
14.11772786705955
 10
92.25420939933044
 20
14.05699104211351
 10
92.56462275450804
 20
13.99834970455759
 10
92.87555256213527
 20
13.94177798982923
 10
93.18695323466171
 20
13.88725003336583
 10
93.49877918453678
 20
13.8347399706048
 10
93.81098482421
 20
13.78422193698355
 10
94.1235245661309
 20
13.73567006793962
 10
94.43635282274906
 20
13.68905849891035
 10
94.74942400651386
 20
13.64436136533317
 10
95.06269252987486
 20
13.60155280264558
 10
95.37611280528158
 20
13.5606069462849
 10
95.68963924518348
 20
13.52149793168865
 10
96.00322626203013
 20
13.48419989429425
 10
96.31682826827088
 20
13.44868696953909
 10
96.6303996763554
 20
13.41493329286066
 10
96.94389489873312
 20
13.38291299969631
 10
97.25726834785357
 20
13.35260022548351
 10
97.5704744361662
 20
13.32396910565973
 10
97.88346757612051
 20
13.29699377566231
 10
98.19620218016607
 20
13.27164837092874
 10
98.50863266075236
 20
13.24790702689648
 10
98.82071343032885
 20
13.22574387900289
 10
99.13239890134505
 20
13.20513306268549
 10
99.44364348625049
 20
13.18604871338158
 10
99.75440159749467
 20
13.16846496652869
 10
100.0646276475271
 20
13.15235595756422
 10
100.3742760487972
 20
13.1376958219256
 10
100.6833012137547
 20
13.12445869505029
 10
100.9916575548488
 20
13.11261871237565
 10
101.2992994845292
 20
13.1021500093392
 10
101.6061814152454
 20
13.09302672137829
 10
101.9122577594467
 20
13.08522298393035
 10
102.2174829295829
 20
13.07871293243289
 10
102.5218113381033
 20
13.07347070232327
 10
102.8251973974575
 20
13.06947042903897
 10
103.1275955200949
 20
13.06668624801739
 10
103.4289601184651
 20
13.06509229469594
 10
103.7292618839003
 20
13.06464666658473
 10
103.8791434579185
 20
13.06470560952914
 10
103.9548805420178
 20
13.06474152631404
 10
103.9940181732079
 20
13.0647581022751
 10
104.0346055949881
 20
13.06477377768084
 10
104.0770956057305
 20
13.06478856833047
 10
104.1219410038072
 20
13.06480249002322
 10
104.1695945875906
 20
13.06481555855828
 10
104.1946159486136
 20
13.06482177782896
 10
104.2205091554528
 20
13.06482778973492
 10
104.2473308079047
 20
13.06483359625105
 10
104.275137505766
 20
13.06483919935232
 10
104.3039858488331
 20
13.06484460101353
 10
104.3339324369026
 20
13.06484980320965
 10
104.365033869771
 20
13.06485480791559
 10
104.3973467472348
 20
13.06485961710626
 10
104.4309276690905
 20
13.06486423275646
 10
104.4658332351347
 20
13.06486865684121
 10
104.5021200451638
 20
13.06487289133537
 10
104.5398446989745
 20
13.06487693821384
 10
104.5790637963633
 20
13.06488079945149
 10
104.6198339371266
 20
13.06488447702327
 10
104.662211721061
 20
13.06488797290404
 10
104.7062537479631
 20
13.06489128906878
 10
104.7520166176293
 20
13.06489442749233
 10
104.7995569298561
 20
13.06489739014955
 10
104.84893128444
 20
13.06490017901541
 10
104.9001962811779
 20
13.06490279606481
 10
104.953408519866
 20
13.06490524327267
 10
105.0086246003009
 20
13.06490752261379
 10
105.0659011222792
 20
13.06490963606319
 10
105.1252946855973
 20
13.06491158559572
 10
105.1868618900518
 20
13.0649133731863
 10
105.2506593354392
 20
13.06491500080978
 10
105.316743621556
 20
13.06491647044112
 10
105.3851713481988
 20
13.06491778405518
 10
105.4559991151641
 20
13.06491894362688
 10
105.5292835222484
 20
13.06491995113111
 10
105.6050811692483
 20
13.06492080854286
 10
105.6834486559603
 20
13.06492151783692
 10
105.7644425821808
 20
13.06492208098819
 10
105.8481195477063
 20
13.06492249997166
 10
105.9345361523333
 20
13.06492277676222
 10
106.0237489958589
 20
13.06492291333467
 10
106.1158146780791
 20
13.06492291166398
 10
106.2107897987906
 20
13.06492277372507
 10
106.3087309577898
 20
13.06492250149284
 10
106.4096947548734
 20
13.06492209694215
 10
106.5137377898378
 20
13.06492156204797
 10
106.6209166624796
 20
13.06492089878509
 10
106.7312879725952
 20
13.06492010912853
 10
106.8449083199813
 20
13.06491919505316
 10
106.9618343044342
 20
13.06491815853383
 10
107.0821225257507
 20
13.06491700154549
 10
107.1435451626691
 20
13.06491637849257
 10
107.2058295837271
 20
13.06491572606302
 10
107.2689828638992
 20
13.06491504450366
 10
107.3330120781601
 20
13.06491433406131
 10
107.3979243014842
 20
13.06491359498295
 10
107.4637266088461
 20
13.06491282751534
 10
107.5304260752204
 20
13.06491203190535
 10
107.5980297755813
 20
13.0649112083999
 10
107.6665447849037
 20
13.06491035724582
 10
107.7359781781626
 20
13.06490947868997
 10
107.8063370303321
 20
13.06490857297922
 10
107.8776284163869
 20
13.06490764036044
 10
107.9498594113015
 20
13.06490668108046
 10
108.0230370900504
 20
13.06490569538619
 10
108.0971685276082
 20
13.06490468352444
 10
108.1722607989496
 20
13.06490364574216
 10
108.2483209790489
 20
13.06490258228609
 10
108.325356142881
 20
13.06490149340317
 10
108.4033733654202
 20
13.06490037934026
 10
108.4823797216411
 20
13.06489924034423
 10
108.5623822865183
 20
13.0648980766619
 10
108.6433881350265
 20
13.06489688854014
 10
108.7254043421401
 20
13.06489567622589
 10
108.8084379828337
 20
13.06489443996588
 10
108.8924961320819
 20
13.06489318000712
 10
108.9775858648593
 20
13.06489189659635
 10
109.0637142561403
 20
13.06489058998051
 10
109.1508883808997
 20
13.0648892604064
 10
109.2391153141119
 20
13.06488790812091
 10
109.3284021307515
 20
13.06488653337095
 10
109.4187559057931
 20
13.06488513640329
 10
109.5101837142112
 20
13.06488371746491
 10
109.6026926309804
 20
13.06488227680256
 10
109.6962897310753
 20
13.06488081466318
 10
109.7909820894705
 20
13.06487933129358
 10
109.8867767811404
 20
13.06487782694069
 10
109.9836808810598
 20
13.06487630185126
 10
110.0817014642031
 20
13.06487475627227
 10
110.1808456055448
 20
13.06487319045055
 10
110.2811203800591
 20
13.06487160463291
 10
110.3825328627209
 20
13.06486999906627
 10
110.4850901285056
 20
13.06486837399745
 10
110.5887992523871
 20
13.06486672967333
 10
110.6936673093399
 20
13.06486506634081
 10
110.7997013743386
 20
13.06486338424668
 10
110.9069085223577
 20
13.0648616836379
 10
111.0152958283719
 20
13.06485996476124
 10
111.1248703673557
 20
13.06485822786362
 10
111.2356392142837
 20
13.06485647319187
 10
111.3476094441304
 20
13.06485470099284
 10
111.4607881318704
 20
13.06485291151347
 10
111.5751823524782
 20
13.06485110500051
 10
111.6907991809285
 20
13.0648492817009
 10
111.8076456921958
 20
13.0648474418615
 10
111.9257289612547
 20
13.06484558572919
 10
112.0450560630796
 20
13.06484371355077
 10
112.1656340726453
 20
13.06484182557312
 10
112.2874700649262
 20
13.06483992204312
 10
112.410571114897
 20
13.06483800320762
 10
112.5349442975321
 20
13.06483606931351
 10
112.6605966878062
 20
13.06483412060766
 10
112.7875353606938
 20
13.06483215733686
 10
112.9157673911695
 20
13.06483017974807
 10
113.0452998542079
 20
13.06482818808808
 10
113.1761398247835
 20
13.06482618260378
 10
113.3082943778709
 20
13.06482416354203
 10
113.4417705884446
 20
13.06482213114964
 10
113.5765755314793
 20
13.0648200856736
 10
113.7127162819494
 20
13.06481802736061
 10
113.8501999148296
 20
13.06481595645772
 10
113.9890335050944
 20
13.06481387321162
 10
114.1292241277175
 20
13.06481177786929
 10
114.2707788576744
 20
13.0648096706775
 10
114.4137047699405
 20
13.06480755188323
 10
114.5580089394894
 20
13.06480542173318
 10
114.7036984412958
 20
13.06480328047439
 10
114.8507803503342
 20
13.06480112835362
 10
114.9992617415791
 20
13.06479896561774
 10
115.1491496900052
 20
13.06479679251362
 10
115.300451270587
 20
13.06479460928813
 10
115.4531735582992
 20
13.06479241618814
 10
115.6073236281161
 20
13.06479021346047
 10
115.7629085550124
 20
13.06478800135204
 10
115.9199354139628
 20
13.06478578010967
 10
116.0784112799416
 20
13.06478354998029
 10
116.2383432279236
 20
13.06478131121065
 10
116.3997383328833
 20
13.06477906404774
 10
116.5626036697952
 20
13.06477680873831
 10
116.7269463136338
 20
13.0647745455293
 10
116.8927733393739
 20
13.06477227466752
 10
117.0600918219899
 20
13.06476999639989
 10
117.2289088364564
 20
13.06476771097323
 10
117.399231457748
 20
13.06476541863441
 10
117.5710667608392
 20
13.0647631196303
 10
117.7444218207046
 20
13.06476081420771
 10
117.9193037123188
 20
13.06475850261358
 10
118.0957195106563
 20
13.06475618509478
 10
118.2736762906917
 20
13.06475386189811
 10
118.4531811273996
 20
13.06475153327045
 10
118.6342410957545
 20
13.06474919945867
 10
118.816863270731
 20
13.06474686070965
 10
119.0010547273037
 20
13.06474451727024
 10
119.1868225404471
 20
13.06474216938733
 10
119.3741737851347
 20
13.06473981730772
 10
119.563115536342
 20
13.0647374612783
 10
119.753654869045
 20
13.06473510154592
 10
119.945798858217
 20
13.06473273835746
 10
120.1395545788325
 20
13.06473037195985
 10
120.3349291058661
 20
13.06472800259985
 10
120.5319295142924
 20
13.06472563052432
 10
120.730562879086
 20
13.0647232559802
 10
120.9308362752214
 20
13.06472087921435
 10
121.1327567776732
 20
13.06471850047353
 10
121.336331461416
 20
13.06471612000473
 10
121.5415674014243
 20
13.0647137380547
 10
121.7484716726726
 20
13.06471135487038
 10
121.9570513501357
 20
13.06470897069863
 10
122.1673135087879
 20
13.06470658578627
 10
122.3792652236039
 20
13.06470420038016
 10
122.5929135695583
 20
13.06470181472724
  0
LWPOLYLINE
  5
2A8F
330
1F
100
AcDbEntity
  8
0
100
AcDbPolyline
 90
      479
 70
     0
 43
0.0
 10
42.59997599999985
 20
260.4008160000001
 10
42.63542946722753
 20
258.6430876033516
 10
42.67174660004764
 20
256.8853929469866
 10
42.70979106405262
 20
255.1277657711886
 10
42.75042652483493
 20
253.3702398162409
 10
42.79451664798696
 20
251.6128488224271
 10
42.84292509910124
 20
249.8556265300306
 10
42.89651554377011
 20
248.0986066793349
 10
42.95615164758607
 20
246.3418230106235
 10
43.02269707614146
 20
244.5853092641798
 10
43.0970154950288
 20
242.8290991802871
 10
43.17997056984057
 20
241.0732264992294
 10
43.2724067544534
 20
239.3177279861327
 10
43.37489953250961
 20
237.5626827549058
 10
43.48782640278339
 20
235.8082010917465
 10
43.61156026856519
 20
234.0543940064016
 10
43.74647403314553
 20
232.3013725086182
 10
43.89294059981501
 20
230.549247608143
 10
44.05133287186408
 20
228.798130314723
 10
44.22202375258319
 20
227.0481316381049
 10
44.40538614526296
 20
225.2993625880359
 10
44.60179295319392
 20
223.5519341742626
 10
44.81161707966651
 20
221.805957406532
 10
45.03523140513453
 20
220.0615434556497
 10
45.2730036160318
 20
218.3188401237806
 10
45.52528963209742
 20
216.5780781989159
 10
45.79244375297853
 20
214.8394998949119
 10
46.07482027832224
 20
213.1033474256255
 10
46.37277350777543
 20
211.3698630049132
 10
46.6866577409853
 20
209.6392888466319
 10
47.01682727759888
 20
207.9118671646382
 10
47.36363641726324
 20
206.1878401727888
 10
47.72743945962542
 20
204.4674500849404
 10
48.10859070433252
 20
202.7509391149497
 10
48.50744445103153
 20
201.0385494766734
 10
48.92431837613287
 20
199.3305132916593
 10
49.359036613778
 20
197.6269266754253
 10
49.81106942269789
 20
195.9277882256215
 10
50.27987934441011
 20
194.2330944132567
 10
50.764928920432
 20
192.5428417093393
 10
51.26568069228103
 20
190.8570265848777
 10
51.78159720147458
 20
189.1756455108805
 10
52.31214098953017
 20
187.4986949583565
 10
52.85677459796524
 20
185.8261713983138
 10
53.41496056829711
 20
184.1580713017611
 10
53.98616144204338
 20
182.494391139707
 10
54.56983976072143
 20
180.8351273831599
 10
55.16547744406766
 20
179.1802746235786
 10
55.77273211236506
 20
177.5298104107148
 10
56.39135492567561
 20
175.8837032216251
 10
57.02109791367433
 20
174.2419214490199
 10
57.66171310603606
 20
172.6044334856096
 10
58.3129525324358
 20
170.9712077241042
 10
58.97456822254849
 20
169.3422125572144
 10
59.64631220604894
 20
167.7174163776502
 10
60.32793651261219
 20
166.0967875781222
 10
61.01919317191311
 20
164.4802945513405
 10
61.71983421362664
 20
162.8679056900155
 10
62.42961166742764
 20
161.2595893868575
 10
63.14828087971124
 20
159.6553142604985
 10
63.87568764592531
 20
158.055055090595
 10
64.61177685856938
 20
156.4587934068949
 10
65.35649846098481
 20
154.8665110831894
 10
66.10980239651313
 20
153.2781899932693
 10
66.87163860849579
 20
151.6938120109258
 10
67.64196011117006
 20
150.1133608122655
 10
68.42154805703756
 20
148.537306109666
 10
69.21312692220765
 20
146.9672581566431
 10
70.01969961796333
 20
145.4049906209624
 10
70.8442690555875
 20
143.8522771703897
 10
71.68983814636317
 20
142.3108914726909
 10
72.55940980157328
 20
140.7826071956316
 10
73.454885524688
 20
139.2685928575156
 10
74.36853874910474
 20
137.7647270001673
 10
75.28766772652994
 20
136.2641546379307
 10
76.19952905880757
 20
134.7599979013535
 10
77.09137934778141
 20
133.2453789209836
 10
77.9504751952955
 20
131.7134198273688
 10
78.76408652991035
 20
130.1572508231633
 10
79.52491450767502
 20
128.5732918520468
 10
80.23941174701826
 20
126.9662922362871
 10
80.91617419389251
 20
125.3422995341238
 10
81.56166421356736
 20
123.7061681510317
 10
82.17467989920633
 20
122.0584664359369
 10
82.75229901754654
 20
120.3988006873255
 10
83.29376392249697
 20
118.7272956261871
 10
83.80694394809006
 20
117.0461421506987
 10
84.30185728750695
 20
115.3580458134394
 10
84.78372082246487
 20
113.6644816173366
 10
85.23994885331655
 20
111.9623618618827
 10
85.65383194385299
 20
110.2475424294005
 10
86.01141335525147
 20
108.5174502107616
 10
86.30718331231305
 20
106.7743329144603
 10
86.5372468768486
 20
105.0213598623729
 10
86.69770911066892
 20
103.261700376376
 10
86.78467507558471
 20
101.4985237783456
 10
86.79997609672055
 20
99.73698784158614
 10
86.79997609672055
 20
97.97915403780557
 10
86.79997609672055
 20
96.221320234025
 10
86.79997609672055
 20
94.46348643024441
 10
86.79997609672055
 20
92.70565262646377
 10
86.79997609672055
 20
90.94781882268319
 10
86.79997609672055
 20
89.18998501890262
 10
86.79997609672055
 20
87.43215121512207
 10
86.79997609672055
 20
85.67431741134146
 10
86.79997609672055
 20
83.91648360756091
 10
86.79997609672055
 20
82.15864980378029
 10
86.79997609672055
 20
80.40081600000005
 10
86.79997609672055
 20
80.04040020941705
 10
86.79997609672055
 20
79.68242552465625
 10
86.79997609672055
 20
79.32688086058731
 10
86.79997609672055
 20
78.97375513207987
 10
86.79997609672055
 20
78.62303725400355
 10
86.79997609672055
 20
78.2747161412279
 10
86.79997609672055
 20
77.92878070862261
 10
86.79997609672055
 20
77.58521987105723
 10
86.79997609672055
 20
77.24402254340145
 10
86.79997609672055
 20
76.90517764052484
 10
86.79997609672055
 20
76.56867407729706
 10
86.79997609672055
 20
76.23450076858768
 10
86.79997609672055
 20
75.90264662926634
 10
86.79997609672055
 20
75.57310057420264
 10
86.79997609672055
 20
75.24585151826622
 10
86.79997609672055
 20
74.9208883763267
 10
86.79997609672055
 20
74.59820006325367
 10
86.79997609672055
 20
74.27777549391675
 10
86.79997609672055
 20
73.95960358318561
 10
86.79997609672055
 20
73.64367324592982
 10
86.79997609672055
 20
73.32997339701899
 10
86.79997609672055
 20
73.01849295132274
 10
86.79997609672055
 20
72.70922082371072
 10
86.79997609672055
 20
72.40214592905251
 10
86.79997609672055
 20
72.0972571822178
 10
86.79997609672055
 20
71.79454349807611
 10
86.79997609672055
 20
71.49399379149706
 10
86.79997609672055
 20
71.19559697735036
 10
86.79997609672055
 20
70.89934197050556
 10
86.79997609672055
 20
70.60521768583232
 10
86.79997609672055
 20
70.31321303820019
 10
86.79997609672055
 20
70.02331694247883
 10
86.79997609672055
 20
69.73551831353785
 10
86.79997609672055
 20
69.44980606624691
 10
86.79997609672055
 20
69.16616911547555
 10
86.79997609672055
 20
68.88459637609344
 10
86.79997609672055
 20
68.3275991909754
 10
86.79997609672055
 20
67.77872582984972
 10
86.79997609672055
 20
67.23788761167333
 10
86.79997609672055
 20
66.70499585540316
 10
86.79997609672055
 20
66.17996187999617
 10
86.79997609672055
 20
65.66269700440925
 10
86.79997609672055
 20
65.15311254759945
 10
86.79997609672055
 20
64.65111982852356
 10
86.79997609672055
 20
64.15663016613866
 10
86.79997609672055
 20
63.6695548794016
 10
86.79997609672055
 20
63.18980528726934
 10
86.79997609672055
 20
62.71729270869883
 10
86.79997609672055
 20
62.251928462647
 10
86.79997609672055
 20
61.79362386807078
 10
86.79997609672055
 20
61.34229024392714
 10
86.79997609672055
 20
60.89783890917296
 10
86.79997609672055
 20
60.46018118276528
 10
86.79997609672055
 20
60.02922838366091
 10
86.79997609672055
 20
59.60489183081691
 10
86.79997609672055
 20
59.18708284319013
 10
86.79997609672055
 20
58.77571273973757
 10
86.79997609672055
 20
58.37069283941612
 10
86.79997609672055
 20
57.97193446118274
 10
86.79997609672055
 20
57.57934892399442
 10
86.79997609672055
 20
57.19284754680799
 10
86.79997609672055
 20
56.81234164858047
 10
86.79997609672055
 20
56.43774254826877
 10
86.79997609672055
 20
56.06896156482985
 10
86.79997609672055
 20
55.70591001722064
 10
86.79997609672055
 20
55.34849922439807
 10
86.79997609672055
 20
54.99664050531908
 10
86.79997609672055
 20
54.65024517894062
 10
86.79997609672055
 20
54.30922456421962
 10
86.79997609672055
 20
53.97348998011302
 10
86.79997609672055
 20
53.64295274557774
 10
86.79997609672055
 20
53.31752417957076
 10
86.79997609672055
 20
52.99711560104903
 10
86.79997609672055
 20
52.6816383289694
 10
86.79997609672055
 20
52.37100368228889
 10
86.79997609672055
 20
52.06512297996439
 10
86.79997609672055
 20
51.7639075409529
 10
86.79997609672055
 20
51.46726868421132
 10
86.79997609672055
 20
51.17511772869659
 10
86.79997609672055
 20
50.88736599336562
 10
86.79997609672055
 20
50.60392479717541
 10
86.79997609672055
 20
50.32470545908285
 10
86.79997609672055
 20
50.0496192980449
 10
86.79997609672055
 20
49.77857763301853
 10
86.79997609672055
 20
49.5114917829606
 10
86.79997609672055
 20
49.24827306682813
 10
86.79997609672055
 20
48.98883280357802
 10
86.79997609672055
 20
48.73308231216721
 10
86.79997609672055
 20
48.48093291155262
 10
86.79997609672055
 20
48.23229592069122
 10
86.79997609672055
 20
47.98708265853997
 10
86.79997609672055
 20
47.74520444405576
 10
86.79997609672055
 20
47.50657259619552
 10
86.79997609672055
 20
47.27109843391625
 10
86.79997609672055
 20
47.03869327617485
 10
86.79997609672055
 20
46.80926844192828
 10
86.79997609672055
 20
46.58273525013341
 10
86.79997609672055
 20
46.35900501974728
 10
86.79997609672055
 20
46.13798906972678
 10
86.79997609672055
 20
45.91959871902886
 10
86.79997609672055
 20
45.7037452866104
 10
86.79997609672055
 20
45.49034009142842
 10
86.79997609672055
 20
45.27929445243984
 10
86.79997609672055
 20
45.07051968860159
 10
86.79997609672055
 20
44.86392711887059
 10
86.79997609672055
 20
44.6594280622038
 10
86.79997609672055
 20
44.25635576389058
 10
86.79997609672055
 20
43.86059334531744
 10
86.79997609672055
 20
43.47143135813989
 10
86.79997609672055
 20
43.08816035401348
 10
86.79997609672055
 20
42.71007088459373
 10
86.79997609672055
 20
42.33645350153607
 10
86.79997609672055
 20
41.96659875649607
 10
86.79997609672055
 20
41.59979720112921
 10
86.79997609672055
 20
40.87251586603708
 10
86.79997609672055
 20
40.51061718962277
 10
86.79997609672055
 20
40.42020388901625
 10
86.79997609672055
 20
40.40890262091477
 10
86.79997609672055
 20
40.40325199402672
 10
86.79997609672055
 20
40.40183933759272
 10
86.79997609672055
 20
40.40113300938986
 10
86.79997609672055
 20
40.40095642733972
 10
86.79997609672055
 20
40.40086813631467
 10
86.79997609672055
 20
40.40082399080215
 10
86.79998441501131
 20
40.39837026593732
 10
86.80006605628472
 20
40.37449640297603
 10
86.80074449242717
 20
40.18457398810517
 10
86.80223668144163
 20
39.81039107224814
 10
86.80391004291506
 20
39.44367909617858
 10
86.80576547703095
 20
39.08434412542522
 10
86.80780388397293
 20
38.7322922255168
 10
86.81002616392445
 20
38.38742946198266
 10
86.81243321706906
 20
38.04966190035208
 10
86.81502594359031
 20
37.71889560615387
 10
86.81780524367168
 20
37.39503664491672
 10
86.82077201749672
 20
37.0779910821703
 10
86.82392716524899
 20
36.7676649834433
 10
86.827271587112
 20
36.46396441426452
 10
86.83080618326922
 20
36.16679544016353
 10
86.83453185390423
 20
35.87606412666906
 10
86.83844949920061
 20
35.59167653930996
 10
86.84256001934178
 20
35.31353874361572
 10
86.84686431451131
 20
35.04155680511508
 10
86.85136328489276
 20
34.77563678933695
 10
86.85605783066961
 20
34.51568476181075
 10
86.86094885202543
 20
34.26160678806531
 10
86.8660372491437
 20
34.01330893362946
 10
86.87132392220801
 20
33.77069726403244
 10
86.87680977140184
 20
33.5336778448035
 10
86.88249569690874
 20
33.30215674147144
 10
86.8883825989122
 20
33.07604001956514
 10
86.8944713775958
 20
32.85523374461383
 10
86.90076293314303
 20
32.63964398214671
 10
86.90725816573744
 20
32.42917679769261
 10
86.91395797556255
 20
32.22373825678039
 10
86.92086326280188
 20
32.02323442493935
 10
86.92797492763896
 20
31.82757136769857
 10
86.93529387025732
 20
31.63665515058693
 10
86.94282099084052
 20
31.45039183913343
 10
86.95055718957204
 20
31.26868749886711
 10
86.95850336663539
 20
31.0914481953173
 10
86.96666042221416
 20
30.91857999401276
 10
86.97502925649187
 20
30.74998896048243
 10
86.983610769652
 20
30.58558116025551
 10
86.99240586187814
 20
30.42526265886113
 10
87.00141543335375
 20
30.26893952182826
 10
87.01064038426244
 20
30.11651781468572
 10
87.0200816147876
 20
29.96790360296273
 10
87.02974002511291
 20
29.8230029521884
 10
87.03961651542178
 20
29.68172192789166
 10
87.04971198589779
 20
29.54396659560149
 10
87.06002733672454
 20
29.40964302084694
 10
87.07056346808547
 20
29.27865726915724
 10
87.08132128016409
 20
29.15091540606125
 10
87.09230167314396
 20
29.02632349708796
 10
87.10350554720861
 20
28.90478760776648
 10
87.11493380254159
 20
28.78621380362591
 10
87.1265873393264
 20
28.67050815019524
 10
87.13846705774656
 20
28.55757671300342
 10
87.15057385798564
 20
28.44732555757952
 10
87.16290864022708
 20
28.33966074945272
 10
87.17547230465447
 20
28.23448835415189
 10
87.18826575145138
 20
28.13171443720609
 10
87.20128988080125
 20
28.03124506414434
 10
87.21454559288767
 20
27.93298630049583
 10
87.24175536600418
 20
27.7427248635542
 10
87.26990227226915
 20
27.56017865061347
 10
87.29899351315076
 20
27.38459618590594
 10
87.32903629011728
 20
27.21522599366392
 10
87.3600378046369
 20
27.05131659811963
 10
87.39200525817782
 20
26.89211652350542
 10
87.4249458522083
 20
26.73687429405351
 10
87.45886678819653
 20
26.5848384339962
 10
87.49377526761076
 20
26.43525746756575
 10
87.56658366259001
 20
26.14045431251469
 10
87.64351978376998
 20
25.8474308833313
 10
87.72514056488573
 20
25.55553300749585
 10
87.81211717400706
 20
25.26533222600455
 10
87.90512078466814
 20
24.97740013848727
 10
88.00482257040329
 20
24.69230834457375
 10
88.05739502065312
 20
24.55100618260275
 10
88.11189370474677
 20
24.41062844389387
 10
88.16840251937604
 20
24.27124657840085
 10
88.22700536123276
 20
24.13293203607743
 10
88.28778612700867
 20
23.99575626687732
 10
88.35082871339556
 20
23.85979072075418
 10
88.41621701708524
 20
23.72510684766189
 10
88.48403493476942
 20
23.59177609755403
 10
88.55436636313999
 20
23.45986992038439
 10
88.62729519888864
 20
23.32945976610677
 10
88.70290533870718
 20
23.20061708467472
 10
88.78128067928736
 20
23.0734133260421
 10
88.86246986623431
 20
22.94790058414367
 10
88.94635407684189
 20
22.8240389977405
 10
89.03276480881073
 20
22.70176142702617
 10
89.12153355195751
 20
22.58100072786517
 10
89.21249179609898
 20
22.46168975612215
 10
89.3054710310519
 20
22.34376136766178
 10
89.400302746633
 20
22.22714841834869
 10
89.49681843265912
 20
22.1117837640474
 10
89.69422767531311
 20
21.88453076393881
 10
89.89635067754802
 20
21.66146521425281
 10
90.1019691739239
 20
21.44210092064276
 10
90.31070346132635
 20
21.22628086288341
 10
90.52250710400631
 20
21.01397884345556
 10
90.73733451441333
 20
20.80516899779661
 10
90.95514010499682
 20
20.59982546134393
 10
91.17587828820637
 20
20.39792236953502
 10
91.39950347649143
 20
20.19943385780726
 10
91.6259700823015
 20
20.00433406159806
 10
91.85523251808612
 20
19.81259711634493
 10
92.08724519629475
 20
19.6241971574853
 10
92.32196252937695
 20
19.43910832045651
 10
92.5593389297822
 20
19.25730474069604
 10
92.79932880995998
 20
19.0787605536413
 10
93.04188658235974
 20
18.90344989472982
 10
93.28696665943104
 20
18.73134689939888
 10
93.53452345362352
 20
18.56242570308603
 10
93.78451137738649
 20
18.39666044122856
 10
94.03688484316948
 20
18.23402524926405
 10
94.29159826342207
 20
18.07449426262985
 10
94.54860605059371
 20
17.91804161676344
 10
94.80786261713396
 20
17.76464144710218
 10
95.06932237549223
 20
17.61426788908358
 10
95.3329397381181
 20
17.466895078145
 10
95.59866911746105
 20
17.32249714972391
 10
95.86646492597052
 20
17.18104823925773
 10
96.13628157609609
 20
17.04252248218387
 10
96.40807348028715
 20
16.90689401393985
 10
96.68179505099345
 20
16.77413696996296
 10
96.95740070066428
 20
16.6442254856907
 10
97.23484484174916
 20
16.5171336965605
 10
97.5140818866977
 20
16.3928357380098
 10
97.79506624795931
 20
16.27130574547607
 10
98.07775233798357
 20
16.15251785439665
 10
98.36209456921984
 20
16.03644620020896
 10
98.64804735411778
 20
15.92306491835052
 10
98.93556510512681
 20
15.81234814425875
 10
99.22460223469645
 20
15.704270013371
 10
99.51511315527612
 20
15.5988046611248
 10
99.80705227931546
 20
15.49592622295751
 10
100.1003740192639
 20
15.39560883430658
 10
100.395032787571
 20
15.29782663060945
 10
100.6909829966862
 20
15.20255374730351
 10
100.9881790590591
 20
15.10976431982624
 10
101.286575387139
 20
15.01943248361505
 10
101.5861263933757
 20
14.93153237410735
 10
101.8867864902184
 20
14.84603812674061
 10
102.1885100901168
 20
14.76292387695224
 10
102.4912516055203
 20
14.68216376017966
 10
102.7949654488785
 20
14.60373191186033
 10
103.0996060326407
 20
14.52760246743167
 10
103.4051277692566
 20
14.45374956233109
 10
103.7114850711758
 20
14.38214733199601
 10
104.0186323508475
 20
14.31276991186388
 10
104.3265240207215
 20
14.24559143737218
 10
104.635114493247
 20
14.18058604395821
 10
104.9443581808737
 20
14.11772786705955
 10
105.2542094960512
 20
14.05699104211356
 10
105.5646228512287
 20
13.99834970455759
 10
105.875552658856
 20
13.94177798982923
 10
106.1869533313824
 20
13.88725003336583
 10
106.8109849209307
 20
13.78422193698361
 10
107.4363529194698
 20
13.68905849891035
 10
108.0626926265956
 20
13.60155280264558
 10
108.6896393419042
 20
13.52149793168871
 10
109.3168283649917
 20
13.44868696953909
 10
109.9438949954538
 20
13.38291299969631
 10
110.5704745328869
 20
13.32396910565973
 10
111.1962022768868
 20
13.2716483709288
 10
111.8207135270496
 20
13.22574387900295
 10
112.4436435829712
 20
13.18604871338158
 10
113.0646277442478
 20
13.15235595756422
 10
113.6833013104754
 20
13.12445869505029
 10
114.29929958125
 20
13.1021500093392
 10
114.9122578561674
 20
13.08522298393035
 10
115.521811434824
 20
13.07347070232327
 10
116.1275956168156
 20
13.06668624801739
 10
116.729261980621
 20
13.06464666658473
 10
116.8791432035361
 20
13.06470560952914
 10
117.0313459805681
 20
13.06477377768084
 10
117.1114547630309
 20
13.06480249002322
 10
117.1962487776139
 20
13.06482778973492
 10
117.2872382514343
 20
13.06484980320971
 10
117.3355282315327
 20
13.06485961710626
 10
117.3859334116092
 20
13.06486865684121
 10
117.4386425700536
 20
13.06487693821384
 10
117.4938444852554
 20
13.06488447702327
 10
117.5517279356044
 20
13.06489128906878
 10
117.6124816994899
 20
13.06489739014955
 10
117.6762945553018
 20
13.06490279606487
 10
117.7433552814297
 20
13.06490752261385
 10
117.8138526562632
 20
13.06491158559572
 10
117.887975458192
 20
13.06491500080978
 10
117.9659124656055
 20
13.06491778405518
 10
118.0478524568935
 20
13.06491995113117
 10
118.1339842104456
 20
13.06492151783692
 10
118.2244965046512
 20
13.06492249997171
 10
118.3195781179001
 20
13.06492291333467
 10
118.4194178285821
 20
13.06492277372513
 10
118.5242044150867
 20
13.06492209694215
 10
118.6341266558035
 20
13.06492089878515
 10
118.749373329122
 20
13.06491919505316
 10
118.8701332134321
 20
13.06491700154549
 10
118.9965950871232
 20
13.06491433406131
 10
119.1289477285847
 20
13.0649112083999
 10
119.2673799162066
 20
13.06490764036044
 10
119.4120804283786
 20
13.06490364574216
 10
119.5632380434901
 20
13.06489924034423
 10
119.7210415399309
 20
13.06489443996588
 10
119.8856796960904
 20
13.0648892604064
 10
120.0573412903583
 20
13.06488371746491
 10
120.2362151011243
 20
13.06487782694069
 10
120.4224899067777
 20
13.06487160463291
 10
120.6163544857084
 20
13.06486506634081
 10
120.8179976163062
 20
13.06485822786362
 10
121.0276080769606
 20
13.06485110500051
 10
121.1354600493058
 20
13.0648474418615
 10
121.2453746460612
 20
13.06484371355077
 10
121.3573754645255
 20
13.06483992204312
 10
121.4714861019975
 20
13.06483606931357
 10
121.5877301557759
 20
13.06483215733686
 10
121.7061312231593
 20
13.06482818808808
 10
121.8267129014465
 20
13.06482416354203
 10
121.9494987879361
 20
13.0648200856736
 10
122.0745124799269
 20
13.06481595645772
 10
122.2017775747172
 20
13.06481177786929
 10
122.331317669606
 20
13.06480755188323
 10
122.4631563618925
 20
13.06480328047439
 10
122.5973172488749
 20
13.06479896561774
 10
122.7338239278521
 20
13.06479460928813
 10
122.8726999961226
 20
13.06479021346047
 10
123.0139690509852
 20
13.06478578010973
 10
123.1576546897386
 20
13.06478131121071
 10
123.3037805096815
 20
13.06477680873831
 10
123.4523701081126
 20
13.06477227466752
 10
123.6034470823306
 20
13.06476771097323
 10
123.7570350296342
 20
13.0647631196303
 10
123.9131575473221
 20
13.06475850261364
 10
124.071838232693
 20
13.06475386189811
 10
124.2331006830456
 20
13.06474919945873
 10
124.3969684956786
 20
13.06474451727024
 10
124.5634652678902
 20
13.06473981730772
 10
124.7326145969796
 20
13.06473510154592
 10
124.904440080246
 20
13.06473037195985
 10
125.0789653149877
 20
13.06472563052438
 10
125.2562138985033
 20
13.06472087921435
 10
125.4362094280915
 20
13.06471612000473
 10
125.6189755010511
 20
13.06471135487044
 10
125.8045357146807
 20
13.06470658578627
 10
125.992913666279
 20
13.06470181472724
  0
VIEWPORT
  5
71
102
{ACAD_XDICTIONARY
360
2BEF
102
}
330
55
100
AcDbEntity
 67
     1
  8
0
100
AcDbViewport
 10
133.3499908447265
 20
101.5999970436096
 30
0.0
 40
381.3957395593833
 41
218.2856291881582
 68
     1
 69
     1
 12
133.3499908447265
 22
101.5999970436096
 13
0.0
 23
0.0
 14
10.0
 24
10.0
 15
10.0
 25
10.0
 16
0.0
 26
0.0
 36
1.0
 17
0.0
 27
0.0
 37
0.0
 42
50.0
 43
0.0
 44
0.0
 45
218.2856291881582
 50
0.0
 51
0.0
 72
   100
 90
    32800
  1

281
     0
 71
     1
 74
     0
110
0.0
120
0.0
130
0.0
111
1.0
121
0.0
131
0.0
112
0.0
122
1.0
132
0.0
 79
     0
146
0.0
  0
VIEWPORT
  5
73
102
{ACAD_XDICTIONARY
360
2BF1
102
}
330
55
100
AcDbEntity
 67
     1
  8
0
100
AcDbViewport
 10
133.3499939441677
 20
101.5999939441678
 30
0.0
 40
213.3599903106689
 41
162.5599903106689
 68
     2
 69
     2
 12
210.0
 22
148.5
 13
0.0
 23
0.0
 14
10.0
 24
10.0
 15
10.0
 25
10.0
 16
0.0
 26
0.0
 36
1.0
 17
0.0
 27
0.0
 37
0.0
 42
50.0
 43
0.0
 44
0.0
 45
324.0677920111345
 50
0.0
 51
0.0
 72
   100
 90
    32864
  1

281
     0
 71
     1
 74
     0
110
0.0
120
0.0
130
0.0
111
1.0
121
0.0
131
0.0
112
0.0
122
1.0
132
0.0
 79
     0
146
0.0
  0
ENDSEC
  0
SECTION
  2
OBJECTS
  0
DICTIONARY
  5
C
330
0
100
AcDbDictionary
281
     1
  3
ACAD_COLOR
350
1CC
  3
ACAD_GROUP
350
D
  3
ACAD_LAYOUT
350
1A
  3
ACAD_MATERIAL
350
1CB
  3
ACAD_MLEADERSTYLE
350
37A
  3
ACAD_MLINESTYLE
350
17
  3
ACAD_PLOTSETTINGS
350
19
  3
ACAD_PLOTSTYLENAME
350
E
  3
ACAD_SCALELIST
350
368
  3
ACAD_TABLESTYLE
350
1CD
  3
ACAD_VISUALSTYLE
350
354
  3
ACDB_RECOMPOSE_DATA
350
2BE3
  3
AcDbVariableDictionary
350
5E
  3
AEC_PROPERTY_SET_DEFS
350
391
  3
DWGPROPS
350
2BE4
  0
DICTIONARY
  5
3AE
330
8
100
AcDbDictionary
280
     1
281
     1
  0
DICTIONARY
  5
39E
330
10
100
AcDbDictionary
280
     1
281
     1
  3
ADSK_XREC_LAYER_RECONCILED
360
39F
  0
DICTIONARY
  5
3A0
330
86
100
AcDbDictionary
280
     1
281
     1
  3
ADSK_XREC_LAYER_RECONCILED
360
3A1
  0
DICTIONARY
  5
3A2
330
87
100
AcDbDictionary
280
     1
281
     1
  3
ADSK_XREC_LAYER_RECONCILED
360
3A3
  0
DICTIONARY
  5
206
330
1F
100
AcDbDictionary
280
     1
281
     1
  3
ACAD_SORTENTS
360
207
  0
DICTIONARY
  5
2BEB
330
6B
100
AcDbDictionary
280
     1
281
     1
  3
ACAD_XREC_ROUNDTRIP
360
2BEC
  0
DICTIONARY
  5
2BED
330
6D
100
AcDbDictionary
280
     1
281
     1
  3
ACAD_XREC_ROUNDTRIP
360
2BEE
  0
DICTIONARY
  5
2BEF
330
71
100
AcDbDictionary
280
     1
281
     1
  3
ACAD_XREC_ROUNDTRIP
360
2BF0
  0
DICTIONARY
  5
2BF1
330
73
100
AcDbDictionary
280
     1
281
     1
  3
ACAD_XREC_ROUNDTRIP
360
2BF2
  0
DICTIONARY
  5
1CC
102
{ACAD_REACTORS
330
C
102
}
330
C
100
AcDbDictionary
281
     1
  0
DICTIONARY
  5
D
102
{ACAD_REACTORS
330
C
102
}
330
C
100
AcDbDictionary
281
     1
  0
DICTIONARY
  5
1A
102
{ACAD_REACTORS
330
C
102
}
330
C
100
AcDbDictionary
281
     1
  3
Model
350
22
  3
ﾚｲｱｳﾄ1
350
51
  3
ﾚｲｱｳﾄ2
350
56
  0
DICTIONARY
  5
1CB
102
{ACAD_REACTORS
330
C
102
}
330
C
100
AcDbDictionary
281
     1
  3
ByBlock
350
344
  3
ByLayer
350
33C
  3
Global
350
34C
  0
DICTIONARY
  5
37A
102
{ACAD_REACTORS
330
C
102
}
330
C
100
AcDbDictionary
281
     1
  3
Standard
350
37B
  0
DICTIONARY
  5
17
102
{ACAD_REACTORS
330
C
102
}
330
C
100
AcDbDictionary
281
     1
  3
Standard
350
18
  0
DICTIONARY
  5
19
102
{ACAD_REACTORS
330
C
102
}
330
C
100
AcDbDictionary
281
     1
  0
ACDBDICTIONARYWDFLT
  5
E
102
{ACAD_REACTORS
330
C
102
}
330
C
100
AcDbDictionary
281
     1
  3
Normal
350
F
100
AcDbDictionaryWithDefault
340
F
  0
DICTIONARY
  5
368
102
{ACAD_REACTORS
330
C
102
}
330
C
100
AcDbDictionary
281
     1
  3
A0
350
369
  3
A1
350
36A
  3
A2
350
36B
  3
A3
350
36C
  3
A4
350
36D
  3
A5
350
36E
  3
A6
350
36F
  3
A7
350
370
  3
A8
350
371
  3
A9
350
372
  3
B0
350
373
  3
B1
350
374
  3
B2
350
375
  3
B3
350
376
  3
B4
350
377
  3
B5
350
378
  3
B6
350
379
  0
DICTIONARY
  5
1CD
102
{ACAD_REACTORS
330
C
102
}
330
C
100
AcDbDictionary
281
     1
  3
Standard
350
1CE
  0
DICTIONARY
  5
354
102
{ACAD_REACTORS
330
C
102
}
330
C
100
AcDbDictionary
281
     1
  3
2dWireframe
350
35A
  3
3D Hidden
350
35C
  3
3dWireframe
350
35B
  3
Basic
350
359
  3
Brighten
350
360
  3
ColorChange
350
364
  3
Conceptual
350
35D
  3
Dim
350
35F
  3
EdgeColorOff
350
367
  3
Facepattern
350
363
  3
Flat
350
355
  3
FlatWithEdges
350
356
  3
Gouraud
350
357
  3
GouraudWithEdges
350
358
  3
JitterOff
350
365
  3
Linepattern
350
362
  3
OverhangOff
350
366
  3
Realistic
350
35E
  3
Thicken
350
361
  0
XRECORD
  5
2BE3
102
{ACAD_REACTORS
330
C
102
}
330
C
100
AcDbXrecord
280
     1
 90
        1
330
1CE
  0
DICTIONARY
  5
5E
102
{ACAD_REACTORS
330
C
102
}
330
C
100
AcDbDictionary
281
     1
  3
CANNOSCALE
350
3EA
  3
CMLEADERSTYLE
350
3E9
  3
CTABLESTYLE
350
1E0
  3
DIMASSOC
350
5F
  3
HIDETEXT
350
63
  3
INDEXCTL
350
3EC
  3
PROJECTNAME
350
1E1
  3
SORTENTS
350
3EB
  3
XCLIPFRAME
350
2BE1
  0
DICTIONARY
  5
391
102
{ACAD_REACTORS
330
C
102
}
330
C
100
AcDbDictionary
281
     1
  0
XRECORD
  5
2BE4
102
{ACAD_REACTORS
330
C
102
}
330
C
100
AcDbXrecord
280
     1
  1
DWGPROPS COOKIE
  2

  3

  4

  6

  7

  8
cadm
  9

300
=
301
=
302
=
303
=
304
=
305
=
306
=
307
=
308
=
309
=
 40
0.1824513541666667
 41
2453249.553566794
 42
2456722.502207025
  1

 90
        0
  0
XRECORD
  5
39F
102
{ACAD_REACTORS
330
39E
102
}
330
39E
100
AcDbXrecord
280
     1
290
     1
  0
XRECORD
  5
3A1
102
{ACAD_REACTORS
330
3A0
102
}
330
3A0
100
AcDbXrecord
280
     1
290
     1
  0
XRECORD
  5
3A3
102
{ACAD_REACTORS
330
3A2
102
}
330
3A2
100
AcDbXrecord
280
     1
290
     1
  0
SORTENTSTABLE
  5
207
102
{ACAD_REACTORS
330
206
102
}
330
206
100
AcDbSortentsTable
330
1F
331
2B3
  5
2B3
331
A0
  5
A0
331
2B1
  5
2B1
331
2AF
  5
2AF
331
2AD
  5
2AD
331
2B2
  5
2B2
331
9F
  5
9F
331
2B0
  5
2B0
331
9D
  5
9D
331
2AE
  5
2AE
331
2AC
  5
2AC
  0
XRECORD
  5
2BEC
102
{ACAD_REACTORS
330
2BEB
102
}
330
2BEB
100
AcDbXrecord
280
     1
102
SHADEPLOT
 70
     0
  0
XRECORD
  5
2BEE
102
{ACAD_REACTORS
330
2BED
102
}
330
2BED
100
AcDbXrecord
280
     1
102
SHADEPLOT
 70
     0
  0
XRECORD
  5
2BF0
102
{ACAD_REACTORS
330
2BEF
102
}
330
2BEF
100
AcDbXrecord
280
     1
102
SHADEPLOT
 70
     0
  0
XRECORD
  5
2BF2
102
{ACAD_REACTORS
330
2BF1
102
}
330
2BF1
100
AcDbXrecord
280
     1
102
SHADEPLOT
 70
     0
  0
LAYOUT
  5
22
102
{ACAD_XDICTIONARY
360
2BE5
102
}
102
{ACAD_REACTORS
330
1A
102
}
330
1A
100
AcDbPlotSettings
  1

  2
none_device
  4
ANSI_A_(8.50_x_11.00_Inches)
  6

 40
6.349999904632567
 41
19.04999923706053
 42
6.350006103515625
 43
19.04998779296875
 44
215.8999938964841
 45
279.3999938964843
 46
0.0
 47
0.0
 48
0.0
 49
0.0
140
0.0
141
0.0
142
1.0
143
78.436453180766
 70
 11952
 72
     0
 73
     1
 74
     0
  7

 75
     0
147
0.0127491741332998
148
0.0
149
0.0
100
AcDbLayout
  1
Model
 70
     1
 71
     0
 10
0.0
 20
0.0
 11
12.0
 21
9.0
 12
0.0
 22
0.0
 32
0.0
 14
0.0
 24
0.0
 34
0.0
 15
0.0
 25
0.0
 35
0.0
146
0.0
 13
0.0
 23
0.0
 33
0.0
 16
1.0
 26
0.0
 36
0.0
 17
0.0
 27
1.0
 37
0.0
 76
     0
330
1F
331
32B
  0
LAYOUT
  5
51
102
{ACAD_XDICTIONARY
360
2BE7
102
}
102
{ACAD_REACTORS
330
1A
102
}
330
1A
100
AcDbPlotSettings
  1

  2
none_device
  4
Letter_(8.50_x_11.00_Inches)
  6

 40
6.349999904632567
 41
6.349999904632567
 42
6.350006103515625
 43
6.350006103515625
 44
215.8999938964841
 45
279.3999938964843
 46
0.0
 47
0.0
 48
0.0
 49
0.0
140
0.0
141
0.0
142
1.0
143
1.0
 70
   688
 72
     1
 73
     1
 74
     5
  7

 75
    16
147
1.0
148
0.0
149
0.0
100
AcDbLayout
  1
ﾚｲｱｳﾄ1
 70
     1
 71
     1
 10
-6.350006103515625
 20
-6.349999904632567
 11
273.0499877929687
 21
209.5499939918517
 12
0.0
 22
0.0
 32
0.0
 14
26.66076962115562
 24
20.31135699206657
 34
-0.0015258207003583
 15
240.039213369355
 25
182.8886381005154
 35
0.0000000349246037
146
0.0
 13
0.0
 23
0.0
 33
0.0
 16
1.0
 26
0.0
 36
0.0
 17
0.0
 27
1.0
 37
0.0
 76
     0
330
50
331
6B
  0
LAYOUT
  5
56
102
{ACAD_XDICTIONARY
360
2BE9
102
}
102
{ACAD_REACTORS
330
1A
102
}
330
1A
100
AcDbPlotSettings
  1

  2
none_device
  4
Letter_(8.50_x_11.00_Inches)
  6

 40
6.349999904632567
 41
6.349999904632567
 42
6.350006103515625
 43
6.350006103515625
 44
215.8999938964841
 45
279.3999938964843
 46
0.0
 47
0.0
 48
0.0
 49
0.0
140
0.0
141
0.0
142
1.0
143
1.0
 70
   688
 72
     1
 73
     1
 74
     5
  7

 75
    16
147
1.0
148
0.0
149
0.0
100
AcDbLayout
  1
ﾚｲｱｳﾄ2
 70
     1
 71
     2
 10
-6.350006103515625
 20
-6.349999904632567
 11
273.0499877929687
 21
209.5499939918517
 12
0.0
 22
0.0
 32
0.0
 14
26.66076962115562
 24
20.31135699206657
 34
-0.0015258207003583
 15
240.039213369355
 25
182.8886381005154
 35
0.0000000349246037
146
0.0
 13
0.0
 23
0.0
 33
0.0
 16
1.0
 26
0.0
 36
0.0
 17
0.0
 27
1.0
 37
0.0
 76
     0
330
55
331
71
  0
MATERIAL
  5
344
102
{ACAD_XDICTIONARY
360
345
102
}
102
{ACAD_REACTORS
330
1CB
102
}
330
1CB
100
AcDbMaterial
  1
ByBlock
 72
     0
 43
0.0008202099737533
 43
0.0
 43
0.0
 43
0.0
 43
0.0
 43
0.0008202099737533
 43
0.0
 43
0.0
 43
0.0
 43
0.0
 43
1.0
 43
0.0
 43
0.0
 43
0.0
 43
0.0
 43
1.0
 77
     0
 47
0.0008202099737533
 47
0.0
 47
0.0
 47
0.0
 47
0.0
 47
0.0008202099737533
 47
0.0
 47
0.0
 47
0.0
 47
0.0
 47
1.0
 47
0.0
 47
0.0
 47
0.0
 47
0.0
 47
1.0
171
     0
 49
0.0008202099737533
 49
0.0
 49
0.0
 49
0.0
 49
0.0
 49
0.0008202099737533
 49
0.0
 49
0.0
 49
0.0
 49
0.0
 49
1.0
 49
0.0
 49
0.0
 49
0.0
 49
0.0
 49
1.0
175
     0
142
0.0008202099737533
142
0.0
142
0.0
142
0.0
142
0.0
142
0.0008202099737533
142
0.0
142
0.0
142
0.0
142
0.0
142
1.0
142
0.0
142
0.0
142
0.0
142
0.0
142
1.0
179
     0
144
0.0008202099737533
144
0.0
144
0.0
144
0.0
144
0.0
144
0.0008202099737533
144
0.0
144
0.0
144
0.0
144
0.0
144
1.0
144
0.0
144
0.0
144
0.0
144
0.0
144
1.0
147
0.0008202099737533
147
0.0
147
0.0
147
0.0
147
0.0
147
0.0008202099737533
147
0.0
147
0.0
147
0.0
147
0.0
147
1.0
147
0.0
147
0.0
147
0.0
147
0.0
147
1.0
  0
MATERIAL
  5
33C
102
{ACAD_XDICTIONARY
360
33D
102
}
102
{ACAD_REACTORS
330
1CB
102
}
330
1CB
100
AcDbMaterial
  1
ByLayer
 72
     0
 43
0.0008202099737533
 43
0.0
 43
0.0
 43
0.0
 43
0.0
 43
0.0008202099737533
 43
0.0
 43
0.0
 43
0.0
 43
0.0
 43
1.0
 43
0.0
 43
0.0
 43
0.0
 43
0.0
 43
1.0
 77
     0
 47
0.0008202099737533
 47
0.0
 47
0.0
 47
0.0
 47
0.0
 47
0.0008202099737533
 47
0.0
 47
0.0
 47
0.0
 47
0.0
 47
1.0
 47
0.0
 47
0.0
 47
0.0
 47
0.0
 47
1.0
171
     0
 49
0.0008202099737533
 49
0.0
 49
0.0
 49
0.0
 49
0.0
 49
0.0008202099737533
 49
0.0
 49
0.0
 49
0.0
 49
0.0
 49
1.0
 49
0.0
 49
0.0
 49
0.0
 49
0.0
 49
1.0
175
     0
142
0.0008202099737533
142
0.0
142
0.0
142
0.0
142
0.0
142
0.0008202099737533
142
0.0
142
0.0
142
0.0
142
0.0
142
1.0
142
0.0
142
0.0
142
0.0
142
0.0
142
1.0
179
     0
144
0.0008202099737533
144
0.0
144
0.0
144
0.0
144
0.0
144
0.0008202099737533
144
0.0
144
0.0
144
0.0
144
0.0
144
1.0
144
0.0
144
0.0
144
0.0
144
0.0
144
1.0
147
0.0008202099737533
147
0.0
147
0.0
147
0.0
147
0.0
147
0.0008202099737533
147
0.0
147
0.0
147
0.0
147
0.0
147
1.0
147
0.0
147
0.0
147
0.0
147
0.0
147
1.0
  0
MATERIAL
  5
34C
102
{ACAD_XDICTIONARY
360
34D
102
}
102
{ACAD_REACTORS
330
1CB
102
}
330
1CB
100
AcDbMaterial
  1
Global
 72
     0
 43
0.0008202099737533
 43
0.0
 43
0.0
 43
0.0
 43
0.0
 43
0.0008202099737533
 43
0.0
 43
0.0
 43
0.0
 43
0.0
 43
1.0
 43
0.0
 43
0.0
 43
0.0
 43
0.0
 43
1.0
 77
     0
 47
0.0008202099737533
 47
0.0
 47
0.0
 47
0.0
 47
0.0
 47
0.0008202099737533
 47
0.0
 47
0.0
 47
0.0
 47
0.0
 47
1.0
 47
0.0
 47
0.0
 47
0.0
 47
0.0
 47
1.0
171
     0
 49
0.0008202099737533
 49
0.0
 49
0.0
 49
0.0
 49
0.0
 49
0.0008202099737533
 49
0.0
 49
0.0
 49
0.0
 49
0.0
 49
1.0
 49
0.0
 49
0.0
 49
0.0
 49
0.0
 49
1.0
175
     0
142
0.0008202099737533
142
0.0
142
0.0
142
0.0
142
0.0
142
0.0008202099737533
142
0.0
142
0.0
142
0.0
142
0.0
142
1.0
142
0.0
142
0.0
142
0.0
142
0.0
142
1.0
179
     0
144
0.0008202099737533
144
0.0
144
0.0
144
0.0
144
0.0
144
0.0008202099737533
144
0.0
144
0.0
144
0.0
144
0.0
144
1.0
144
0.0
144
0.0
144
0.0
144
0.0
144
1.0
147
0.0008202099737533
147
0.0
147
0.0
147
0.0
147
0.0
147
0.0008202099737533
147
0.0
147
0.0
147
0.0
147
0.0
147
1.0
147
0.0
147
0.0
147
0.0
147
0.0
147
1.0
  0
MLEADERSTYLE
  5
37B
102
{ACAD_REACTORS
330
37A
102
}
330
37A
100
AcDbMLeaderStyle
170
     2
171
     1
172
     0
 90
        2
 40
0.0
 41
0.0
173
     1
 91
-1056964608
340
14
 92
       -2
290
     1
 42
2.0
291
     1
 43
0.36
  3
Standard
 44
4.0
300

342
11
174
     1
178
     6
175
     1
176
     0
 93
-1056964608
 45
4.0
292
     0
297
     0
 46
4.0
 94
-1056964608
 47
1.0
 49
1.0
140
1.0
293
     1
141
0.0
294
     1
177
     0
142
1.0
295
     0
296
     0
143
0.125
1001
ACAD_MLEADERVER
1070
     2
  0
MLINESTYLE
  5
18
102
{ACAD_REACTORS
330
17
102
}
330
17
100
AcDbMlineStyle
  2
STANDARD
 70
     0
  3

 62
   256
 51
90.0
 52
90.0
 71
     2
 49
0.5
 62
   256
  6
BYLAYER
 49
-0.5
 62
   256
  6
BYLAYER
  0
ACDBPLACEHOLDER
  5
F
102
{ACAD_REACTORS
330
E
102
}
330
E
  0
SCALE
  5
369
102
{ACAD_REACTORS
330
368
102
}
330
368
100
AcDbScale
 70
     0
300
1:1
140
1.0
141
1.0
290
     1
  0
SCALE
  5
36A
102
{ACAD_REACTORS
330
368
102
}
330
368
100
AcDbScale
 70
     0
300
1:2
140
1.0
141
2.0
290
     0
  0
SCALE
  5
36B
102
{ACAD_REACTORS
330
368
102
}
330
368
100
AcDbScale
 70
     0
300
1:4
140
1.0
141
4.0
290
     0
  0
SCALE
  5
36C
102
{ACAD_REACTORS
330
368
102
}
330
368
100
AcDbScale
 70
     0
300
1:5
140
1.0
141
5.0
290
     0
  0
SCALE
  5
36D
102
{ACAD_REACTORS
330
368
102
}
330
368
100
AcDbScale
 70
     0
300
1:8
140
1.0
141
8.0
290
     0
  0
SCALE
  5
36E
102
{ACAD_REACTORS
330
368
102
}
330
368
100
AcDbScale
 70
     0
300
1:10
140
1.0
141
10.0
290
     0
  0
SCALE
  5
36F
102
{ACAD_REACTORS
330
368
102
}
330
368
100
AcDbScale
 70
     0
300
1:16
140
1.0
141
16.0
290
     0
  0
SCALE
  5
370
102
{ACAD_REACTORS
330
368
102
}
330
368
100
AcDbScale
 70
     0
300
1:20
140
1.0
141
20.0
290
     0
  0
SCALE
  5
371
102
{ACAD_REACTORS
330
368
102
}
330
368
100
AcDbScale
 70
     0
300
1:30
140
1.0
141
30.0
290
     0
  0
SCALE
  5
372
102
{ACAD_REACTORS
330
368
102
}
330
368
100
AcDbScale
 70
     0
300
1:40
140
1.0
141
40.0
290
     0
  0
SCALE
  5
373
102
{ACAD_REACTORS
330
368
102
}
330
368
100
AcDbScale
 70
     0
300
1:50
140
1.0
141
50.0
290
     0
  0
SCALE
  5
374
102
{ACAD_REACTORS
330
368
102
}
330
368
100
AcDbScale
 70
     0
300
1:100
140
1.0
141
100.0
290
     0
  0
SCALE
  5
375
102
{ACAD_REACTORS
330
368
102
}
330
368
100
AcDbScale
 70
     0
300
2:1
140
2.0
141
1.0
290
     0
  0
SCALE
  5
376
102
{ACAD_REACTORS
330
368
102
}
330
368
100
AcDbScale
 70
     0
300
4:1
140
4.0
141
1.0
290
     0
  0
SCALE
  5
377
102
{ACAD_REACTORS
330
368
102
}
330
368
100
AcDbScale
 70
     0
300
8:1
140
8.0
141
1.0
290
     0
  0
SCALE
  5
378
102
{ACAD_REACTORS
330
368
102
}
330
368
100
AcDbScale
 70
     0
300
10:1
140
10.0
141
1.0
290
     0
  0
SCALE
  5
379
102
{ACAD_REACTORS
330
368
102
}
330
368
100
AcDbScale
 70
     0
300
100:1
140
100.0
141
1.0
290
     0
  0
TABLESTYLE
  5
1CE
102
{ACAD_XDICTIONARY
360
3AA
102
}
102
{ACAD_REACTORS
330
1CD
102
}
330
1CD
100
AcDbTableStyle
  3
Standard
 70
     0
 71
     0
 40
1.5
 41
1.5
280
     0
281
     0
  7
Standard
140
4.5
170
     2
 62
     0
 63
     7
283
     0
274
    -2
284
     1
 64
     0
275
    -2
285
     1
 65
     0
276
    -2
286
     1
 66
     0
277
    -2
287
     1
 67
     0
278
    -2
288
     1
 68
     0
279
    -2
289
     1
 69
     0
  7
Standard
140
6.0
170
     5
 62
     0
 63
     7
283
     0
274
    -2
284
     1
 64
     0
275
    -2
285
     1
 65
     0
276
    -2
286
     1
 66
     0
277
    -2
287
     1
 67
     0
278
    -2
288
     1
 68
     0
279
    -2
289
     1
 69
     0
  7
Standard
140
4.5
170
     5
 62
     0
 63
     7
283
     0
274
    -2
284
     1
 64
     0
275
    -2
285
     1
 65
     0
276
    -2
286
     1
 66
     0
277
    -2
287
     1
 67
     0
278
    -2
288
     1
 68
     0
279
    -2
289
     1
 69
     0
  0
VISUALSTYLE
  5
35A
102
{ACAD_XDICTIONARY
360
2BFE
102
}
102
{ACAD_REACTORS
330
354
102
}
330
354
100
AcDbVisualStyle
  2

 70
     4
 71
     0
 72
     2
 73
     0
 90
        0
 40
-0.6
 41
-30.0
 62
     5
 63
     7
 74
     1
 91
        4
 64
     7
 65
   257
 75
     1
175
     1
 42
1.0
 92
        0
 66
   257
 43
1.0
 76
     1
 77
     6
 78
     2
 67
     7
 79
     5
170
     0
171
     0
290
     0
174
     0
 93
        1
 44
0.0
173
     0
291
     0
 45
0.0
1001
ACAD
1000
AcDbSavedByObjectVersion
1070
     0
  0
VISUALSTYLE
  5
35C
102
{ACAD_XDICTIONARY
360
2C02
102
}
102
{ACAD_REACTORS
330
354
102
}
330
354
100
AcDbVisualStyle
  2

 70
     6
 71
     1
 72
     2
 73
     2
 90
        0
 40
-0.6
 41
-30.0
 62
     5
 63
     7
 74
     2
 91
        2
 64
     7
 65
   257
 75
     2
175
     1
 42
179.0
 92
        0
 66
   257
 43
1.0
 76
     1
 77
     6
 78
     2
 67
     7
 79
     3
170
     0
171
     0
290
     0
174
     0
 93
        1
 44
0.0
173
     0
291
     0
 45
0.0
1001
ACAD
1000
AcDbSavedByObjectVersion
1070
     0
  0
VISUALSTYLE
  5
35B
102
{ACAD_XDICTIONARY
360
2C00
102
}
102
{ACAD_REACTORS
330
354
102
}
330
354
100
AcDbVisualStyle
  2

 70
     5
 71
     0
 72
     2
 73
     0
 90
        0
 40
-0.6
 41
-30.0
 62
     5
 63
     7
 74
     1
 91
        4
 64
     7
 65
   257
 75
     1
175
     1
 42
1.0
 92
        0
 66
   257
 43
1.0
 76
     1
 77
     6
 78
     2
 67
     7
 79
     5
170
     0
171
     0
290
     0
174
     0
 93
        1
 44
0.0
173
     0
291
     0
 45
0.0
1001
ACAD
1000
AcDbSavedByObjectVersion
1070
     0
  0
VISUALSTYLE
  5
359
102
{ACAD_XDICTIONARY
360
2BFC
102
}
102
{ACAD_REACTORS
330
354
102
}
330
354
100
AcDbVisualStyle
  2

 70
     7
 71
     1
 72
     0
 73
     1
 90
        0
 40
-0.6
 41
-30.0
 62
     5
 63
     7
 74
     0
 91
        4
 64
     7
 65
   257
 75
     1
175
     1
 42
1.0
 92
        8
 66
     7
 43
1.0
 76
     1
 77
     6
 78
     2
 67
     7
 79
     5
170
     0
171
     0
290
     0
174
     0
 93
        1
 44
0.0
173
     0
291
     1
 45
0.0
1001
ACAD
1000
AcDbSavedByObjectVersion
1070
     0
  0
VISUALSTYLE
  5
360
102
{ACAD_XDICTIONARY
360
2C0A
102
}
102
{ACAD_REACTORS
330
354
102
}
330
354
100
AcDbVisualStyle
  2

 70
    12
 71
     2
 72
     2
 73
     0
 90
        0
 40
-0.6
 41
-30.0
 62
     5
 63
     7
 74
     1
 91
        4
 64
     7
 65
   257
 75
     1
175
     1
 42
1.0
 92
        8
 66
     7
 43
1.0
 76
     1
 77
     6
 78
     2
 67
     7
 79
     5
170
     0
171
     0
290
     0
174
     0
 93
        1
 44
50.0
173
     0
291
     1
 45
0.0
1001
ACAD
1000
AcDbSavedByObjectVersion
1070
     0
  0
VISUALSTYLE
  5
364
102
{ACAD_XDICTIONARY
360
2C12
102
}
102
{ACAD_REACTORS
330
354
102
}
330
354
100
AcDbVisualStyle
  2

 70
    16
 71
     2
 72
     2
 73
     3
 90
        0
 40
-0.6
 41
-30.0
 62
     5
 63
     8
 74
     1
 91
        4
 64
     7
 65
   257
 75
     1
175
     1
 42
1.0
 92
        8
 66
     8
 43
1.0
 76
     1
 77
     6
 78
     2
 67
     7
 79
     5
170
     0
171
     0
290
     0
174
     0
 93
        1
 44
0.0
173
     0
291
     1
 45
0.0
1001
ACAD
1000
AcDbSavedByObjectVersion
1070
     0
  0
VISUALSTYLE
  5
35D
102
{ACAD_XDICTIONARY
360
2C04
102
}
102
{ACAD_REACTORS
330
354
102
}
330
354
100
AcDbVisualStyle
  2

 70
     9
 71
     3
 72
     2
 73
     0
 90
        0
 40
-0.6
 41
-30.0
 62
     5
 63
     7
 74
     2
 91
        2
 64
     7
 65
   257
 75
     1
175
     1
 42
179.0
 92
        8
 66
     7
 43
1.0
 76
     1
 77
     6
 78
     2
 67
     7
 79
     3
170
     0
171
     0
290
     0
174
     0
 93
        1
 44
0.0
173
     0
291
     0
 45
0.0
1001
ACAD
1000
AcDbSavedByObjectVersion
1070
     0
  0
VISUALSTYLE
  5
35F
102
{ACAD_XDICTIONARY
360
2C08
102
}
102
{ACAD_REACTORS
330
354
102
}
330
354
100
AcDbVisualStyle
  2

 70
    11
 71
     2
 72
     2
 73
     0
 90
        0
 40
-0.6
 41
-30.0
 62
     5
 63
     7
 74
     1
 91
        4
 64
     7
 65
   257
 75
     1
175
     1
 42
1.0
 92
        8
 66
     7
 43
1.0
 76
     1
 77
     6
 78
     2
 67
     7
 79
     5
170
     0
171
     0
290
     0
174
     0
 93
        1
 44
-50.0
173
     0
291
     1
 45
0.0
1001
ACAD
1000
AcDbSavedByObjectVersion
1070
     0
  0
VISUALSTYLE
  5
367
102
{ACAD_XDICTIONARY
360
2C18
102
}
102
{ACAD_REACTORS
330
354
102
}
330
354
100
AcDbVisualStyle
  2

 70
    22
 71
     2
 72
     2
 73
     0
 90
        0
 40
-0.6
 41
-30.0
 62
     5
 63
     7
 74
     1
 91
        4
 64
     7
 65
   257
 75
     1
175
     1
 42
1.0
 92
        8
 66
     7
 43
1.0
 76
     1
 77
     6
 78
     2
 67
     7
 79
     5
170
     0
171
     0
290
     0
174
     0
 93
        1
 44
0.0
173
     0
291
     1
 45
0.0
1001
ACAD
1000
AcDbSavedByObjectVersion
1070
     0
  0
VISUALSTYLE
  5
363
102
{ACAD_XDICTIONARY
360
2C10
102
}
102
{ACAD_REACTORS
330
354
102
}
330
354
100
AcDbVisualStyle
  2

 70
    15
 71
     2
 72
     2
 73
     0
 90
        0
 40
-0.6
 41
-30.0
 62
     5
 63
     7
 74
     1
 91
        4
 64
     7
 65
   257
 75
     1
175
     1
 42
1.0
 92
        8
 66
     7
 43
1.0
 76
     1
 77
     6
 78
     2
 67
     7
 79
     5
170
     0
171
     0
290
     0
174
     0
 93
        1
 44
0.0
173
     0
291
     1
 45
0.0
1001
ACAD
1000
AcDbSavedByObjectVersion
1070
     0
  0
VISUALSTYLE
  5
355
102
{ACAD_XDICTIONARY
360
2BF4
102
}
102
{ACAD_REACTORS
330
354
102
}
330
354
100
AcDbVisualStyle
  2

 70
     0
 71
     2
 72
     1
 73
     1
 90
        2
 40
-0.6
 41
30.0
 62
     5
 63
     7
 74
     0
 91
        4
 64
     7
 65
   257
 75
     1
175
     1
 42
1.0
 92
        8
 66
     7
 43
1.0
 76
     1
 77
     6
 78
     2
 67
     7
 79
     5
170
     0
171
     0
290
     0
174
     0
 93
       13
 44
0.0
173
     0
291
     1
 45
0.0
1001
ACAD
1000
AcDbSavedByObjectVersion
1070
     0
  0
VISUALSTYLE
  5
356
102
{ACAD_XDICTIONARY
360
2BF6
102
}
102
{ACAD_REACTORS
330
354
102
}
330
354
100
AcDbVisualStyle
  2

 70
     1
 71
     2
 72
     1
 73
     1
 90
        2
 40
-0.6
 41
30.0
 62
     5
 63
     7
 74
     1
 91
        4
 64
     7
 65
   257
 75
     1
175
     1
 42
1.0
 92
        0
 66
   257
 43
1.0
 76
     1
 77
     6
 78
     2
 67
     7
 79
     5
170
     0
171
     0
290
     0
174
     0
 93
       13
 44
0.0
173
     0
291
     1
 45
0.0
1001
ACAD
1000
AcDbSavedByObjectVersion
1070
     0
  0
VISUALSTYLE
  5
357
102
{ACAD_XDICTIONARY
360
2BF8
102
}
102
{ACAD_REACTORS
330
354
102
}
330
354
100
AcDbVisualStyle
  2

 70
     2
 71
     2
 72
     2
 73
     1
 90
        2
 40
-0.6
 41
30.0
 62
     5
 63
     7
 74
     0
 91
        4
 64
     7
 65
   257
 75
     1
175
     1
 42
1.0
 92
        0
 66
     7
 43
1.0
 76
     1
 77
     6
 78
     2
 67
     7
 79
     5
170
     0
171
     0
290
     0
174
     0
 93
       13
 44
0.0
173
     0
291
     1
 45
0.0
1001
ACAD
1000
AcDbSavedByObjectVersion
1070
     0
  0
VISUALSTYLE
  5
358
102
{ACAD_XDICTIONARY
360
2BFA
102
}
102
{ACAD_REACTORS
330
354
102
}
330
354
100
AcDbVisualStyle
  2

 70
     3
 71
     2
 72
     2
 73
     1
 90
        2
 40
-0.6
 41
30.0
 62
     5
 63
     7
 74
     1
 91
        4
 64
     7
 65
   257
 75
     1
175
     1
 42
1.0
 92
        0
 66
   257
 43
1.0
 76
     1
 77
     6
 78
     2
 67
     7
 79
     5
170
     0
171
     0
290
     0
174
     0
 93
       13
 44
0.0
173
     0
291
     1
 45
0.0
1001
ACAD
1000
AcDbSavedByObjectVersion
1070
     0
  0
VISUALSTYLE
  5
365
102
{ACAD_XDICTIONARY
360
2C14
102
}
102
{ACAD_REACTORS
330
354
102
}
330
354
100
AcDbVisualStyle
  2

 70
    20
 71
     2
 72
     2
 73
     0
 90
        0
 40
-0.6
 41
-30.0
 62
     5
 63
     7
 74
     1
 91
        4
 64
     7
 65
   257
 75
     1
175
     1
 42
1.0
 92
       10
 66
     7
 43
1.0
 76
     1
 77
     6
 78
     2
 67
     7
 79
     5
170
     0
171
     0
290
     0
174
     0
 93
        1
 44
0.0
173
     0
291
     1
 45
0.0
1001
ACAD
1000
AcDbSavedByObjectVersion
1070
     0
  0
VISUALSTYLE
  5
362
102
{ACAD_XDICTIONARY
360
2C0E
102
}
102
{ACAD_REACTORS
330
354
102
}
330
354
100
AcDbVisualStyle
  2

 70
    14
 71
     2
 72
     2
 73
     0
 90
        0
 40
-0.6
 41
-30.0
 62
     5
 63
     7
 74
     1
 91
        4
 64
     7
 65
   257
 75
     7
175
     7
 42
1.0
 92
        8
 66
     7
 43
1.0
 76
     1
 77
     6
 78
     2
 67
     7
 79
     5
170
     0
171
     0
290
     0
174
     0
 93
        1
 44
0.0
173
     0
291
     1
 45
0.0
1001
ACAD
1000
AcDbSavedByObjectVersion
1070
     0
  0
VISUALSTYLE
  5
366
102
{ACAD_XDICTIONARY
360
2C16
102
}
102
{ACAD_REACTORS
330
354
102
}
330
354
100
AcDbVisualStyle
  2

 70
    21
 71
     2
 72
     2
 73
     0
 90
        0
 40
-0.6
 41
-30.0
 62
     5
 63
     7
 74
     1
 91
        4
 64
     7
 65
   257
 75
     1
175
     1
 42
1.0
 92
        9
 66
     7
 43
1.0
 76
     1
 77
     6
 78
     2
 67
     7
 79
     5
170
     0
171
     0
290
     0
174
     0
 93
        1
 44
0.0
173
     0
291
     1
 45
0.0
1001
ACAD
1000
AcDbSavedByObjectVersion
1070
     0
  0
VISUALSTYLE
  5
35E
102
{ACAD_XDICTIONARY
360
2C06
102
}
102
{ACAD_REACTORS
330
354
102
}
330
354
100
AcDbVisualStyle
  2

 70
     8
 71
     2
 72
     2
 73
     0
 90
        0
 40
-0.6
 41
-30.0
 62
     5
 63
     7
 74
     1
 91
        0
 64
     7
 65
   257
 75
     1
175
     1
 42
1.0
 92
        8
 66
     8
 43
1.0
 76
     1
 77
     6
 78
     2
 67
     7
 79
     5
170
     0
171
     0
290
     0
174
     0
 93
       13
 44
0.0
173
     0
291
     0
 45
0.0
1001
ACAD
1000
AcDbSavedByObjectVersion
1070
     0
  0
VISUALSTYLE
  5
361
102
{ACAD_XDICTIONARY
360
2C0C
102
}
102
{ACAD_REACTORS
330
354
102
}
330
354
100
AcDbVisualStyle
  2

 70
    13
 71
     2
 72
     2
 73
     0
 90
        0
 40
-0.6
 41
-30.0
 62
     5
 63
     7
 74
     1
 91
        4
 64
     7
 65
   257
 75
     1
175
     1
 42
1.0
 92
       12
 66
     7
 43
1.0
 76
     1
 77
     6
 78
     2
 67
     7
 79
     5
170
     0
171
     0
290
     0
174
     0
 93
        1
 44
0.0
173
     0
291
     1
 45
0.0
1001
ACAD
1000
AcDbSavedByObjectVersion
1070
     0
  0
DICTIONARYVAR
  5
3EA
102
{ACAD_REACTORS
330
5E
102
}
330
5E
100
DictionaryVariables
280
     0
  1
1:1
  0
DICTIONARYVAR
  5
3E9
102
{ACAD_REACTORS
330
5E
102
}
330
5E
100
DictionaryVariables
280
     0
  1
STANDARD
  0
DICTIONARYVAR
  5
1E0
102
{ACAD_REACTORS
330
5E
102
}
330
5E
100
DictionaryVariables
280
     0
  1
STANDARD
  0
DICTIONARYVAR
  5
5F
102
{ACAD_REACTORS
330
5E
102
}
330
5E
100
DictionaryVariables
280
     0
  1
2
  0
DICTIONARYVAR
  5
63
102
{ACAD_REACTORS
330
5E
102
}
330
5E
100
DictionaryVariables
280
     0
  1
1
  0
DICTIONARYVAR
  5
3EC
102
{ACAD_REACTORS
330
5E
102
}
330
5E
100
DictionaryVariables
280
     0
  1
0
  0
DICTIONARYVAR
  5
1E1
102
{ACAD_REACTORS
330
5E
102
}
330
5E
100
DictionaryVariables
280
     0
  1

  0
DICTIONARYVAR
  5
3EB
102
{ACAD_REACTORS
330
5E
102
}
330
5E
100
DictionaryVariables
280
     0
  1
127
  0
DICTIONARYVAR
  5
2BE1
102
{ACAD_REACTORS
330
5E
102
}
330
5E
100
DictionaryVariables
280
     0
  1
2
  0
DICTIONARY
  5
2BE5
330
22
100
AcDbDictionary
280
     1
281
     1
  3
ACAD_XREC_ROUNDTRIP
360
2BE6
  0
DICTIONARY
  5
2BE7
330
51
100
AcDbDictionary
280
     1
281
     1
  3
ACAD_XREC_ROUNDTRIP
360
2BE8
  0
DICTIONARY
  5
2BE9
330
56
100
AcDbDictionary
280
     1
281
     1
  3
ACAD_XREC_ROUNDTRIP
360
2BEA
  0
DICTIONARY
  5
345
330
344
100
AcDbDictionary
280
     1
281
     1
  3
ACAD_XREC_ROUNDTRIP
360
2AE6
  3
BUMPTILE
360
347
  3
DIFFUSETILE
360
346
  3
OPACITYTILE
360
34A
  3
REFLECTIONTILE
360
349
  3
REFRACTIONTILE
360
34B
  3
SPECULARTILE
360
348
  0
DICTIONARY
  5
33D
330
33C
100
AcDbDictionary
280
     1
281
     1
  3
ACAD_XREC_ROUNDTRIP
360
2AE5
  3
BUMPTILE
360
33F
  3
DIFFUSETILE
360
33E
  3
OPACITYTILE
360
342
  3
REFLECTIONTILE
360
341
  3
REFRACTIONTILE
360
343
  3
SPECULARTILE
360
340
  0
DICTIONARY
  5
34D
330
34C
100
AcDbDictionary
280
     1
281
     1
  3
ACAD_XREC_ROUNDTRIP
360
2AE7
  3
BUMPTILE
360
34F
  3
DIFFUSETILE
360
34E
  3
OPACITYTILE
360
352
  3
REFLECTIONTILE
360
351
  3
REFRACTIONTILE
360
353
  3
SPECULARTILE
360
350
  0
DICTIONARY
  5
3AA
330
1CE
100
AcDbDictionary
280
     1
281
     1
  3
ACAD_ROUNDTRIP_2008_TABLESTYLE_CELLSTYLEMAP
360
2BE2
  3
ACAD_XREC_ROUNDTRIP
360
2BF3
  0
DICTIONARY
  5
2BFE
330
35A
100
AcDbDictionary
280
     1
281
     1
  3
ACAD_XREC_ROUNDTRIP
360
2BFF
  0
DICTIONARY
  5
2C02
330
35C
100
AcDbDictionary
280
     1
281
     1
  3
ACAD_XREC_ROUNDTRIP
360
2C03
  0
DICTIONARY
  5
2C00
330
35B
100
AcDbDictionary
280
     1
281
     1
  3
ACAD_XREC_ROUNDTRIP
360
2C01
  0
DICTIONARY
  5
2BFC
330
359
100
AcDbDictionary
280
     1
281
     1
  3
ACAD_XREC_ROUNDTRIP
360
2BFD
  0
DICTIONARY
  5
2C0A
330
360
100
AcDbDictionary
280
     1
281
     1
  3
ACAD_XREC_ROUNDTRIP
360
2C0B
  0
DICTIONARY
  5
2C12
330
364
100
AcDbDictionary
280
     1
281
     1
  3
ACAD_XREC_ROUNDTRIP
360
2C13
  0
DICTIONARY
  5
2C04
330
35D
100
AcDbDictionary
280
     1
281
     1
  3
ACAD_XREC_ROUNDTRIP
360
2C05
  0
DICTIONARY
  5
2C08
330
35F
100
AcDbDictionary
280
     1
281
     1
  3
ACAD_XREC_ROUNDTRIP
360
2C09
  0
DICTIONARY
  5
2C18
330
367
100
AcDbDictionary
280
     1
281
     1
  3
ACAD_XREC_ROUNDTRIP
360
2C19
  0
DICTIONARY
  5
2C10
330
363
100
AcDbDictionary
280
     1
281
     1
  3
ACAD_XREC_ROUNDTRIP
360
2C11
  0
DICTIONARY
  5
2BF4
330
355
100
AcDbDictionary
280
     1
281
     1
  3
ACAD_XREC_ROUNDTRIP
360
2BF5
  0
DICTIONARY
  5
2BF6
330
356
100
AcDbDictionary
280
     1
281
     1
  3
ACAD_XREC_ROUNDTRIP
360
2BF7
  0
DICTIONARY
  5
2BF8
330
357
100
AcDbDictionary
280
     1
281
     1
  3
ACAD_XREC_ROUNDTRIP
360
2BF9
  0
DICTIONARY
  5
2BFA
330
358
100
AcDbDictionary
280
     1
281
     1
  3
ACAD_XREC_ROUNDTRIP
360
2BFB
  0
DICTIONARY
  5
2C14
330
365
100
AcDbDictionary
280
     1
281
     1
  3
ACAD_XREC_ROUNDTRIP
360
2C15
  0
DICTIONARY
  5
2C0E
330
362
100
AcDbDictionary
280
     1
281
     1
  3
ACAD_XREC_ROUNDTRIP
360
2C0F
  0
DICTIONARY
  5
2C16
330
366
100
AcDbDictionary
280
     1
281
     1
  3
ACAD_XREC_ROUNDTRIP
360
2C17
  0
DICTIONARY
  5
2C06
330
35E
100
AcDbDictionary
280
     1
281
     1
  3
ACAD_XREC_ROUNDTRIP
360
2C07
  0
DICTIONARY
  5
2C0C
330
361
100
AcDbDictionary
280
     1
281
     1
  3
ACAD_XREC_ROUNDTRIP
360
2C0D
  0
XRECORD
  5
2BE6
102
{ACAD_REACTORS
330
2BE5
102
}
330
2BE5
100
AcDbXrecord
280
     1
102
SHADEPLOT
 70
     0
102
SHADEPLOTRESLEVEL
 70
     2
102
SHADEPLOTCUSTOMDPI
 70
   300
  0
XRECORD
  5
2BE8
102
{ACAD_REACTORS
330
2BE7
102
}
330
2BE7
100
AcDbXrecord
280
     1
102
SHADEPLOT
 70
     0
102
SHADEPLOTRESLEVEL
 70
     2
102
SHADEPLOTCUSTOMDPI
 70
   300
  0
XRECORD
  5
2BEA
102
{ACAD_REACTORS
330
2BE9
102
}
330
2BE9
100
AcDbXrecord
280
     1
102
SHADEPLOT
 70
     0
102
SHADEPLOTRESLEVEL
 70
     2
102
SHADEPLOTCUSTOMDPI
 70
   300
  0
XRECORD
  5
2AE6
102
{ACAD_REACTORS
330
345
102
}
330
345
100
AcDbXrecord
280
     1
102
MATERIAL
148
0.0
149
0.0
149
0.0
 93
        0
 94
      127
282
     0
 72
     0
 77
     0
171
     0
175
     0
179
     0
273
     0
  0
XRECORD
  5
347
102
{ACAD_REACTORS
330
345
102
}
330
345
100
AcDbXrecord
280
     1
270
     1
271
     1
  0
XRECORD
  5
346
102
{ACAD_REACTORS
330
345
102
}
330
345
100
AcDbXrecord
280
     1
270
     1
271
     1
  0
XRECORD
  5
34A
102
{ACAD_REACTORS
330
345
102
}
330
345
100
AcDbXrecord
280
     1
270
     1
271
     1
  0
XRECORD
  5
349
102
{ACAD_REACTORS
330
345
102
}
330
345
100
AcDbXrecord
280
     1
270
     1
271
     1
  0
XRECORD
  5
34B
102
{ACAD_REACTORS
330
345
102
}
330
345
100
AcDbXrecord
280
     1
270
     1
271
     1
  0
XRECORD
  5
348
102
{ACAD_REACTORS
330
345
102
}
330
345
100
AcDbXrecord
280
     1
270
     1
271
     1
  0
XRECORD
  5
2AE5
102
{ACAD_REACTORS
330
33D
102
}
330
33D
100
AcDbXrecord
280
     1
102
MATERIAL
148
0.0
149
0.0
149
0.0
 93
        0
 94
      127
282
     0
 72
     0
 77
     0
171
     0
175
     0
179
     0
273
     0
  0
XRECORD
  5
33F
102
{ACAD_REACTORS
330
33D
102
}
330
33D
100
AcDbXrecord
280
     1
270
     1
271
     1
  0
XRECORD
  5
33E
102
{ACAD_REACTORS
330
33D
102
}
330
33D
100
AcDbXrecord
280
     1
270
     1
271
     1
  0
XRECORD
  5
342
102
{ACAD_REACTORS
330
33D
102
}
330
33D
100
AcDbXrecord
280
     1
270
     1
271
     1
  0
XRECORD
  5
341
102
{ACAD_REACTORS
330
33D
102
}
330
33D
100
AcDbXrecord
280
     1
270
     1
271
     1
  0
XRECORD
  5
343
102
{ACAD_REACTORS
330
33D
102
}
330
33D
100
AcDbXrecord
280
     1
270
     1
271
     1
  0
XRECORD
  5
340
102
{ACAD_REACTORS
330
33D
102
}
330
33D
100
AcDbXrecord
280
     1
270
     1
271
     1
  0
XRECORD
  5
2AE7
102
{ACAD_REACTORS
330
34D
102
}
330
34D
100
AcDbXrecord
280
     1
102
MATERIAL
148
0.0
149
0.0
149
0.0
 93
        0
 94
      127
282
     0
 72
     0
 77
     0
171
     0
175
     0
179
     0
273
     0
  0
XRECORD
  5
34F
102
{ACAD_REACTORS
330
34D
102
}
330
34D
100
AcDbXrecord
280
     1
270
     1
271
     1
  0
XRECORD
  5
34E
102
{ACAD_REACTORS
330
34D
102
}
330
34D
100
AcDbXrecord
280
     1
270
     1
271
     1
  0
XRECORD
  5
352
102
{ACAD_REACTORS
330
34D
102
}
330
34D
100
AcDbXrecord
280
     1
270
     1
271
     1
  0
XRECORD
  5
351
102
{ACAD_REACTORS
330
34D
102
}
330
34D
100
AcDbXrecord
280
     1
270
     1
271
     1
  0
XRECORD
  5
353
102
{ACAD_REACTORS
330
34D
102
}
330
34D
100
AcDbXrecord
280
     1
270
     1
271
     1
  0
XRECORD
  5
350
102
{ACAD_REACTORS
330
34D
102
}
330
34D
100
AcDbXrecord
280
     1
270
     1
271
     1
  0
CELLSTYLEMAP
  5
2BE2
102
{ACAD_REACTORS
330
3AA
102
}
330
3AA
100
AcDbCellStyleMap
 90
        3
300
CELLSTYLE
  1
TABLEFORMAT_BEGIN
 90
        5
170
     1
 91
        0
 92
    32768
 62
   257
 93
        1
300
CONTENTFORMAT
  1
CONTENTFORMAT_BEGIN
 90
        0
 91
        0
 92
        4
 93
        0
300

 40
0.0
140
1.0
 94
        5
 62
     0
340
11
144
6.0
309
CONTENTFORMAT_END
171
     1
301
MARGIN
  1
CELLMARGIN_BEGIN
 40
1.5
 40
1.5
 40
1.5
 40
1.5
 40
0.18
 40
0.18
309
CELLMARGIN_END
 94
        6
 95
        1
302
GRIDFORMAT
  1
GRIDFORMAT_BEGIN
 90
        0
 91
        1
 62
     0
 92
       -2
340
0
 93
        0
 40
0.045
309
GRIDFORMAT_END
 95
        2
302
GRIDFORMAT
  1
GRIDFORMAT_BEGIN
 90
        0
 91
        1
 62
     0
 92
       -2
340
0
 93
        0
 40
0.045
309
GRIDFORMAT_END
 95
        4
302
GRIDFORMAT
  1
GRIDFORMAT_BEGIN
 90
        0
 91
        1
 62
     0
 92
       -2
340
0
 93
        0
 40
0.045
309
GRIDFORMAT_END
 95
        8
302
GRIDFORMAT
  1
GRIDFORMAT_BEGIN
 90
        0
 91
        1
 62
     0
 92
       -2
340
0
 93
        0
 40
0.045
309
GRIDFORMAT_END
 95
       16
302
GRIDFORMAT
  1
GRIDFORMAT_BEGIN
 90
        0
 91
        1
 62
     0
 92
       -2
340
0
 93
        0
 40
0.045
309
GRIDFORMAT_END
 95
       32
302
GRIDFORMAT
  1
GRIDFORMAT_BEGIN
 90
        0
 91
        1
 62
     0
 92
       -2
340
0
 93
        0
 40
0.045
309
GRIDFORMAT_END
309
TABLEFORMAT_END
  1
CELLSTYLE_BEGIN
 90
        1
 91
        1
300
_TITLE
309
CELLSTYLE_END
300
CELLSTYLE
  1
TABLEFORMAT_BEGIN
 90
        5
170
     1
 91
        0
 92
        0
 62
   257
 93
        1
300
CONTENTFORMAT
  1
CONTENTFORMAT_BEGIN
 90
        0
 91
        0
 92
        4
 93
        0
300

 40
0.0
140
1.0
 94
        5
 62
     0
340
11
144
4.5
309
CONTENTFORMAT_END
171
     1
301
MARGIN
  1
CELLMARGIN_BEGIN
 40
1.5
 40
1.5
 40
1.5
 40
1.5
 40
0.18
 40
0.18
309
CELLMARGIN_END
 94
        6
 95
        1
302
GRIDFORMAT
  1
GRIDFORMAT_BEGIN
 90
        0
 91
        1
 62
     0
 92
       -2
340
0
 93
        0
 40
0.045
309
GRIDFORMAT_END
 95
        2
302
GRIDFORMAT
  1
GRIDFORMAT_BEGIN
 90
        0
 91
        1
 62
     0
 92
       -2
340
0
 93
        0
 40
0.045
309
GRIDFORMAT_END
 95
        4
302
GRIDFORMAT
  1
GRIDFORMAT_BEGIN
 90
        0
 91
        1
 62
     0
 92
       -2
340
0
 93
        0
 40
0.045
309
GRIDFORMAT_END
 95
        8
302
GRIDFORMAT
  1
GRIDFORMAT_BEGIN
 90
        0
 91
        1
 62
     0
 92
       -2
340
0
 93
        0
 40
0.045
309
GRIDFORMAT_END
 95
       16
302
GRIDFORMAT
  1
GRIDFORMAT_BEGIN
 90
        0
 91
        1
 62
     0
 92
       -2
340
0
 93
        0
 40
0.045
309
GRIDFORMAT_END
 95
       32
302
GRIDFORMAT
  1
GRIDFORMAT_BEGIN
 90
        0
 91
        1
 62
     0
 92
       -2
340
0
 93
        0
 40
0.045
309
GRIDFORMAT_END
309
TABLEFORMAT_END
  1
CELLSTYLE_BEGIN
 90
        2
 91
        1
300
_HEADER
309
CELLSTYLE_END
300
CELLSTYLE
  1
TABLEFORMAT_BEGIN
 90
        5
170
     1
 91
        0
 92
        0
 62
   257
 93
        1
300
CONTENTFORMAT
  1
CONTENTFORMAT_BEGIN
 90
        0
 91
        0
 92
        4
 93
        0
300

 40
0.0
140
1.0
 94
        2
 62
     0
340
11
144
4.5
309
CONTENTFORMAT_END
171
     1
301
MARGIN
  1
CELLMARGIN_BEGIN
 40
1.5
 40
1.5
 40
1.5
 40
1.5
 40
0.18
 40
0.18
309
CELLMARGIN_END
 94
        6
 95
        1
302
GRIDFORMAT
  1
GRIDFORMAT_BEGIN
 90
        0
 91
        1
 62
     0
 92
       -2
340
0
 93
        0
 40
0.045
309
GRIDFORMAT_END
 95
        2
302
GRIDFORMAT
  1
GRIDFORMAT_BEGIN
 90
        0
 91
        1
 62
     0
 92
       -2
340
0
 93
        0
 40
0.045
309
GRIDFORMAT_END
 95
        4
302
GRIDFORMAT
  1
GRIDFORMAT_BEGIN
 90
        0
 91
        1
 62
     0
 92
       -2
340
0
 93
        0
 40
0.045
309
GRIDFORMAT_END
 95
        8
302
GRIDFORMAT
  1
GRIDFORMAT_BEGIN
 90
        0
 91
        1
 62
     0
 92
       -2
340
0
 93
        0
 40
0.045
309
GRIDFORMAT_END
 95
       16
302
GRIDFORMAT
  1
GRIDFORMAT_BEGIN
 90
        0
 91
        1
 62
     0
 92
       -2
340
0
 93
        0
 40
0.045
309
GRIDFORMAT_END
 95
       32
302
GRIDFORMAT
  1
GRIDFORMAT_BEGIN
 90
        0
 91
        1
 62
     0
 92
       -2
340
0
 93
        0
 40
0.045
309
GRIDFORMAT_END
309
TABLEFORMAT_END
  1
CELLSTYLE_BEGIN
 90
        3
 91
        2
300
_DATA
309
CELLSTYLE_END
  0
XRECORD
  5
2BF3
102
{ACAD_REACTORS
330
3AA
102
}
330
3AA
100
AcDbXrecord
280
     1
102
ACAD_ROUNDTRIP_PRE2007_TABLESTYLE
 90
        4
 91
        0
  1

 92
        4
 93
        0
  2

 94
        4
 95
        0
  3

  0
XRECORD
  5
2BFF
102
{ACAD_REACTORS
330
2BFE
102
}
330
2BFE
100
AcDbXrecord
280
     1
102
RTVSPropertyOp0
 70
     1
102
RTVSPropertyOp1
 70
     1
102
RTVSPropertyOp2
 70
     1
102
RTVSPropertyOp3
 70
     1
102
RTVSPropertyOp4
 70
     1
102
RTVSPropertyOp5
 70
     1
102
RTVSPropertyOp6
 70
     1
102
RTVSPropertyOp7
 70
     1
102
RTVSPropertyOp8
 70
     1
102
RTVSPropertyOp9
 70
     1
102
RTVSPropertyOp10
 70
     1
102
RTVSPropertyOp11
 70
     1
102
RTVSPropertyOp12
 70
     1
102
RTVSPropertyOp13
 70
     1
102
RTVSPropertyOp14
 70
     1
102
RTVSPropertyOp15
 70
     1
102
RTVSPropertyOp16
 70
     1
102
RTVSPropertyOp17
 70
     1
102
RTVSPropertyOp18
 70
     1
102
RTVSPropertyOp19
 70
     1
102
RTVSPropertyOp20
 70
     1
102
RTVSPropertyOp21
 70
     1
102
RTVSPropertyOp22
 70
     1
102
RTVSPropertyOp23
 70
     1
102
RTVSPropertyOp24
 70
     1
102
RTVSPropertyOp25
 70
     1
102
RTVSPropertyOp26
 70
     1
102
RTVSPropertyOp27
 70
     1
  0
XRECORD
  5
2C03
102
{ACAD_REACTORS
330
2C02
102
}
330
2C02
100
AcDbXrecord
280
     1
102
RTVSPropertyOp0
 70
     1
102
RTVSPropertyOp1
 70
     1
102
RTVSPropertyOp2
 70
     1
102
RTVSPropertyOp3
 70
     1
102
RTVSPropertyOp4
 70
     1
102
RTVSPropertyOp5
 70
     1
102
RTVSPropertyOp6
 70
     1
102
RTVSPropertyOp7
 70
     1
102
RTVSPropertyOp8
 70
     1
102
RTVSPropertyOp9
 70
     1
102
RTVSPropertyOp10
 70
     1
102
RTVSPropertyOp11
 70
     1
102
RTVSPropertyOp12
 70
     1
102
RTVSPropertyOp13
 70
     1
102
RTVSPropertyOp14
 70
     1
102
RTVSPropertyOp15
 70
     1
102
RTVSPropertyOp16
 70
     1
102
RTVSPropertyOp17
 70
     1
102
RTVSPropertyOp18
 70
     1
102
RTVSPropertyOp19
 70
     1
102
RTVSPropertyOp20
 70
     1
102
RTVSPropertyOp21
 70
     1
102
RTVSPropertyOp22
 70
     1
102
RTVSPropertyOp23
 70
     1
102
RTVSPropertyOp24
 70
     1
102
RTVSPropertyOp25
 70
     1
102
RTVSPropertyOp26
 70
     1
102
RTVSPropertyOp27
 70
     1
  0
XRECORD
  5
2C01
102
{ACAD_REACTORS
330
2C00
102
}
330
2C00
100
AcDbXrecord
280
     1
102
RTVSPropertyOp0
 70
     1
102
RTVSPropertyOp1
 70
     1
102
RTVSPropertyOp2
 70
     1
102
RTVSPropertyOp3
 70
     1
102
RTVSPropertyOp4
 70
     1
102
RTVSPropertyOp5
 70
     1
102
RTVSPropertyOp6
 70
     1
102
RTVSPropertyOp7
 70
     1
102
RTVSPropertyOp8
 70
     1
102
RTVSPropertyOp9
 70
     1
102
RTVSPropertyOp10
 70
     1
102
RTVSPropertyOp11
 70
     1
102
RTVSPropertyOp12
 70
     1
102
RTVSPropertyOp13
 70
     1
102
RTVSPropertyOp14
 70
     1
102
RTVSPropertyOp15
 70
     1
102
RTVSPropertyOp16
 70
     1
102
RTVSPropertyOp17
 70
     1
102
RTVSPropertyOp18
 70
     1
102
RTVSPropertyOp19
 70
     1
102
RTVSPropertyOp20
 70
     1
102
RTVSPropertyOp21
 70
     1
102
RTVSPropertyOp22
 70
     1
102
RTVSPropertyOp23
 70
     1
102
RTVSPropertyOp24
 70
     1
102
RTVSPropertyOp25
 70
     1
102
RTVSPropertyOp26
 70
     1
102
RTVSPropertyOp27
 70
     1
  0
XRECORD
  5
2BFD
102
{ACAD_REACTORS
330
2BFC
102
}
330
2BFC
100
AcDbXrecord
280
     1
102
RTVSPropertyOp0
 70
     1
102
RTVSPropertyOp1
 70
     1
102
RTVSPropertyOp2
 70
     1
102
RTVSPropertyOp3
 70
     1
102
RTVSPropertyOp4
 70
     1
102
RTVSPropertyOp5
 70
     1
102
RTVSPropertyOp6
 70
     1
102
RTVSPropertyOp7
 70
     1
102
RTVSPropertyOp8
 70
     1
102
RTVSPropertyOp9
 70
     1
102
RTVSPropertyOp10
 70
     1
102
RTVSPropertyOp11
 70
     1
102
RTVSPropertyOp12
 70
     1
102
RTVSPropertyOp13
 70
     1
102
RTVSPropertyOp14
 70
     1
102
RTVSPropertyOp15
 70
     1
102
RTVSPropertyOp16
 70
     1
102
RTVSPropertyOp17
 70
     1
102
RTVSPropertyOp18
 70
     1
102
RTVSPropertyOp19
 70
     1
102
RTVSPropertyOp20
 70
     1
102
RTVSPropertyOp21
 70
     1
102
RTVSPropertyOp22
 70
     1
102
RTVSPropertyOp23
 70
     1
102
RTVSPropertyOp24
 70
     1
102
RTVSPropertyOp25
 70
     1
102
RTVSPropertyOp26
 70
     1
102
RTVSPropertyOp27
 70
     1
  0
XRECORD
  5
2C0B
102
{ACAD_REACTORS
330
2C0A
102
}
330
2C0A
100
AcDbXrecord
280
     1
102
RTVSPropertyOp0
 70
     1
102
RTVSPropertyOp1
 70
     1
102
RTVSPropertyOp2
 70
     1
102
RTVSPropertyOp3
 70
     1
102
RTVSPropertyOp4
 70
     1
102
RTVSPropertyOp5
 70
     1
102
RTVSPropertyOp6
 70
     1
102
RTVSPropertyOp7
 70
     1
102
RTVSPropertyOp8
 70
     1
102
RTVSPropertyOp9
 70
     1
102
RTVSPropertyOp10
 70
     1
102
RTVSPropertyOp11
 70
     1
102
RTVSPropertyOp12
 70
     1
102
RTVSPropertyOp13
 70
     1
102
RTVSPropertyOp14
 70
     1
102
RTVSPropertyOp15
 70
     1
102
RTVSPropertyOp16
 70
     1
102
RTVSPropertyOp17
 70
     1
102
RTVSPropertyOp18
 70
     1
102
RTVSPropertyOp19
 70
     1
102
RTVSPropertyOp20
 70
     1
102
RTVSPropertyOp21
 70
     1
102
RTVSPropertyOp22
 70
     1
102
RTVSPropertyOp23
 70
     1
102
RTVSPropertyOp24
 70
     1
102
RTVSPropertyOp25
 70
     1
102
RTVSPropertyOp26
 70
     1
102
RTVSPropertyOp27
 70
     1
  0
XRECORD
  5
2C13
102
{ACAD_REACTORS
330
2C12
102
}
330
2C12
100
AcDbXrecord
280
     1
102
RTVSPropertyOp0
 70
     1
102
RTVSPropertyOp1
 70
     1
102
RTVSPropertyOp2
 70
     1
102
RTVSPropertyOp3
 70
     1
102
RTVSPropertyOp4
 70
     1
102
RTVSPropertyOp5
 70
     1
102
RTVSPropertyOp6
 70
     1
102
RTVSPropertyOp7
 70
     1
102
RTVSPropertyOp8
 70
     1
102
RTVSPropertyOp9
 70
     1
102
RTVSPropertyOp10
 70
     1
102
RTVSPropertyOp11
 70
     1
102
RTVSPropertyOp12
 70
     1
102
RTVSPropertyOp13
 70
     1
102
RTVSPropertyOp14
 70
     1
102
RTVSPropertyOp15
 70
     1
102
RTVSPropertyOp16
 70
     1
102
RTVSPropertyOp17
 70
     1
102
RTVSPropertyOp18
 70
     1
102
RTVSPropertyOp19
 70
     1
102
RTVSPropertyOp20
 70
     1
102
RTVSPropertyOp21
 70
     1
102
RTVSPropertyOp22
 70
     1
102
RTVSPropertyOp23
 70
     1
102
RTVSPropertyOp24
 70
     1
102
RTVSPropertyOp25
 70
     1
102
RTVSPropertyOp26
 70
     1
102
RTVSPropertyOp27
 70
     1
  0
XRECORD
  5
2C05
102
{ACAD_REACTORS
330
2C04
102
}
330
2C04
100
AcDbXrecord
280
     1
102
RTVSPropertyOp0
 70
     1
102
RTVSPropertyOp1
 70
     1
102
RTVSPropertyOp2
 70
     1
102
RTVSPropertyOp3
 70
     1
102
RTVSPropertyOp4
 70
     1
102
RTVSPropertyOp5
 70
     1
102
RTVSPropertyOp6
 70
     1
102
RTVSPropertyOp7
 70
     1
102
RTVSPropertyOp8
 70
     1
102
RTVSPropertyOp9
 70
     1
102
RTVSPropertyOp10
 70
     1
102
RTVSPropertyOp11
 70
     1
102
RTVSPropertyOp12
 70
     1
102
RTVSPropertyOp13
 70
     1
102
RTVSPropertyOp14
 70
     1
102
RTVSPropertyOp15
 70
     1
102
RTVSPropertyOp16
 70
     1
102
RTVSPropertyOp17
 70
     1
102
RTVSPropertyOp18
 70
     1
102
RTVSPropertyOp19
 70
     1
102
RTVSPropertyOp20
 70
     1
102
RTVSPropertyOp21
 70
     1
102
RTVSPropertyOp22
 70
     1
102
RTVSPropertyOp23
 70
     1
102
RTVSPropertyOp24
 70
     1
102
RTVSPropertyOp25
 70
     1
102
RTVSPropertyOp26
 70
     1
102
RTVSPropertyOp27
 70
     1
  0
XRECORD
  5
2C09
102
{ACAD_REACTORS
330
2C08
102
}
330
2C08
100
AcDbXrecord
280
     1
102
RTVSPropertyOp0
 70
     1
102
RTVSPropertyOp1
 70
     1
102
RTVSPropertyOp2
 70
     1
102
RTVSPropertyOp3
 70
     1
102
RTVSPropertyOp4
 70
     1
102
RTVSPropertyOp5
 70
     1
102
RTVSPropertyOp6
 70
     1
102
RTVSPropertyOp7
 70
     1
102
RTVSPropertyOp8
 70
     1
102
RTVSPropertyOp9
 70
     1
102
RTVSPropertyOp10
 70
     1
102
RTVSPropertyOp11
 70
     1
102
RTVSPropertyOp12
 70
     1
102
RTVSPropertyOp13
 70
     1
102
RTVSPropertyOp14
 70
     1
102
RTVSPropertyOp15
 70
     1
102
RTVSPropertyOp16
 70
     1
102
RTVSPropertyOp17
 70
     1
102
RTVSPropertyOp18
 70
     1
102
RTVSPropertyOp19
 70
     1
102
RTVSPropertyOp20
 70
     1
102
RTVSPropertyOp21
 70
     1
102
RTVSPropertyOp22
 70
     1
102
RTVSPropertyOp23
 70
     1
102
RTVSPropertyOp24
 70
     1
102
RTVSPropertyOp25
 70
     1
102
RTVSPropertyOp26
 70
     1
102
RTVSPropertyOp27
 70
     1
  0
XRECORD
  5
2C19
102
{ACAD_REACTORS
330
2C18
102
}
330
2C18
100
AcDbXrecord
280
     1
102
RTVSPropertyOp0
 70
     0
102
RTVSPropertyOp1
 70
     0
102
RTVSPropertyOp2
 70
     0
102
RTVSPropertyOp3
 70
     0
102
RTVSPropertyOp4
 70
     0
102
RTVSPropertyOp5
 70
     0
102
RTVSPropertyOp6
 70
     0
102
RTVSPropertyOp7
 70
     0
102
RTVSPropertyOp8
 70
     0
102
RTVSPropertyOp9
 70
     0
102
RTVSPropertyOp10
 70
     0
102
RTVSPropertyOp11
 70
     0
102
RTVSPropertyOp12
 70
     0
102
RTVSPropertyOp13
 70
     0
102
RTVSPropertyOp14
 70
     2
102
RTVSPropertyOp15
 70
     0
102
RTVSPropertyOp16
 70
     0
102
RTVSPropertyOp17
 70
     0
102
RTVSPropertyOp18
 70
     0
102
RTVSPropertyOp19
 70
     0
102
RTVSPropertyOp20
 70
     0
102
RTVSPropertyOp21
 70
     0
102
RTVSPropertyOp22
 70
     0
102
RTVSPropertyOp23
 70
     0
102
RTVSPropertyOp24
 70
     0
102
RTVSPropertyOp25
 70
     0
102
RTVSPropertyOp26
 70
     0
102
RTVSPropertyOp27
 70
     0
  0
XRECORD
  5
2C11
102
{ACAD_REACTORS
330
2C10
102
}
330
2C10
100
AcDbXrecord
280
     1
102
RTVSPropertyOp0
 70
     1
102
RTVSPropertyOp1
 70
     1
102
RTVSPropertyOp2
 70
     1
102
RTVSPropertyOp3
 70
     1
102
RTVSPropertyOp4
 70
     1
102
RTVSPropertyOp5
 70
     1
102
RTVSPropertyOp6
 70
     1
102
RTVSPropertyOp7
 70
     1
102
RTVSPropertyOp8
 70
     1
102
RTVSPropertyOp9
 70
     1
102
RTVSPropertyOp10
 70
     1
102
RTVSPropertyOp11
 70
     1
102
RTVSPropertyOp12
 70
     1
102
RTVSPropertyOp13
 70
     1
102
RTVSPropertyOp14
 70
     1
102
RTVSPropertyOp15
 70
     1
102
RTVSPropertyOp16
 70
     1
102
RTVSPropertyOp17
 70
     1
102
RTVSPropertyOp18
 70
     1
102
RTVSPropertyOp19
 70
     1
102
RTVSPropertyOp20
 70
     1
102
RTVSPropertyOp21
 70
     1
102
RTVSPropertyOp22
 70
     1
102
RTVSPropertyOp23
 70
     1
102
RTVSPropertyOp24
 70
     1
102
RTVSPropertyOp25
 70
     1
102
RTVSPropertyOp26
 70
     1
102
RTVSPropertyOp27
 70
     1
  0
XRECORD
  5
2BF5
102
{ACAD_REACTORS
330
2BF4
102
}
330
2BF4
100
AcDbXrecord
280
     1
102
RTVSPropertyOp0
 70
     1
102
RTVSPropertyOp1
 70
     1
102
RTVSPropertyOp2
 70
     1
102
RTVSPropertyOp3
 70
     1
102
RTVSPropertyOp4
 70
     1
102
RTVSPropertyOp5
 70
     1
102
RTVSPropertyOp6
 70
     1
102
RTVSPropertyOp7
 70
     1
102
RTVSPropertyOp8
 70
     1
102
RTVSPropertyOp9
 70
     1
102
RTVSPropertyOp10
 70
     1
102
RTVSPropertyOp11
 70
     1
102
RTVSPropertyOp12
 70
     1
102
RTVSPropertyOp13
 70
     1
102
RTVSPropertyOp14
 70
     1
102
RTVSPropertyOp15
 70
     1
102
RTVSPropertyOp16
 70
     1
102
RTVSPropertyOp17
 70
     1
102
RTVSPropertyOp18
 70
     1
102
RTVSPropertyOp19
 70
     1
102
RTVSPropertyOp20
 70
     1
102
RTVSPropertyOp21
 70
     1
102
RTVSPropertyOp22
 70
     1
102
RTVSPropertyOp23
 70
     1
102
RTVSPropertyOp24
 70
     1
102
RTVSPropertyOp25
 70
     1
102
RTVSPropertyOp26
 70
     1
102
RTVSPropertyOp27
 70
     1
  0
XRECORD
  5
2BF7
102
{ACAD_REACTORS
330
2BF6
102
}
330
2BF6
100
AcDbXrecord
280
     1
102
RTVSPropertyOp0
 70
     1
102
RTVSPropertyOp1
 70
     1
102
RTVSPropertyOp2
 70
     1
102
RTVSPropertyOp3
 70
     1
102
RTVSPropertyOp4
 70
     1
102
RTVSPropertyOp5
 70
     1
102
RTVSPropertyOp6
 70
     1
102
RTVSPropertyOp7
 70
     1
102
RTVSPropertyOp8
 70
     1
102
RTVSPropertyOp9
 70
     1
102
RTVSPropertyOp10
 70
     1
102
RTVSPropertyOp11
 70
     1
102
RTVSPropertyOp12
 70
     1
102
RTVSPropertyOp13
 70
     1
102
RTVSPropertyOp14
 70
     1
102
RTVSPropertyOp15
 70
     1
102
RTVSPropertyOp16
 70
     1
102
RTVSPropertyOp17
 70
     1
102
RTVSPropertyOp18
 70
     1
102
RTVSPropertyOp19
 70
     1
102
RTVSPropertyOp20
 70
     1
102
RTVSPropertyOp21
 70
     1
102
RTVSPropertyOp22
 70
     1
102
RTVSPropertyOp23
 70
     1
102
RTVSPropertyOp24
 70
     1
102
RTVSPropertyOp25
 70
     1
102
RTVSPropertyOp26
 70
     1
102
RTVSPropertyOp27
 70
     1
  0
XRECORD
  5
2BF9
102
{ACAD_REACTORS
330
2BF8
102
}
330
2BF8
100
AcDbXrecord
280
     1
102
RTVSPropertyOp0
 70
     1
102
RTVSPropertyOp1
 70
     1
102
RTVSPropertyOp2
 70
     1
102
RTVSPropertyOp3
 70
     1
102
RTVSPropertyOp4
 70
     1
102
RTVSPropertyOp5
 70
     1
102
RTVSPropertyOp6
 70
     1
102
RTVSPropertyOp7
 70
     1
102
RTVSPropertyOp8
 70
     1
102
RTVSPropertyOp9
 70
     1
102
RTVSPropertyOp10
 70
     1
102
RTVSPropertyOp11
 70
     1
102
RTVSPropertyOp12
 70
     1
102
RTVSPropertyOp13
 70
     1
102
RTVSPropertyOp14
 70
     1
102
RTVSPropertyOp15
 70
     1
102
RTVSPropertyOp16
 70
     1
102
RTVSPropertyOp17
 70
     1
102
RTVSPropertyOp18
 70
     1
102
RTVSPropertyOp19
 70
     1
102
RTVSPropertyOp20
 70
     1
102
RTVSPropertyOp21
 70
     1
102
RTVSPropertyOp22
 70
     1
102
RTVSPropertyOp23
 70
     1
102
RTVSPropertyOp24
 70
     1
102
RTVSPropertyOp25
 70
     1
102
RTVSPropertyOp26
 70
     1
102
RTVSPropertyOp27
 70
     1
  0
XRECORD
  5
2BFB
102
{ACAD_REACTORS
330
2BFA
102
}
330
2BFA
100
AcDbXrecord
280
     1
102
RTVSPropertyOp0
 70
     1
102
RTVSPropertyOp1
 70
     1
102
RTVSPropertyOp2
 70
     1
102
RTVSPropertyOp3
 70
     1
102
RTVSPropertyOp4
 70
     1
102
RTVSPropertyOp5
 70
     1
102
RTVSPropertyOp6
 70
     1
102
RTVSPropertyOp7
 70
     1
102
RTVSPropertyOp8
 70
     1
102
RTVSPropertyOp9
 70
     1
102
RTVSPropertyOp10
 70
     1
102
RTVSPropertyOp11
 70
     1
102
RTVSPropertyOp12
 70
     1
102
RTVSPropertyOp13
 70
     1
102
RTVSPropertyOp14
 70
     1
102
RTVSPropertyOp15
 70
     1
102
RTVSPropertyOp16
 70
     1
102
RTVSPropertyOp17
 70
     1
102
RTVSPropertyOp18
 70
     1
102
RTVSPropertyOp19
 70
     1
102
RTVSPropertyOp20
 70
     1
102
RTVSPropertyOp21
 70
     1
102
RTVSPropertyOp22
 70
     1
102
RTVSPropertyOp23
 70
     1
102
RTVSPropertyOp24
 70
     1
102
RTVSPropertyOp25
 70
     1
102
RTVSPropertyOp26
 70
     1
102
RTVSPropertyOp27
 70
     1
  0
XRECORD
  5
2C15
102
{ACAD_REACTORS
330
2C14
102
}
330
2C14
100
AcDbXrecord
280
     1
102
RTVSPropertyOp0
 70
     0
102
RTVSPropertyOp1
 70
     0
102
RTVSPropertyOp2
 70
     0
102
RTVSPropertyOp3
 70
     0
102
RTVSPropertyOp4
 70
     0
102
RTVSPropertyOp5
 70
     0
102
RTVSPropertyOp6
 70
     0
102
RTVSPropertyOp7
 70
     0
102
RTVSPropertyOp8
 70
     0
102
RTVSPropertyOp9
 70
     0
102
RTVSPropertyOp10
 70
     0
102
RTVSPropertyOp11
 70
     0
102
RTVSPropertyOp12
 70
     0
102
RTVSPropertyOp13
 70
     0
102
RTVSPropertyOp14
 70
     2
102
RTVSPropertyOp15
 70
     0
102
RTVSPropertyOp16
 70
     0
102
RTVSPropertyOp17
 70
     0
102
RTVSPropertyOp18
 70
     0
102
RTVSPropertyOp19
 70
     0
102
RTVSPropertyOp20
 70
     0
102
RTVSPropertyOp21
 70
     0
102
RTVSPropertyOp22
 70
     0
102
RTVSPropertyOp23
 70
     0
102
RTVSPropertyOp24
 70
     0
102
RTVSPropertyOp25
 70
     0
102
RTVSPropertyOp26
 70
     0
102
RTVSPropertyOp27
 70
     0
  0
XRECORD
  5
2C0F
102
{ACAD_REACTORS
330
2C0E
102
}
330
2C0E
100
AcDbXrecord
280
     1
102
RTVSPropertyOp0
 70
     1
102
RTVSPropertyOp1
 70
     1
102
RTVSPropertyOp2
 70
     1
102
RTVSPropertyOp3
 70
     1
102
RTVSPropertyOp4
 70
     1
102
RTVSPropertyOp5
 70
     1
102
RTVSPropertyOp6
 70
     1
102
RTVSPropertyOp7
 70
     1
102
RTVSPropertyOp8
 70
     1
102
RTVSPropertyOp9
 70
     1
102
RTVSPropertyOp10
 70
     1
102
RTVSPropertyOp11
 70
     1
102
RTVSPropertyOp12
 70
     1
102
RTVSPropertyOp13
 70
     1
102
RTVSPropertyOp14
 70
     1
102
RTVSPropertyOp15
 70
     1
102
RTVSPropertyOp16
 70
     1
102
RTVSPropertyOp17
 70
     1
102
RTVSPropertyOp18
 70
     1
102
RTVSPropertyOp19
 70
     1
102
RTVSPropertyOp20
 70
     1
102
RTVSPropertyOp21
 70
     1
102
RTVSPropertyOp22
 70
     1
102
RTVSPropertyOp23
 70
     1
102
RTVSPropertyOp24
 70
     1
102
RTVSPropertyOp25
 70
     1
102
RTVSPropertyOp26
 70
     1
102
RTVSPropertyOp27
 70
     1
  0
XRECORD
  5
2C17
102
{ACAD_REACTORS
330
2C16
102
}
330
2C16
100
AcDbXrecord
280
     1
102
RTVSPropertyOp0
 70
     0
102
RTVSPropertyOp1
 70
     0
102
RTVSPropertyOp2
 70
     0
102
RTVSPropertyOp3
 70
     0
102
RTVSPropertyOp4
 70
     0
102
RTVSPropertyOp5
 70
     0
102
RTVSPropertyOp6
 70
     0
102
RTVSPropertyOp7
 70
     0
102
RTVSPropertyOp8
 70
     0
102
RTVSPropertyOp9
 70
     0
102
RTVSPropertyOp10
 70
     0
102
RTVSPropertyOp11
 70
     0
102
RTVSPropertyOp12
 70
     0
102
RTVSPropertyOp13
 70
     0
102
RTVSPropertyOp14
 70
     2
102
RTVSPropertyOp15
 70
     0
102
RTVSPropertyOp16
 70
     0
102
RTVSPropertyOp17
 70
     0
102
RTVSPropertyOp18
 70
     0
102
RTVSPropertyOp19
 70
     0
102
RTVSPropertyOp20
 70
     0
102
RTVSPropertyOp21
 70
     0
102
RTVSPropertyOp22
 70
     0
102
RTVSPropertyOp23
 70
     0
102
RTVSPropertyOp24
 70
     0
102
RTVSPropertyOp25
 70
     0
102
RTVSPropertyOp26
 70
     0
102
RTVSPropertyOp27
 70
     0
  0
XRECORD
  5
2C07
102
{ACAD_REACTORS
330
2C06
102
}
330
2C06
100
AcDbXrecord
280
     1
102
RTVSPropertyOp0
 70
     1
102
RTVSPropertyOp1
 70
     1
102
RTVSPropertyOp2
 70
     1
102
RTVSPropertyOp3
 70
     1
102
RTVSPropertyOp4
 70
     1
102
RTVSPropertyOp5
 70
     1
102
RTVSPropertyOp6
 70
     1
102
RTVSPropertyOp7
 70
     1
102
RTVSPropertyOp8
 70
     1
102
RTVSPropertyOp9
 70
     1
102
RTVSPropertyOp10
 70
     1
102
RTVSPropertyOp11
 70
     1
102
RTVSPropertyOp12
 70
     1
102
RTVSPropertyOp13
 70
     1
102
RTVSPropertyOp14
 70
     1
102
RTVSPropertyOp15
 70
     1
102
RTVSPropertyOp16
 70
     1
102
RTVSPropertyOp17
 70
     1
102
RTVSPropertyOp18
 70
     1
102
RTVSPropertyOp19
 70
     1
102
RTVSPropertyOp20
 70
     1
102
RTVSPropertyOp21
 70
     1
102
RTVSPropertyOp22
 70
     1
102
RTVSPropertyOp23
 70
     1
102
RTVSPropertyOp24
 70
     1
102
RTVSPropertyOp25
 70
     1
102
RTVSPropertyOp26
 70
     1
102
RTVSPropertyOp27
 70
     1
  0
XRECORD
  5
2C0D
102
{ACAD_REACTORS
330
2C0C
102
}
330
2C0C
100
AcDbXrecord
280
     1
102
RTVSPropertyOp0
 70
     1
102
RTVSPropertyOp1
 70
     1
102
RTVSPropertyOp2
 70
     1
102
RTVSPropertyOp3
 70
     1
102
RTVSPropertyOp4
 70
     1
102
RTVSPropertyOp5
 70
     1
102
RTVSPropertyOp6
 70
     1
102
RTVSPropertyOp7
 70
     1
102
RTVSPropertyOp8
 70
     1
102
RTVSPropertyOp9
 70
     1
102
RTVSPropertyOp10
 70
     1
102
RTVSPropertyOp11
 70
     1
102
RTVSPropertyOp12
 70
     1
102
RTVSPropertyOp13
 70
     1
102
RTVSPropertyOp14
 70
     1
102
RTVSPropertyOp15
 70
     1
102
RTVSPropertyOp16
 70
     1
102
RTVSPropertyOp17
 70
     1
102
RTVSPropertyOp18
 70
     1
102
RTVSPropertyOp19
 70
     1
102
RTVSPropertyOp20
 70
     1
102
RTVSPropertyOp21
 70
     1
102
RTVSPropertyOp22
 70
     1
102
RTVSPropertyOp23
 70
     1
102
RTVSPropertyOp24
 70
     1
102
RTVSPropertyOp25
 70
     1
102
RTVSPropertyOp26
 70
     1
102
RTVSPropertyOp27
 70
     1
  0
ENDSEC
  0
EOF
