  0
SECTION
  2
HEADER
  9
$ACADVER
  1
AC1015
  9
$ACADMAINTVER
 70
    10
  9
$DWGCODEPAGE
  3
ANSI_932
  9
$INSBASE
 10
0.0
 20
0.0
 30
0.0
  9
$EXTMIN
 10
8.572977999999999
 20
41.91206626250418
 30
0.0
  9
$EXTMAX
 10
205.0353000000001
 20
319.3999939999999
 30
0.0
  9
$LIMMIN
 10
0.0
 20
0.0
  9
$LIMMAX
 10
12.0
 20
9.0
  9
$ORTHOMODE
 70
     0
  9
$REGENMODE
 70
     1
  9
$FILLMODE
 70
     1
  9
$QTEXTMODE
 70
     0
  9
$MIRRTEXT
 70
     1
  9
$LTSCALE
 40
1.0
  9
$ATTMODE
 70
     1
  9
$TEXTSIZE
 40
0.2
  9
$TRACEWID
 40
0.05
  9
$TEXTSTYLE
  7
LEROY
  9
$CLAYER
  8
0
  9
$CELTYPE
  6
ByLayer
  9
$CECOLOR
 62
   256
  9
$CELTSCALE
 40
1.0
  9
$DISPSILH
 70
     0
  9
$DIMSCALE
 40
1.0
  9
$DIMASZ
 40
0.18
  9
$DIMEXO
 40
0.0625
  9
$DIMDLI
 40
0.38
  9
$DIMRND
 40
0.0
  9
$DIMDLE
 40
0.0
  9
$DIMEXE
 40
0.18
  9
$DIMTP
 40
0.0
  9
$DIMTM
 40
0.0
  9
$DIMTXT
 40
0.18
  9
$DIMCEN
 40
0.09
  9
$DIMTSZ
 40
0.0
  9
$DIMTOL
 70
     0
  9
$DIMLIM
 70
     0
  9
$DIMTIH
 70
     1
  9
$DIMTOH
 70
     1
  9
$DIMSE1
 70
     0
  9
$DIMSE2
 70
     0
  9
$DIMTAD
 70
     0
  9
$DIMZIN
 70
     0
  9
$DIMBLK
  1

  9
$DIMASO
 70
     1
  9
$DIMSHO
 70
     1
  9
$DIMPOST
  1

  9
$DIMAPOST
  1

  9
$DIMALT
 70
     0
  9
$DIMALTD
 70
     2
  9
$DIMALTF
 40
25.4
  9
$DIMLFAC
 40
1.0
  9
$DIMTOFL
 70
     0
  9
$DIMTVP
 40
0.0
  9
$DIMTIX
 70
     0
  9
$DIMSOXD
 70
     0
  9
$DIMSAH
 70
     0
  9
$DIMBLK1
  1

  9
$DIMBLK2
  1

  9
$DIMSTYLE
  2
Standard
  9
$DIMCLRD
 70
     0
  9
$DIMCLRE
 70
     0
  9
$DIMCLRT
 70
     0
  9
$DIMTFAC
 40
1.0
  9
$DIMGAP
 40
0.09
  9
$DIMJUST
 70
     0
  9
$DIMSD1
 70
     0
  9
$DIMSD2
 70
     0
  9
$DIMTOLJ
 70
     1
  9
$DIMTZIN
 70
     0
  9
$DIMALTZ
 70
     0
  9
$DIMALTTZ
 70
     0
  9
$DIMUPT
 70
     0
  9
$DIMDEC
 70
     4
  9
$DIMTDEC
 70
     4
  9
$DIMALTU
 70
     2
  9
$DIMALTTD
 70
     2
  9
$DIMTXSTY
  7
STANDARD
  9
$DIMAUNIT
 70
     0
  9
$DIMADEC
 70
     0
  9
$DIMALTRND
 40
0.0
  9
$DIMAZIN
 70
     0
  9
$DIMDSEP
 70
    46
  9
$DIMATFIT
 70
     3
  9
$DIMFRAC
 70
     0
  9
$DIMLDRBLK
  1

  9
$DIMLUNIT
 70
     2
  9
$DIMLWD
 70
    -2
  9
$DIMLWE
 70
    -2
  9
$DIMTMOVE
 70
     0
  9
$LUNITS
 70
     2
  9
$LUPREC
 70
     4
  9
$SKETCHINC
 40
0.1
  9
$FILLETRAD
 40
0.0
  9
$AUNITS
 70
     0
  9
$AUPREC
 70
     0
  9
$MENU
  1
acad
  9
$ELEVATION
 40
0.0
  9
$PELEVATION
 40
0.0
  9
$THICKNESS
 40
0.0
  9
$LIMCHECK
 70
     0
  9
$CHAMFERA
 40
0.0
  9
$CHAMFERB
 40
0.0
  9
$CHAMFERC
 40
0.0
  9
$CHAMFERD
 40
0.0
  9
$SKPOLY
 70
     0
  9
$TDCREATE
 40
2448965.635910647
  9
$TDUCREATE
 40
2448965.260910648
  9
$TDUPDATE
 40
2453928.409876250
  9
$TDUUPDATE
 40
2453928.034876250
  9
$TDINDWG
 40
0.0321622222
  9
$TDUSRTIMER
 40
0.0321621065
  9
$USRTIMER
 70
     1
  9
$ANGBASE
 50
0.0
  9
$ANGDIR
 70
     0
  9
$PDMODE
 70
     2
  9
$PDSIZE
 40
-1.0
  9
$PLINEWID
 40
0.0
  9
$SPLFRAME
 70
     0
  9
$SPLINETYPE
 70
     6
  9
$SPLINESEGS
 70
     8
  9
$HANDSEED
  5
155
  9
$SURFTAB1
 70
     6
  9
$SURFTAB2
 70
     6
  9
$SURFTYPE
 70
     6
  9
$SURFU
 70
     6
  9
$SURFV
 70
     6
  9
$UCSBASE
  2

  9
$UCSNAME
  2

  9
$UCSORG
 10
0.0
 20
0.0
 30
0.0
  9
$UCSXDIR
 10
1.0
 20
0.0
 30
0.0
  9
$UCSYDIR
 10
0.0
 20
1.0
 30
0.0
  9
$UCSORTHOREF
  2

  9
$UCSORTHOVIEW
 70
     0
  9
$UCSORGTOP
 10
0.0
 20
0.0
 30
0.0
  9
$UCSORGBOTTOM
 10
0.0
 20
0.0
 30
0.0
  9
$UCSORGLEFT
 10
0.0
 20
0.0
 30
0.0
  9
$UCSORGRIGHT
 10
0.0
 20
0.0
 30
0.0
  9
$UCSORGFRONT
 10
0.0
 20
0.0
 30
0.0
  9
$UCSORGBACK
 10
0.0
 20
0.0
 30
0.0
  9
$PUCSBASE
  2

  9
$PUCSNAME
  2

  9
$PUCSORG
 10
0.0
 20
0.0
 30
0.0
  9
$PUCSXDIR
 10
1.0
 20
0.0
 30
0.0
  9
$PUCSYDIR
 10
0.0
 20
1.0
 30
0.0
  9
$PUCSORTHOREF
  2

  9
$PUCSORTHOVIEW
 70
     0
  9
$PUCSORGTOP
 10
0.0
 20
0.0
 30
0.0
  9
$PUCSORGBOTTOM
 10
0.0
 20
0.0
 30
0.0
  9
$PUCSORGLEFT
 10
0.0
 20
0.0
 30
0.0
  9
$PUCSORGRIGHT
 10
0.0
 20
0.0
 30
0.0
  9
$PUCSORGFRONT
 10
0.0
 20
0.0
 30
0.0
  9
$PUCSORGBACK
 10
0.0
 20
0.0
 30
0.0
  9
$USERI1
 70
     0
  9
$USERI2
 70
     0
  9
$USERI3
 70
     0
  9
$USERI4
 70
     0
  9
$USERI5
 70
     0
  9
$USERR1
 40
0.0
  9
$USERR2
 40
0.0
  9
$USERR3
 40
0.0
  9
$USERR4
 40
0.0
  9
$USERR5
 40
0.0
  9
$WORLDVIEW
 70
     1
  9
$SHADEDGE
 70
     3
  9
$SHADEDIF
 70
    70
  9
$TILEMODE
 70
     1
  9
$MAXACTVP
 70
    16
  9
$PINSBASE
 10
0.0
 20
0.0
 30
0.0
  9
$PLIMCHECK
 70
     0
  9
$PEXTMIN
 10
-297.0
 20
-210.0
 30
0.0
  9
$PEXTMAX
 10
297.0
 20
210.0
 30
0.0
  9
$PLIMMIN
 10
0.0
 20
0.0
  9
$PLIMMAX
 10
12.0
 20
9.0
  9
$UNITMODE
 70
     0
  9
$VISRETAIN
 70
     0
  9
$PLINEGEN
 70
     0
  9
$PSLTSCALE
 70
     1
  9
$TREEDEPTH
 70
  3020
  9
$CMLSTYLE
  2
Standard
  9
$CMLJUST
 70
     0
  9
$CMLSCALE
 40
1.0
  9
$PROXYGRAPHICS
 70
     1
  9
$MEASUREMENT
 70
     0
  9
$CELWEIGHT
370
    -1
  9
$ENDCAPS
280
     0
  9
$JOINSTYLE
280
     0
  9
$LWDISPLAY
290
     0
  9
$INSUNITS
 70
     0
  9
$HYPERLINKBASE
  1

  9
$STYLESHEET
  1

  9
$XEDIT
290
     1
  9
$CEPSNTYPE
380
     0
  9
$PSTYLEMODE
290
     1
  9
$FINGERPRINTGUID
  2
{6CE584E4-9913-4507-8BEE-33AFDAD0EFEE}
  9
$VERSIONGUID
  2
{DDB84BFE-7CF4-4630-BE08-F666C68107A1}
  9
$EXTNAMES
290
     1
  9
$PSVPSCALE
 40
0.0
  9
$OLESTARTUP
290
     0
  0
ENDSEC
  0
SECTION
  2
CLASSES
  0
CLASS
  1
ACDBDICTIONARYWDFLT
  2
AcDbDictionaryWithDefault
  3
AutoCAD 2000
 90
        0
280
     0
281
     0
  0
CLASS
  1
ACDBPLACEHOLDER
  2
AcDbPlaceHolder
  3
AutoCAD 2000
 90
        0
280
     0
281
     0
  0
CLASS
  1
LAYOUT
  2
AcDbLayout
  3
AutoCAD 2000
 90
        0
280
     0
281
     0
  0
ENDSEC
  0
SECTION
  2
TABLES
  0
TABLE
  2
VPORT
  5
8
330
0
100
AcDbSymbolTable
 70
     3
  0
VPORT
  5
154
330
8
100
AcDbSymbolTableRecord
100
AcDbViewportTableRecord
  2
*Active
 70
     0
 10
0.0
 20
0.0
 11
1.0
 21
1.0
 12
24.19631763984511
 22
48.26621923368702
 13
0.0
 23
0.0
 14
1.0
 24
1.0
 15
0.0
 25
0.0
 16
0.0
 26
0.0
 36
1.0
 17
0.0
 27
0.0
 37
0.0
 40
30.02706597872725
 41
1.863905325443786
 42
50.0
 43
0.0
 44
0.0
 50
0.0
 51
0.0
 71
     0
 72
   100
 73
     1
 74
     1
 75
     0
 76
     0
 77
     0
 78
     0
281
     0
 65
     1
110
0.0
120
0.0
130
0.0
111
1.0
121
0.0
131
0.0
112
0.0
122
1.0
132
0.0
 79
     0
146
0.0
  0
ENDTAB
  0
TABLE
  2
LTYPE
  5
5
330
0
100
AcDbSymbolTable
 70
     1
  0
LTYPE
  5
13
330
5
100
AcDbSymbolTableRecord
100
AcDbLinetypeTableRecord
  2
ByBlock
 70
     0
  3

 72
    65
 73
     0
 40
0.0
  0
LTYPE
  5
14
330
5
100
AcDbSymbolTableRecord
100
AcDbLinetypeTableRecord
  2
ByLayer
 70
     0
  3

 72
    65
 73
     0
 40
0.0
  0
LTYPE
  5
15
330
5
100
AcDbSymbolTableRecord
100
AcDbLinetypeTableRecord
  2
CONTINUOUS
 70
     0
  3
実線
 72
    65
 73
     0
 40
0.0
  0
ENDTAB
  0
TABLE
  2
LAYER
  5
2
330
0
100
AcDbSymbolTable
 70
     6
  0
LAYER
  5
10
330
2
100
AcDbSymbolTableRecord
100
AcDbLayerTableRecord
  2
0
 70
     0
 62
     7
  6
CONTINUOUS
370
    -3
390
F
  0
LAYER
  5
24
330
2
100
AcDbSymbolTableRecord
100
AcDbLayerTableRecord
  2
L0_
 70
     0
 62
     7
  6
CONTINUOUS
370
    -3
390
F
  0
LAYER
  5
25
330
2
100
AcDbSymbolTableRecord
100
AcDbLayerTableRecord
  2
L220_
 70
     0
 62
     7
  6
CONTINUOUS
370
    -3
390
F
  0
LAYER
  5
26
330
2
100
AcDbSymbolTableRecord
100
AcDbLayerTableRecord
  2
L200_
 70
     0
 62
     7
  6
CONTINUOUS
370
    -3
390
F
  0
LAYER
  5
27
330
2
100
AcDbSymbolTableRecord
100
AcDbLayerTableRecord
  2
L210_
 70
     0
 62
     7
  6
CONTINUOUS
370
    -3
390
F
  0
LAYER
  5
28
330
2
100
AcDbSymbolTableRecord
100
AcDbLayerTableRecord
  2
VPORT-BORDERS
 70
     0
 62
     7
  6
CONTINUOUS
370
    -3
390
F
  0
ENDTAB
  0
TABLE
  2
STYLE
  5
3
330
0
100
AcDbSymbolTable
 70
     2
  0
STYLE
  5
11
330
3
100
AcDbSymbolTableRecord
100
AcDbTextStyleTableRecord
  2
STANDARD
 70
     0
 40
0.0
 41
1.0
 50
0.0
 71
     0
 42
0.2
  3
txt
  4

  0
STYLE
  5
22
330
3
100
AcDbSymbolTableRecord
100
AcDbTextStyleTableRecord
  2
LEROY
 70
     0
 40
0.0
 41
1.0
 50
0.0
 71
     0
 42
0.2
  3
txt
  4

  0
ENDTAB
  0
TABLE
  2
VIEW
  5
6
330
0
100
AcDbSymbolTable
 70
     1
  0
VIEW
  5
29
330
6
100
AcDbSymbolTableRecord
100
AcDbViewTableRecord
  2
V3
 70
     0
 40
420.0
 10
0.0
 20
0.0
 41
594.0
 11
0.0
 21
0.0
 31
1.0
 12
0.0
 22
0.0
 32
0.0
 42
50.0
 43
0.0
 44
0.0
 50
0.0
 71
     0
281
     0
 72
     0
  0
ENDTAB
  0
TABLE
  2
UCS
  5
7
330
0
100
AcDbSymbolTable
 70
     0
  0
ENDTAB
  0
TABLE
  2
APPID
  5
9
330
0
100
AcDbSymbolTable
 70
     1
  0
APPID
  5
12
330
9
100
AcDbSymbolTableRecord
100
AcDbRegAppTableRecord
  2
ACAD
 70
     0
  0
ENDTAB
  0
TABLE
  2
DIMSTYLE
  5
A
330
0
100
AcDbSymbolTable
 70
     1
100
AcDbDimStyleTable
 71
     0
  0
DIMSTYLE
105
14B
330
A
100
AcDbSymbolTableRecord
100
AcDbDimStyleTableRecord
  2
Standard
 70
     0
340
11
  0
ENDTAB
  0
TABLE
  2
BLOCK_RECORD
  5
1
330
0
100
AcDbSymbolTable
 70
     1
  0
BLOCK_RECORD
  5
1E
330
1
100
AcDbSymbolTableRecord
100
AcDbBlockTableRecord
  2
*Model_Space
340
21
  0
BLOCK_RECORD
  5
1A
330
1
100
AcDbSymbolTableRecord
100
AcDbBlockTableRecord
  2
*Paper_Space
340
1D
  0
ENDTAB
  0
ENDSEC
  0
SECTION
  2
BLOCKS
  0
BLOCK
  5
1F
330
1E
100
AcDbEntity
  8
0
100
AcDbBlockBegin
  2
*Model_Space
 70
     0
 10
0.0
 20
0.0
 30
0.0
  3
*Model_Space
  1

  0
ENDBLK
  5
20
330
1E
100
AcDbEntity
  8
0
100
AcDbBlockEnd
  0
BLOCK
  5
1B
330
1A
100
AcDbEntity
 67
     1
  8
0
100
AcDbBlockBegin
  2
*Paper_Space
 70
     0
 10
0.0
 20
0.0
 30
0.0
  3
*Paper_Space
  1

  0
ENDBLK
  5
1C
330
1A
100
AcDbEntity
 67
     1
  8
0
100
AcDbBlockEnd
  0
ENDSEC
  0
SECTION
  2
ENTITIES
  0
LINE
  5
2B
330
1E
100
AcDbEntity
  8
L0_
  6
Continuous
 62
     2
100
AcDbLine
 10
130.49295
 20
190.8282469999999
 30
0.0
 11
130.49295
 21
107.4647059999999
 31
0.0
  0
LINE
  5
2C
330
1E
100
AcDbEntity
  8
L0_
  6
Continuous
 62
     2
100
AcDbLine
 10
130.49295
 20
107.4647059999999
 30
0.0
 11
138.1353
 21
107.4647059999999
 31
0.0
  0
LINE
  5
2D
330
1E
100
AcDbEntity
  8
L0_
  6
Continuous
 62
     2
100
AcDbLine
 10
138.1353
 20
107.4647059999999
 30
0.0
 11
138.1353
 21
71.70706199999999
 31
0.0
  0
LINE
  5
2E
330
1E
100
AcDbEntity
  8
L0_
  6
Continuous
 62
     2
100
AcDbLine
 10
138.1353
 20
71.70706199999999
 30
0.0
 11
202.2423709999999
 21
71.70706199999999
 31
0.0
  0
LINE
  5
2F
330
1E
100
AcDbEntity
  8
L220_
  6
Continuous
 62
     1
100
AcDbLine
 10
158.6122129999999
 20
168.1349949999999
 30
0.0
 11
159.133148
 21
171.0894169999999
 31
0.0
  0
LINE
  5
30
330
1E
100
AcDbEntity
  8
L220_
  6
Continuous
 62
     1
100
AcDbLine
 10
158.6122129999999
 20
168.1349949999999
 30
0.0
 11
158.091263
 21
171.0894169999999
 31
0.0
  0
LINE
  5
31
330
1E
100
AcDbEntity
  8
L220_
  6
Continuous
 62
     1
100
AcDbLine
 10
158.6122129999999
 20
201.906784
 30
0.0
 11
158.091263
 21
198.952362
 31
0.0
  0
LINE
  5
32
330
1E
100
AcDbEntity
  8
L220_
  6
Continuous
 62
     1
100
AcDbLine
 10
158.6122129999999
 20
168.1349949999999
 30
0.0
 11
158.091263
 21
171.0894169999999
 31
0.0
  0
LINE
  5
33
330
1E
100
AcDbEntity
  8
L220_
  6
Continuous
 62
     1
100
AcDbLine
 10
158.6122129999999
 20
201.906784
 30
0.0
 11
159.133148
 21
198.952362
 31
0.0
  0
LINE
  5
34
330
1E
100
AcDbEntity
  8
L220_
  6
Continuous
 62
     1
100
AcDbLine
 10
158.6122129999999
 20
201.906784
 30
0.0
 11
158.6122129999999
 21
168.1349949999999
 31
0.0
  0
POINT
  5
35
330
1E
100
AcDbEntity
  8
L220_
  6
Continuous
 62
     1
100
AcDbPoint
 10
125.070999
 20
188.839706
 30
0.0
  0
POINT
  5
36
330
1E
100
AcDbEntity
  8
L220_
  6
Continuous
 62
     1
100
AcDbPoint
 10
125.070999
 20
168.1349949999999
 30
0.0
  0
POINT
  5
37
330
1E
100
AcDbEntity
  8
L220_
  6
Continuous
 62
     1
100
AcDbPoint
 10
125.070999
 20
181.199707
 30
0.0
  0
POINT
  5
38
330
1E
100
AcDbEntity
  8
L220_
  6
Continuous
 62
     1
100
AcDbPoint
 10
125.070999
 20
194.26442
 30
0.0
  0
POINT
  5
39
330
1E
100
AcDbEntity
  8
L220_
  6
Continuous
 62
     1
100
AcDbPoint
 10
125.070999
 20
201.906784
 30
0.0
  0
LINE
  5
3A
330
1E
100
AcDbEntity
  8
L220_
  6
Continuous
 62
     1
100
AcDbLine
 10
134.699005
 20
133.5941159999999
 30
0.0
 11
131.744583
 21
134.115051
 31
0.0
  0
LINE
  5
3B
330
1E
100
AcDbEntity
  8
L220_
  6
Continuous
 62
     1
100
AcDbLine
 10
134.699005
 20
133.5941159999999
 30
0.0
 11
131.744583
 21
133.0731659999999
 31
0.0
  0
LINE
  5
3C
330
1E
100
AcDbEntity
  8
L220_
  6
Continuous
 62
     1
100
AcDbLine
 10
104.362999
 20
133.5941159999999
 30
0.0
 11
107.3174209999999
 21
134.1150669999999
 31
0.0
  0
LINE
  5
3D
330
1E
100
AcDbEntity
  8
L220_
  6
Continuous
 62
     1
100
AcDbLine
 10
104.362999
 20
133.5941159999999
 30
0.0
 11
107.3174209999999
 21
133.073181
 31
0.0
  0
LINE
  5
3E
330
1E
100
AcDbEntity
  8
L220_
  6
Continuous
 62
     1
100
AcDbLine
 10
158.611603
 20
94.40000899999999
 30
0.0
 11
159.1325529999999
 21
97.35443100000001
 31
0.0
  0
LINE
  5
3F
330
1E
100
AcDbEntity
  8
L220_
  6
Continuous
 62
     1
100
AcDbLine
 10
158.611603
 20
94.40000899999999
 30
0.0
 11
158.090668
 21
97.35443100000001
 31
0.0
  0
LINE
  5
40
330
1E
100
AcDbEntity
  8
L220_
  6
Continuous
 62
     1
100
AcDbLine
 10
158.611603
 20
94.40000899999999
 30
0.0
 11
158.090668
 21
97.35443100000001
 31
0.0
  0
LINE
  5
41
330
1E
100
AcDbEntity
  8
L220_
  6
Continuous
 62
     1
100
AcDbLine
 10
158.611603
 20
115.1070709999999
 30
0.0
 11
158.090668
 21
112.1526489999999
 31
0.0
  0
LINE
  5
42
330
1E
100
AcDbEntity
  8
L220_
  6
Continuous
 62
     1
100
AcDbLine
 10
158.611603
 20
115.1070709999999
 30
0.0
 11
159.1325529999999
 21
112.1526489999999
 31
0.0
  0
LINE
  5
43
330
1E
100
AcDbEntity
  8
L220_
  6
Continuous
 62
     1
100
AcDbLine
 10
125.0699999999999
 20
124.735313
 30
0.0
 11
125.0699999999999
 21
133.5941159999999
 31
0.0
  0
LINE
  5
44
330
1E
100
AcDbEntity
  8
L220_
  6
Continuous
 62
     1
100
AcDbLine
 10
158.611603
 20
115.1070709999999
 30
0.0
 11
158.611603
 21
94.40000899999999
 31
0.0
  0
LINE
  5
45
330
1E
100
AcDbEntity
  8
L220_
  6
Continuous
 62
     1
100
AcDbLine
 10
104.362999
 20
133.5941159999999
 30
0.0
 11
134.699005
 21
133.5941159999999
 31
0.0
  0
LINE
  5
46
330
1E
100
AcDbEntity
  8
L220_
  6
Continuous
 62
     1
100
AcDbLine
 10
134.699005
 20
124.735313
 30
0.0
 11
134.699005
 21
134.5941159999999
 31
0.0
  0
LINE
  5
47
330
1E
100
AcDbEntity
  8
L220_
  6
Continuous
 62
     1
100
AcDbLine
 10
130.493011
 20
124.735313
 30
0.0
 11
130.493011
 21
133.5941159999999
 31
0.0
  0
LINE
  5
48
330
1E
100
AcDbEntity
  8
L220_
  6
Continuous
 62
     1
100
AcDbLine
 10
117.4280009999999
 20
124.735313
 30
0.0
 11
117.4280009999999
 21
133.5941159999999
 31
0.0
  0
LINE
  5
49
330
1E
100
AcDbEntity
  8
L220_
  6
Continuous
 62
     1
100
AcDbLine
 10
104.362999
 20
124.735313
 30
0.0
 11
104.362999
 21
134.5941159999999
 31
0.0
  0
LINE
  5
4A
330
1E
100
AcDbEntity
  8
L220_
  6
Continuous
 62
     1
100
AcDbLine
 10
167.471008
 20
181.199249
 30
0.0
 11
158.6122129999999
 21
181.199249
 31
0.0
  0
LINE
  5
4B
330
1E
100
AcDbEntity
  8
L220_
  6
Continuous
 62
     1
100
AcDbLine
 10
167.471008
 20
201.907074
 30
0.0
 11
157.6122129999999
 21
201.907074
 31
0.0
  0
LINE
  5
4C
330
1E
100
AcDbEntity
  8
L220_
  6
Continuous
 62
     1
100
AcDbLine
 10
167.471008
 20
194.2646029999999
 30
0.0
 11
158.6122129999999
 21
194.2646029999999
 31
0.0
  0
LINE
  5
4D
330
1E
100
AcDbEntity
  8
L220_
  6
Continuous
 62
     1
100
AcDbLine
 10
167.471008
 20
188.8392939999999
 30
0.0
 11
158.6122129999999
 21
188.8392939999999
 31
0.0
  0
LINE
  5
4E
330
1E
100
AcDbEntity
  8
L220_
  6
Continuous
 62
     1
100
AcDbLine
 10
167.471008
 20
168.134598
 30
0.0
 11
157.6122129999999
 21
168.134598
 31
0.0
  0
LINE
  5
4F
330
1E
100
AcDbEntity
  8
L220_
  6
Continuous
 62
     1
100
AcDbLine
 10
167.4703979999999
 20
111.6698909999999
 30
0.0
 11
158.611603
 21
111.6698909999999
 31
0.0
  0
LINE
  5
50
330
1E
100
AcDbEntity
  8
L220_
  6
Continuous
 62
     1
100
AcDbLine
 10
167.4703979999999
 20
102.040001
 30
0.0
 11
158.611603
 21
102.040001
 31
0.0
  0
LINE
  5
51
330
1E
100
AcDbEntity
  8
L220_
  6
Continuous
 62
     1
100
AcDbLine
 10
167.4703979999999
 20
115.1070629999999
 30
0.0
 11
157.611603
 21
115.1070629999999
 31
0.0
  0
LINE
  5
52
330
1E
100
AcDbEntity
  8
L220_
  6
Continuous
 62
     1
100
AcDbLine
 10
167.4703979999999
 20
107.4647059999999
 30
0.0
 11
158.611603
 21
107.4647059999999
 31
0.0
  0
LINE
  5
53
330
1E
100
AcDbEntity
  8
L220_
  6
Continuous
 62
     1
100
AcDbLine
 10
167.4703979999999
 20
94.400002
 30
0.0
 11
157.611603
 21
94.400002
 31
0.0
  0
LINE
  5
54
330
1E
100
AcDbEntity
  8
L200_
  6
Continuous
 62
     7
100
AcDbLine
 10
21.0
 20
311.400024
 30
0.0
 11
21.0
 21
51.0
 31
0.0
  0
LINE
  5
55
330
1E
100
AcDbEntity
  8
L200_
  6
Continuous
 62
     7
100
AcDbLine
 10
202.2423709999999
 20
51.0
 30
0.0
 11
21.0
 21
51.0
 31
0.0
  0
LINE
  5
56
330
1E
100
AcDbEntity
  8
L220_
  6
Continuous
 62
     1
100
AcDbLine
 10
138.13501
 20
90.19409899999999
 30
0.0
 11
135.180588
 21
90.715034
 31
0.0
  0
LINE
  5
57
330
1E
100
AcDbEntity
  8
L220_
  6
Continuous
 62
     1
100
AcDbLine
 10
138.13501
 20
90.19409899999999
 30
0.0
 11
135.180588
 21
89.67314899999999
 31
0.0
  0
LINE
  5
58
330
1E
100
AcDbEntity
  8
L220_
  6
Continuous
 62
     1
100
AcDbLine
 10
112.0056989999999
 20
90.19409899999999
 30
0.0
 11
114.9601209999999
 21
90.71505
 31
0.0
  0
LINE
  5
59
330
1E
100
AcDbEntity
  8
L220_
  6
Continuous
 62
     1
100
AcDbLine
 10
112.0056989999999
 20
90.19409899999999
 30
0.0
 11
114.9601209999999
 21
89.67316399999999
 31
0.0
  0
LINE
  5
5A
330
1E
100
AcDbEntity
  8
L220_
  6
Continuous
 62
     1
100
AcDbLine
 10
112.0056989999999
 20
90.19409899999999
 30
0.0
 11
138.13501
 21
90.19409899999999
 31
0.0
  0
LINE
  5
5B
330
1E
100
AcDbEntity
  8
L220_
  6
Continuous
 62
     1
100
AcDbLine
 10
138.13501
 20
81.33528899999999
 30
0.0
 11
138.13501
 21
91.19409899999999
 31
0.0
  0
LINE
  5
5C
330
1E
100
AcDbEntity
  8
L220_
  6
Continuous
 62
     1
100
AcDbLine
 10
132.712997
 20
81.33528899999999
 30
0.0
 11
132.712997
 21
90.19409899999999
 31
0.0
  0
LINE
  5
5D
330
1E
100
AcDbEntity
  8
L220_
  6
Continuous
 62
     1
100
AcDbLine
 10
112.0056989999999
 20
81.33528899999999
 30
0.0
 11
112.0056989999999
 21
91.19409899999999
 31
0.0
  0
LINE
  5
5E
330
1E
100
AcDbEntity
  8
L220_
  6
Continuous
 62
     1
100
AcDbLine
 10
125.0699999999999
 20
81.33528899999999
 30
0.0
 11
125.0699999999999
 21
90.19409899999999
 31
0.0
  0
POLYLINE
  5
5F
330
1E
100
AcDbEntity
  8
L0_
  6
Continuous
 62
     2
100
AcDb3dPolyline
 66
     1
 10
0.0
 20
0.0
 30
0.0
 70
     8
  0
VERTEX
  5
60
330
5F
100
AcDbEntity
  8
L0_
  6
Continuous
 62
     2
100
AcDbVertex
100
AcDb3dPolylineVertex
 10
93.93312100000001
 20
311.400024
 30
0.0
 70
    32
  0
VERTEX
  5
61
330
5F
100
AcDbEntity
  8
L0_
  6
Continuous
 62
     2
100
AcDbVertex
100
AcDb3dPolylineVertex
 10
93.93312100000001
 20
256.477661
 30
0.0
 70
    32
  0
VERTEX
  5
62
330
5F
100
AcDbEntity
  8
L0_
  6
Continuous
 62
     2
100
AcDbVertex
100
AcDb3dPolylineVertex
 10
94.933121
 20
249.356934
 30
0.0
 70
    32
  0
VERTEX
  5
63
330
5F
100
AcDbEntity
  8
L0_
  6
Continuous
 62
     2
100
AcDbVertex
100
AcDb3dPolylineVertex
 10
95.933121
 20
243.702591
 30
0.0
 70
    32
  0
VERTEX
  5
64
330
5F
100
AcDbEntity
  8
L0_
  6
Continuous
 62
     2
100
AcDbVertex
100
AcDb3dPolylineVertex
 10
96.93312099999999
 20
238.929489
 30
0.0
 70
    32
  0
VERTEX
  5
65
330
5F
100
AcDbEntity
  8
L0_
  6
Continuous
 62
     2
100
AcDbVertex
100
AcDb3dPolylineVertex
 10
97.93312100000001
 20
234.7423099999999
 30
0.0
 70
    32
  0
VERTEX
  5
66
330
5F
100
AcDbEntity
  8
L0_
  6
Continuous
 62
     2
100
AcDbVertex
100
AcDb3dPolylineVertex
 10
98.93312100000001
 20
230.971054
 30
0.0
 70
    32
  0
VERTEX
  5
67
330
5F
100
AcDbEntity
  8
L0_
  6
Continuous
 62
     2
100
AcDbVertex
100
AcDb3dPolylineVertex
 10
99.933121
 20
227.508881
 30
0.0
 70
    32
  0
VERTEX
  5
68
330
5F
100
AcDbEntity
  8
L0_
  6
Continuous
 62
     2
100
AcDbVertex
100
AcDb3dPolylineVertex
 10
100.933121
 20
224.284271
 30
0.0
 70
    32
  0
VERTEX
  5
69
330
5F
100
AcDbEntity
  8
L0_
  6
Continuous
 62
     2
100
AcDbVertex
100
AcDb3dPolylineVertex
 10
101.933121
 20
221.2470399999999
 30
0.0
 70
    32
  0
VERTEX
  5
6A
330
5F
100
AcDbEntity
  8
L0_
  6
Continuous
 62
     2
100
AcDbVertex
100
AcDb3dPolylineVertex
 10
102.933121
 20
218.3606109999999
 30
0.0
 70
    32
  0
VERTEX
  5
6B
330
5F
100
AcDbEntity
  8
L0_
  6
Continuous
 62
     2
100
AcDbVertex
100
AcDb3dPolylineVertex
 10
103.933121
 20
215.5975339999999
 30
0.0
 70
    32
  0
VERTEX
  5
6C
330
5F
100
AcDbEntity
  8
L0_
  6
Continuous
 62
     2
100
AcDbVertex
100
AcDb3dPolylineVertex
 10
104.933121
 20
212.9367069999999
 30
0.0
 70
    32
  0
VERTEX
  5
6D
330
5F
100
AcDbEntity
  8
L0_
  6
Continuous
 62
     2
100
AcDbVertex
100
AcDb3dPolylineVertex
 10
105.933121
 20
210.361572
 30
0.0
 70
    32
  0
VERTEX
  5
6E
330
5F
100
AcDbEntity
  8
L0_
  6
Continuous
 62
     2
100
AcDbVertex
100
AcDb3dPolylineVertex
 10
106.933121
 20
207.8589169999999
 30
0.0
 70
    32
  0
VERTEX
  5
6F
330
5F
100
AcDbEntity
  8
L0_
  6
Continuous
 62
     2
100
AcDbVertex
100
AcDb3dPolylineVertex
 10
107.933121
 20
205.41803
 30
0.0
 70
    32
  0
VERTEX
  5
70
330
5F
100
AcDbEntity
  8
L0_
  6
Continuous
 62
     2
100
AcDbVertex
100
AcDb3dPolylineVertex
 10
108.933121
 20
203.030151
 30
0.0
 70
    32
  0
VERTEX
  5
71
330
5F
100
AcDbEntity
  8
L0_
  6
Continuous
 62
     2
100
AcDbVertex
100
AcDb3dPolylineVertex
 10
109.933121
 20
200.6880039999999
 30
0.0
 70
    32
  0
VERTEX
  5
72
330
5F
100
AcDbEntity
  8
L0_
  6
Continuous
 62
     2
100
AcDbVertex
100
AcDb3dPolylineVertex
 10
110.933121
 20
198.3855289999999
 30
0.0
 70
    32
  0
VERTEX
  5
73
330
5F
100
AcDbEntity
  8
L0_
  6
Continuous
 62
     2
100
AcDbVertex
100
AcDb3dPolylineVertex
 10
111.933121
 20
196.117584
 30
0.0
 70
    32
  0
VERTEX
  5
74
330
5F
100
AcDbEntity
  8
L0_
  6
Continuous
 62
     2
100
AcDbVertex
100
AcDb3dPolylineVertex
 10
112.9331209999999
 20
193.8798219999999
 30
0.0
 70
    32
  0
VERTEX
  5
75
330
5F
100
AcDbEntity
  8
L0_
  6
Continuous
 62
     2
100
AcDbVertex
100
AcDb3dPolylineVertex
 10
113.9331209999999
 20
191.6685329999999
 30
0.0
 70
    32
  0
VERTEX
  5
76
330
5F
100
AcDbEntity
  8
L0_
  6
Continuous
 62
     2
100
AcDbVertex
100
AcDb3dPolylineVertex
 10
114.9331209999999
 20
189.480515
 30
0.0
 70
    32
  0
VERTEX
  5
77
330
5F
100
AcDbEntity
  8
L0_
  6
Continuous
 62
     2
100
AcDbVertex
100
AcDb3dPolylineVertex
 10
115.9331209999999
 20
187.3130189999999
 30
0.0
 70
    32
  0
VERTEX
  5
78
330
5F
100
AcDbEntity
  8
L0_
  6
Continuous
 62
     2
100
AcDbVertex
100
AcDb3dPolylineVertex
 10
116.9331209999999
 20
185.1636349999999
 30
0.0
 70
    32
  0
VERTEX
  5
79
330
5F
100
AcDbEntity
  8
L0_
  6
Continuous
 62
     2
100
AcDbVertex
100
AcDb3dPolylineVertex
 10
117.9331209999999
 20
183.030304
 30
0.0
 70
    32
  0
VERTEX
  5
7A
330
5F
100
AcDbEntity
  8
L0_
  6
Continuous
 62
     2
100
AcDbVertex
100
AcDb3dPolylineVertex
 10
118.9331209999999
 20
180.911194
 30
0.0
 70
    32
  0
VERTEX
  5
7B
330
5F
100
AcDbEntity
  8
L0_
  6
Continuous
 62
     2
100
AcDbVertex
100
AcDb3dPolylineVertex
 10
119.9331209999999
 20
178.8047179999999
 30
0.0
 70
    32
  0
VERTEX
  5
7C
330
5F
100
AcDbEntity
  8
L0_
  6
Continuous
 62
     2
100
AcDbVertex
100
AcDb3dPolylineVertex
 10
120.9331209999999
 20
176.709457
 30
0.0
 70
    32
  0
VERTEX
  5
7D
330
5F
100
AcDbEntity
  8
L0_
  6
Continuous
 62
     2
100
AcDbVertex
100
AcDb3dPolylineVertex
 10
121.9331209999999
 20
174.624207
 30
0.0
 70
    32
  0
VERTEX
  5
7E
330
5F
100
AcDbEntity
  8
L0_
  6
Continuous
 62
     2
100
AcDbVertex
100
AcDb3dPolylineVertex
 10
122.933121
 20
172.547867
 30
0.0
 70
    32
  0
VERTEX
  5
7F
330
5F
100
AcDbEntity
  8
L0_
  6
Continuous
 62
     2
100
AcDbVertex
100
AcDb3dPolylineVertex
 10
123.933121
 20
170.479477
 30
0.0
 70
    32
  0
VERTEX
  5
80
330
5F
100
AcDbEntity
  8
L0_
  6
Continuous
 62
     2
100
AcDbVertex
100
AcDb3dPolylineVertex
 10
124.933121
 20
168.418182
 30
0.0
 70
    32
  0
VERTEX
  5
81
330
5F
100
AcDbEntity
  8
L0_
  6
Continuous
 62
     2
100
AcDbVertex
100
AcDb3dPolylineVertex
 10
125.933121
 20
166.3632199999999
 30
0.0
 70
    32
  0
VERTEX
  5
82
330
5F
100
AcDbEntity
  8
L0_
  6
Continuous
 62
     2
100
AcDbVertex
100
AcDb3dPolylineVertex
 10
126.933121
 20
164.313934
 30
0.0
 70
    32
  0
VERTEX
  5
83
330
5F
100
AcDbEntity
  8
L0_
  6
Continuous
 62
     2
100
AcDbVertex
100
AcDb3dPolylineVertex
 10
127.933121
 20
162.2697139999999
 30
0.0
 70
    32
  0
VERTEX
  5
84
330
5F
100
AcDbEntity
  8
L0_
  6
Continuous
 62
     2
100
AcDbVertex
100
AcDb3dPolylineVertex
 10
128.933121
 20
160.2300419999999
 30
0.0
 70
    32
  0
VERTEX
  5
85
330
5F
100
AcDbEntity
  8
L0_
  6
Continuous
 62
     2
100
AcDbVertex
100
AcDb3dPolylineVertex
 10
129.933121
 20
158.1944269999999
 30
0.0
 70
    32
  0
VERTEX
  5
86
330
5F
100
AcDbEntity
  8
L0_
  6
Continuous
 62
     2
100
AcDbVertex
100
AcDb3dPolylineVertex
 10
130.49295
 20
157.056473
 30
0.0
 70
    32
  0
SEQEND
  5
87
330
5F
100
AcDbEntity
  8
L0_
  6
Continuous
 62
     2
  0
POLYLINE
  5
88
330
1E
100
AcDbEntity
  8
L0_
  6
Continuous
 62
     2
100
AcDb3dPolyline
 66
     1
 10
0.0
 20
0.0
 30
0.0
 70
     8
  0
VERTEX
  5
89
330
88
100
AcDbEntity
  8
L0_
  6
Continuous
 62
     2
100
AcDbVertex
100
AcDb3dPolylineVertex
 10
93.93312100000001
 20
311.400024
 30
0.0
 70
    32
  0
VERTEX
  5
8A
330
88
100
AcDbEntity
  8
L0_
  6
Continuous
 62
     2
100
AcDbVertex
100
AcDb3dPolylineVertex
 10
93.93312100000001
 20
269.542358
 30
0.0
 70
    32
  0
VERTEX
  5
8B
330
88
100
AcDbEntity
  8
L0_
  6
Continuous
 62
     2
100
AcDbVertex
100
AcDb3dPolylineVertex
 10
94.933121
 20
262.4216309999999
 30
0.0
 70
    32
  0
VERTEX
  5
8C
330
88
100
AcDbEntity
  8
L0_
  6
Continuous
 62
     2
100
AcDbVertex
100
AcDb3dPolylineVertex
 10
95.933121
 20
256.7672729999999
 30
0.0
 70
    32
  0
VERTEX
  5
8D
330
88
100
AcDbEntity
  8
L0_
  6
Continuous
 62
     2
100
AcDbVertex
100
AcDb3dPolylineVertex
 10
96.93312099999999
 20
251.9941859999999
 30
0.0
 70
    32
  0
VERTEX
  5
8E
330
88
100
AcDbEntity
  8
L0_
  6
Continuous
 62
     2
100
AcDbVertex
100
AcDb3dPolylineVertex
 10
97.93312100000001
 20
247.8070069999999
 30
0.0
 70
    32
  0
VERTEX
  5
8F
330
88
100
AcDbEntity
  8
L0_
  6
Continuous
 62
     2
100
AcDbVertex
100
AcDb3dPolylineVertex
 10
98.93312100000001
 20
244.0357509999999
 30
0.0
 70
    32
  0
VERTEX
  5
90
330
88
100
AcDbEntity
  8
L0_
  6
Continuous
 62
     2
100
AcDbVertex
100
AcDb3dPolylineVertex
 10
99.933121
 20
240.5735779999999
 30
0.0
 70
    32
  0
VERTEX
  5
91
330
88
100
AcDbEntity
  8
L0_
  6
Continuous
 62
     2
100
AcDbVertex
100
AcDb3dPolylineVertex
 10
100.933121
 20
237.3489839999999
 30
0.0
 70
    32
  0
VERTEX
  5
92
330
88
100
AcDbEntity
  8
L0_
  6
Continuous
 62
     2
100
AcDbVertex
100
AcDb3dPolylineVertex
 10
101.933121
 20
234.311752
 30
0.0
 70
    32
  0
VERTEX
  5
93
330
88
100
AcDbEntity
  8
L0_
  6
Continuous
 62
     2
100
AcDbVertex
100
AcDb3dPolylineVertex
 10
102.933121
 20
231.4253229999999
 30
0.0
 70
    32
  0
VERTEX
  5
94
330
88
100
AcDbEntity
  8
L0_
  6
Continuous
 62
     2
100
AcDbVertex
100
AcDb3dPolylineVertex
 10
103.933121
 20
228.662247
 30
0.0
 70
    32
  0
VERTEX
  5
95
330
88
100
AcDbEntity
  8
L0_
  6
Continuous
 62
     2
100
AcDbVertex
100
AcDb3dPolylineVertex
 10
104.933121
 20
226.001419
 30
0.0
 70
    32
  0
VERTEX
  5
96
330
88
100
AcDbEntity
  8
L0_
  6
Continuous
 62
     2
100
AcDbVertex
100
AcDb3dPolylineVertex
 10
105.933121
 20
223.42627
 30
0.0
 70
    32
  0
VERTEX
  5
97
330
88
100
AcDbEntity
  8
L0_
  6
Continuous
 62
     2
100
AcDbVertex
100
AcDb3dPolylineVertex
 10
106.933121
 20
220.9236149999999
 30
0.0
 70
    32
  0
VERTEX
  5
98
330
88
100
AcDbEntity
  8
L0_
  6
Continuous
 62
     2
100
AcDbVertex
100
AcDb3dPolylineVertex
 10
107.933121
 20
218.4827269999999
 30
0.0
 70
    32
  0
VERTEX
  5
99
330
88
100
AcDbEntity
  8
L0_
  6
Continuous
 62
     2
100
AcDbVertex
100
AcDb3dPolylineVertex
 10
108.933121
 20
216.0948489999999
 30
0.0
 70
    32
  0
VERTEX
  5
9A
330
88
100
AcDbEntity
  8
L0_
  6
Continuous
 62
     2
100
AcDbVertex
100
AcDb3dPolylineVertex
 10
109.933121
 20
213.7527009999999
 30
0.0
 70
    32
  0
VERTEX
  5
9B
330
88
100
AcDbEntity
  8
L0_
  6
Continuous
 62
     2
100
AcDbVertex
100
AcDb3dPolylineVertex
 10
110.933121
 20
211.450226
 30
0.0
 70
    32
  0
VERTEX
  5
9C
330
88
100
AcDbEntity
  8
L0_
  6
Continuous
 62
     2
100
AcDbVertex
100
AcDb3dPolylineVertex
 10
111.933121
 20
209.182281
 30
0.0
 70
    32
  0
VERTEX
  5
9D
330
88
100
AcDbEntity
  8
L0_
  6
Continuous
 62
     2
100
AcDbVertex
100
AcDb3dPolylineVertex
 10
112.9331209999999
 20
206.944534
 30
0.0
 70
    32
  0
VERTEX
  5
9E
330
88
100
AcDbEntity
  8
L0_
  6
Continuous
 62
     2
100
AcDbVertex
100
AcDb3dPolylineVertex
 10
113.9331209999999
 20
204.733231
 30
0.0
 70
    32
  0
VERTEX
  5
9F
330
88
100
AcDbEntity
  8
L0_
  6
Continuous
 62
     2
100
AcDbVertex
100
AcDb3dPolylineVertex
 10
114.9331209999999
 20
202.545212
 30
0.0
 70
    32
  0
VERTEX
  5
A0
330
88
100
AcDbEntity
  8
L0_
  6
Continuous
 62
     2
100
AcDbVertex
100
AcDb3dPolylineVertex
 10
115.9331209999999
 20
200.3777159999999
 30
0.0
 70
    32
  0
VERTEX
  5
A1
330
88
100
AcDbEntity
  8
L0_
  6
Continuous
 62
     2
100
AcDbVertex
100
AcDb3dPolylineVertex
 10
116.9331209999999
 20
198.228348
 30
0.0
 70
    32
  0
VERTEX
  5
A2
330
88
100
AcDbEntity
  8
L0_
  6
Continuous
 62
     2
100
AcDbVertex
100
AcDb3dPolylineVertex
 10
117.9331209999999
 20
196.0950009999999
 30
0.0
 70
    32
  0
VERTEX
  5
A3
330
88
100
AcDbEntity
  8
L0_
  6
Continuous
 62
     2
100
AcDbVertex
100
AcDb3dPolylineVertex
 10
118.9331209999999
 20
193.9758909999999
 30
0.0
 70
    32
  0
VERTEX
  5
A4
330
88
100
AcDbEntity
  8
L0_
  6
Continuous
 62
     2
100
AcDbVertex
100
AcDb3dPolylineVertex
 10
119.9331209999999
 20
191.869415
 30
0.0
 70
    32
  0
VERTEX
  5
A5
330
88
100
AcDbEntity
  8
L0_
  6
Continuous
 62
     2
100
AcDbVertex
100
AcDb3dPolylineVertex
 10
120.9331209999999
 20
189.774155
 30
0.0
 70
    32
  0
VERTEX
  5
A6
330
88
100
AcDbEntity
  8
L0_
  6
Continuous
 62
     2
100
AcDbVertex
100
AcDb3dPolylineVertex
 10
121.9331209999999
 20
187.688904
 30
0.0
 70
    32
  0
VERTEX
  5
A7
330
88
100
AcDbEntity
  8
L0_
  6
Continuous
 62
     2
100
AcDbVertex
100
AcDb3dPolylineVertex
 10
122.933121
 20
185.6125639999999
 30
0.0
 70
    32
  0
VERTEX
  5
A8
330
88
100
AcDbEntity
  8
L0_
  6
Continuous
 62
     2
100
AcDbVertex
100
AcDb3dPolylineVertex
 10
123.933121
 20
183.544174
 30
0.0
 70
    32
  0
VERTEX
  5
A9
330
88
100
AcDbEntity
  8
L0_
  6
Continuous
 62
     2
100
AcDbVertex
100
AcDb3dPolylineVertex
 10
124.933121
 20
181.4828799999999
 30
0.0
 70
    32
  0
VERTEX
  5
AA
330
88
100
AcDbEntity
  8
L0_
  6
Continuous
 62
     2
100
AcDbVertex
100
AcDb3dPolylineVertex
 10
125.933121
 20
179.4279169999999
 30
0.0
 70
    32
  0
VERTEX
  5
AB
330
88
100
AcDbEntity
  8
L0_
  6
Continuous
 62
     2
100
AcDbVertex
100
AcDb3dPolylineVertex
 10
126.933121
 20
177.378632
 30
0.0
 70
    32
  0
VERTEX
  5
AC
330
88
100
AcDbEntity
  8
L0_
  6
Continuous
 62
     2
100
AcDbVertex
100
AcDb3dPolylineVertex
 10
127.933121
 20
175.334412
 30
0.0
 70
    32
  0
VERTEX
  5
AD
330
88
100
AcDbEntity
  8
L0_
  6
Continuous
 62
     2
100
AcDbVertex
100
AcDb3dPolylineVertex
 10
128.933121
 20
173.2947389999999
 30
0.0
 70
    32
  0
VERTEX
  5
AE
330
88
100
AcDbEntity
  8
L0_
  6
Continuous
 62
     2
100
AcDbVertex
100
AcDb3dPolylineVertex
 10
129.933121
 20
171.2591399999999
 30
0.0
 70
    32
  0
VERTEX
  5
AF
330
88
100
AcDbEntity
  8
L0_
  6
Continuous
 62
     2
100
AcDbVertex
100
AcDb3dPolylineVertex
 10
130.49295
 20
170.1211849999999
 30
0.0
 70
    32
  0
SEQEND
  5
B0
330
88
100
AcDbEntity
  8
L0_
  6
Continuous
 62
     2
  0
POLYLINE
  5
B1
330
1E
100
AcDbEntity
  8
L0_
  6
Continuous
 62
     2
100
AcDb3dPolyline
 66
     1
 10
0.0
 20
0.0
 30
0.0
 70
     8
  0
VERTEX
  5
B2
330
B1
100
AcDbEntity
  8
L0_
  6
Continuous
 62
     2
100
AcDbVertex
100
AcDb3dPolylineVertex
 10
93.93312100000001
 20
311.400024
 30
0.0
 70
    32
  0
VERTEX
  5
B3
330
B1
100
AcDbEntity
  8
L0_
  6
Continuous
 62
     2
100
AcDbVertex
100
AcDb3dPolylineVertex
 10
93.93312100000001
 20
277.184753
 30
0.0
 70
    32
  0
VERTEX
  5
B4
330
B1
100
AcDbEntity
  8
L0_
  6
Continuous
 62
     2
100
AcDbVertex
100
AcDb3dPolylineVertex
 10
94.933121
 20
270.063995
 30
0.0
 70
    32
  0
VERTEX
  5
B5
330
B1
100
AcDbEntity
  8
L0_
  6
Continuous
 62
     2
100
AcDbVertex
100
AcDb3dPolylineVertex
 10
95.933121
 20
264.409668
 30
0.0
 70
    32
  0
VERTEX
  5
B6
330
B1
100
AcDbEntity
  8
L0_
  6
Continuous
 62
     2
100
AcDbVertex
100
AcDb3dPolylineVertex
 10
96.93312099999999
 20
259.6365359999999
 30
0.0
 70
    32
  0
VERTEX
  5
B7
330
B1
100
AcDbEntity
  8
L0_
  6
Continuous
 62
     2
100
AcDbVertex
100
AcDb3dPolylineVertex
 10
97.93312100000001
 20
255.449371
 30
0.0
 70
    32
  0
VERTEX
  5
B8
330
B1
100
AcDbEntity
  8
L0_
  6
Continuous
 62
     2
100
AcDbVertex
100
AcDb3dPolylineVertex
 10
98.93312100000001
 20
251.678116
 30
0.0
 70
    32
  0
VERTEX
  5
B9
330
B1
100
AcDbEntity
  8
L0_
  6
Continuous
 62
     2
100
AcDbVertex
100
AcDb3dPolylineVertex
 10
99.933121
 20
248.2159419999999
 30
0.0
 70
    32
  0
VERTEX
  5
BA
330
B1
100
AcDbEntity
  8
L0_
  6
Continuous
 62
     2
100
AcDbVertex
100
AcDb3dPolylineVertex
 10
100.933121
 20
244.991333
 30
0.0
 70
    32
  0
VERTEX
  5
BB
330
B1
100
AcDbEntity
  8
L0_
  6
Continuous
 62
     2
100
AcDbVertex
100
AcDb3dPolylineVertex
 10
101.933121
 20
241.954102
 30
0.0
 70
    32
  0
VERTEX
  5
BC
330
B1
100
AcDbEntity
  8
L0_
  6
Continuous
 62
     2
100
AcDbVertex
100
AcDb3dPolylineVertex
 10
102.933121
 20
239.067673
 30
0.0
 70
    32
  0
VERTEX
  5
BD
330
B1
100
AcDbEntity
  8
L0_
  6
Continuous
 62
     2
100
AcDbVertex
100
AcDb3dPolylineVertex
 10
103.933121
 20
236.304596
 30
0.0
 70
    32
  0
VERTEX
  5
BE
330
B1
100
AcDbEntity
  8
L0_
  6
Continuous
 62
     2
100
AcDbVertex
100
AcDb3dPolylineVertex
 10
104.933121
 20
233.643768
 30
0.0
 70
    32
  0
VERTEX
  5
BF
330
B1
100
AcDbEntity
  8
L0_
  6
Continuous
 62
     2
100
AcDbVertex
100
AcDb3dPolylineVertex
 10
105.933121
 20
231.0686339999999
 30
0.0
 70
    32
  0
VERTEX
  5
C0
330
B1
100
AcDbEntity
  8
L0_
  6
Continuous
 62
     2
100
AcDbVertex
100
AcDb3dPolylineVertex
 10
106.933121
 20
228.5659789999999
 30
0.0
 70
    32
  0
VERTEX
  5
C1
330
B1
100
AcDbEntity
  8
L0_
  6
Continuous
 62
     2
100
AcDbVertex
100
AcDb3dPolylineVertex
 10
107.933121
 20
226.125092
 30
0.0
 70
    32
  0
VERTEX
  5
C2
330
B1
100
AcDbEntity
  8
L0_
  6
Continuous
 62
     2
100
AcDbVertex
100
AcDb3dPolylineVertex
 10
108.933121
 20
223.737213
 30
0.0
 70
    32
  0
VERTEX
  5
C3
330
B1
100
AcDbEntity
  8
L0_
  6
Continuous
 62
     2
100
AcDbVertex
100
AcDb3dPolylineVertex
 10
109.933121
 20
221.395065
 30
0.0
 70
    32
  0
VERTEX
  5
C4
330
B1
100
AcDbEntity
  8
L0_
  6
Continuous
 62
     2
100
AcDbVertex
100
AcDb3dPolylineVertex
 10
110.933121
 20
219.0925899999999
 30
0.0
 70
    32
  0
VERTEX
  5
C5
330
B1
100
AcDbEntity
  8
L0_
  6
Continuous
 62
     2
100
AcDbVertex
100
AcDb3dPolylineVertex
 10
111.933121
 20
216.824646
 30
0.0
 70
    32
  0
VERTEX
  5
C6
330
B1
100
AcDbEntity
  8
L0_
  6
Continuous
 62
     2
100
AcDbVertex
100
AcDb3dPolylineVertex
 10
112.9331209999999
 20
214.5868839999999
 30
0.0
 70
    32
  0
VERTEX
  5
C7
330
B1
100
AcDbEntity
  8
L0_
  6
Continuous
 62
     2
100
AcDbVertex
100
AcDb3dPolylineVertex
 10
113.9331209999999
 20
212.375595
 30
0.0
 70
    32
  0
VERTEX
  5
C8
330
B1
100
AcDbEntity
  8
L0_
  6
Continuous
 62
     2
100
AcDbVertex
100
AcDb3dPolylineVertex
 10
114.9331209999999
 20
210.1875759999999
 30
0.0
 70
    32
  0
VERTEX
  5
C9
330
B1
100
AcDbEntity
  8
L0_
  6
Continuous
 62
     2
100
AcDbVertex
100
AcDb3dPolylineVertex
 10
115.9331209999999
 20
208.020081
 30
0.0
 70
    32
  0
VERTEX
  5
CA
330
B1
100
AcDbEntity
  8
L0_
  6
Continuous
 62
     2
100
AcDbVertex
100
AcDb3dPolylineVertex
 10
116.9331209999999
 20
205.870697
 30
0.0
 70
    32
  0
VERTEX
  5
CB
330
B1
100
AcDbEntity
  8
L0_
  6
Continuous
 62
     2
100
AcDbVertex
100
AcDb3dPolylineVertex
 10
117.9331209999999
 20
203.7373659999999
 30
0.0
 70
    32
  0
VERTEX
  5
CC
330
B1
100
AcDbEntity
  8
L0_
  6
Continuous
 62
     2
100
AcDbVertex
100
AcDb3dPolylineVertex
 10
118.9331209999999
 20
201.6182559999999
 30
0.0
 70
    32
  0
VERTEX
  5
CD
330
B1
100
AcDbEntity
  8
L0_
  6
Continuous
 62
     2
100
AcDbVertex
100
AcDb3dPolylineVertex
 10
119.9331209999999
 20
199.51178
 30
0.0
 70
    32
  0
VERTEX
  5
CE
330
B1
100
AcDbEntity
  8
L0_
  6
Continuous
 62
     2
100
AcDbVertex
100
AcDb3dPolylineVertex
 10
120.9331209999999
 20
197.4165189999999
 30
0.0
 70
    32
  0
VERTEX
  5
CF
330
B1
100
AcDbEntity
  8
L0_
  6
Continuous
 62
     2
100
AcDbVertex
100
AcDb3dPolylineVertex
 10
121.9331209999999
 20
195.3312679999999
 30
0.0
 70
    32
  0
VERTEX
  5
D0
330
B1
100
AcDbEntity
  8
L0_
  6
Continuous
 62
     2
100
AcDbVertex
100
AcDb3dPolylineVertex
 10
122.933121
 20
193.254929
 30
0.0
 70
    32
  0
VERTEX
  5
D1
330
B1
100
AcDbEntity
  8
L0_
  6
Continuous
 62
     2
100
AcDbVertex
100
AcDb3dPolylineVertex
 10
123.933121
 20
191.1865389999999
 30
0.0
 70
    32
  0
VERTEX
  5
D2
330
B1
100
AcDbEntity
  8
L0_
  6
Continuous
 62
     2
100
AcDbVertex
100
AcDb3dPolylineVertex
 10
124.933121
 20
189.1252439999999
 30
0.0
 70
    32
  0
VERTEX
  5
D3
330
B1
100
AcDbEntity
  8
L0_
  6
Continuous
 62
     2
100
AcDbVertex
100
AcDb3dPolylineVertex
 10
125.933121
 20
187.070282
 30
0.0
 70
    32
  0
VERTEX
  5
D4
330
B1
100
AcDbEntity
  8
L0_
  6
Continuous
 62
     2
100
AcDbVertex
100
AcDb3dPolylineVertex
 10
126.933121
 20
185.0209959999999
 30
0.0
 70
    32
  0
VERTEX
  5
D5
330
B1
100
AcDbEntity
  8
L0_
  6
Continuous
 62
     2
100
AcDbVertex
100
AcDb3dPolylineVertex
 10
127.933121
 20
182.9767909999999
 30
0.0
 70
    32
  0
VERTEX
  5
D6
330
B1
100
AcDbEntity
  8
L0_
  6
Continuous
 62
     2
100
AcDbVertex
100
AcDb3dPolylineVertex
 10
128.933121
 20
180.937103
 30
0.0
 70
    32
  0
VERTEX
  5
D7
330
B1
100
AcDbEntity
  8
L0_
  6
Continuous
 62
     2
100
AcDbVertex
100
AcDb3dPolylineVertex
 10
129.933121
 20
178.901505
 30
0.0
 70
    32
  0
VERTEX
  5
D8
330
B1
100
AcDbEntity
  8
L0_
  6
Continuous
 62
     2
100
AcDbVertex
100
AcDb3dPolylineVertex
 10
130.49295
 20
177.763535
 30
0.0
 70
    32
  0
SEQEND
  5
D9
330
B1
100
AcDbEntity
  8
L0_
  6
Continuous
 62
     2
  0
POLYLINE
  5
DA
330
1E
100
AcDbEntity
  8
L0_
  6
Continuous
 62
     2
100
AcDb3dPolyline
 66
     1
 10
0.0
 20
0.0
 30
0.0
 70
     8
  0
VERTEX
  5
DB
330
DA
100
AcDbEntity
  8
L0_
  6
Continuous
 62
     2
100
AcDbVertex
100
AcDb3dPolylineVertex
 10
93.93312100000001
 20
311.400024
 30
0.0
 70
    32
  0
VERTEX
  5
DC
330
DA
100
AcDbEntity
  8
L0_
  6
Continuous
 62
     2
100
AcDbVertex
100
AcDb3dPolylineVertex
 10
93.93312100000001
 20
282.607056
 30
0.0
 70
    32
  0
VERTEX
  5
DD
330
DA
100
AcDbEntity
  8
L0_
  6
Continuous
 62
     2
100
AcDbVertex
100
AcDb3dPolylineVertex
 10
94.933121
 20
275.4863279999999
 30
0.0
 70
    32
  0
VERTEX
  5
DE
330
DA
100
AcDbEntity
  8
L0_
  6
Continuous
 62
     2
100
AcDbVertex
100
AcDb3dPolylineVertex
 10
95.933121
 20
269.83197
 30
0.0
 70
    32
  0
VERTEX
  5
DF
330
DA
100
AcDbEntity
  8
L0_
  6
Continuous
 62
     2
100
AcDbVertex
100
AcDb3dPolylineVertex
 10
96.93312099999999
 20
265.058899
 30
0.0
 70
    32
  0
VERTEX
  5
E0
330
DA
100
AcDbEntity
  8
L0_
  6
Continuous
 62
     2
100
AcDbVertex
100
AcDb3dPolylineVertex
 10
97.93312100000001
 20
260.871704
 30
0.0
 70
    32
  0
VERTEX
  5
E1
330
DA
100
AcDbEntity
  8
L0_
  6
Continuous
 62
     2
100
AcDbVertex
100
AcDb3dPolylineVertex
 10
98.93312100000001
 20
257.1004639999999
 30
0.0
 70
    32
  0
VERTEX
  5
E2
330
DA
100
AcDbEntity
  8
L0_
  6
Continuous
 62
     2
100
AcDbVertex
100
AcDb3dPolylineVertex
 10
99.933121
 20
253.638275
 30
0.0
 70
    32
  0
VERTEX
  5
E3
330
DA
100
AcDbEntity
  8
L0_
  6
Continuous
 62
     2
100
AcDbVertex
100
AcDb3dPolylineVertex
 10
100.933121
 20
250.4136809999999
 30
0.0
 70
    32
  0
VERTEX
  5
E4
330
DA
100
AcDbEntity
  8
L0_
  6
Continuous
 62
     2
100
AcDbVertex
100
AcDb3dPolylineVertex
 10
101.933121
 20
247.37645
 30
0.0
 70
    32
  0
VERTEX
  5
E5
330
DA
100
AcDbEntity
  8
L0_
  6
Continuous
 62
     2
100
AcDbVertex
100
AcDb3dPolylineVertex
 10
102.933121
 20
244.4900209999999
 30
0.0
 70
    32
  0
VERTEX
  5
E6
330
DA
100
AcDbEntity
  8
L0_
  6
Continuous
 62
     2
100
AcDbVertex
100
AcDb3dPolylineVertex
 10
103.933121
 20
241.726944
 30
0.0
 70
    32
  0
VERTEX
  5
E7
330
DA
100
AcDbEntity
  8
L0_
  6
Continuous
 62
     2
100
AcDbVertex
100
AcDb3dPolylineVertex
 10
104.933121
 20
239.066116
 30
0.0
 70
    32
  0
VERTEX
  5
E8
330
DA
100
AcDbEntity
  8
L0_
  6
Continuous
 62
     2
100
AcDbVertex
100
AcDb3dPolylineVertex
 10
105.933121
 20
236.4909669999999
 30
0.0
 70
    32
  0
VERTEX
  5
E9
330
DA
100
AcDbEntity
  8
L0_
  6
Continuous
 62
     2
100
AcDbVertex
100
AcDb3dPolylineVertex
 10
106.933121
 20
233.988312
 30
0.0
 70
    32
  0
VERTEX
  5
EA
330
DA
100
AcDbEntity
  8
L0_
  6
Continuous
 62
     2
100
AcDbVertex
100
AcDb3dPolylineVertex
 10
107.933121
 20
231.547424
 30
0.0
 70
    32
  0
VERTEX
  5
EB
330
DA
100
AcDbEntity
  8
L0_
  6
Continuous
 62
     2
100
AcDbVertex
100
AcDb3dPolylineVertex
 10
108.933121
 20
229.1595459999999
 30
0.0
 70
    32
  0
VERTEX
  5
EC
330
DA
100
AcDbEntity
  8
L0_
  6
Continuous
 62
     2
100
AcDbVertex
100
AcDb3dPolylineVertex
 10
109.933121
 20
226.8174129999999
 30
0.0
 70
    32
  0
VERTEX
  5
ED
330
DA
100
AcDbEntity
  8
L0_
  6
Continuous
 62
     2
100
AcDbVertex
100
AcDb3dPolylineVertex
 10
110.933121
 20
224.5149229999999
 30
0.0
 70
    32
  0
VERTEX
  5
EE
330
DA
100
AcDbEntity
  8
L0_
  6
Continuous
 62
     2
100
AcDbVertex
100
AcDb3dPolylineVertex
 10
111.933121
 20
222.246979
 30
0.0
 70
    32
  0
VERTEX
  5
EF
330
DA
100
AcDbEntity
  8
L0_
  6
Continuous
 62
     2
100
AcDbVertex
100
AcDb3dPolylineVertex
 10
112.9331209999999
 20
220.0092319999999
 30
0.0
 70
    32
  0
VERTEX
  5
F0
330
DA
100
AcDbEntity
  8
L0_
  6
Continuous
 62
     2
100
AcDbVertex
100
AcDb3dPolylineVertex
 10
113.9331209999999
 20
217.797943
 30
0.0
 70
    32
  0
VERTEX
  5
F1
330
DA
100
AcDbEntity
  8
L0_
  6
Continuous
 62
     2
100
AcDbVertex
100
AcDb3dPolylineVertex
 10
114.9331209999999
 20
215.609924
 30
0.0
 70
    32
  0
VERTEX
  5
F2
330
DA
100
AcDbEntity
  8
L0_
  6
Continuous
 62
     2
100
AcDbVertex
100
AcDb3dPolylineVertex
 10
115.9331209999999
 20
213.4424129999999
 30
0.0
 70
    32
  0
VERTEX
  5
F3
330
DA
100
AcDbEntity
  8
L0_
  6
Continuous
 62
     2
100
AcDbVertex
100
AcDb3dPolylineVertex
 10
116.9331209999999
 20
211.2930449999999
 30
0.0
 70
    32
  0
VERTEX
  5
F4
330
DA
100
AcDbEntity
  8
L0_
  6
Continuous
 62
     2
100
AcDbVertex
100
AcDb3dPolylineVertex
 10
117.9331209999999
 20
209.1597139999999
 30
0.0
 70
    32
  0
VERTEX
  5
F5
330
DA
100
AcDbEntity
  8
L0_
  6
Continuous
 62
     2
100
AcDbVertex
100
AcDb3dPolylineVertex
 10
118.9331209999999
 20
207.040588
 30
0.0
 70
    32
  0
VERTEX
  5
F6
330
DA
100
AcDbEntity
  8
L0_
  6
Continuous
 62
     2
100
AcDbVertex
100
AcDb3dPolylineVertex
 10
119.9331209999999
 20
204.934113
 30
0.0
 70
    32
  0
VERTEX
  5
F7
330
DA
100
AcDbEntity
  8
L0_
  6
Continuous
 62
     2
100
AcDbVertex
100
AcDb3dPolylineVertex
 10
120.9331209999999
 20
202.838867
 30
0.0
 70
    32
  0
VERTEX
  5
F8
330
DA
100
AcDbEntity
  8
L0_
  6
Continuous
 62
     2
100
AcDbVertex
100
AcDb3dPolylineVertex
 10
121.9331209999999
 20
200.7536159999999
 30
0.0
 70
    32
  0
VERTEX
  5
F9
330
DA
100
AcDbEntity
  8
L0_
  6
Continuous
 62
     2
100
AcDbVertex
100
AcDb3dPolylineVertex
 10
122.933121
 20
198.677277
 30
0.0
 70
    32
  0
VERTEX
  5
FA
330
DA
100
AcDbEntity
  8
L0_
  6
Continuous
 62
     2
100
AcDbVertex
100
AcDb3dPolylineVertex
 10
123.933121
 20
196.608887
 30
0.0
 70
    32
  0
VERTEX
  5
FB
330
DA
100
AcDbEntity
  8
L0_
  6
Continuous
 62
     2
100
AcDbVertex
100
AcDb3dPolylineVertex
 10
124.933121
 20
194.547577
 30
0.0
 70
    32
  0
VERTEX
  5
FC
330
DA
100
AcDbEntity
  8
L0_
  6
Continuous
 62
     2
100
AcDbVertex
100
AcDb3dPolylineVertex
 10
125.933121
 20
192.4926299999999
 30
0.0
 70
    32
  0
VERTEX
  5
FD
330
DA
100
AcDbEntity
  8
L0_
  6
Continuous
 62
     2
100
AcDbVertex
100
AcDb3dPolylineVertex
 10
126.933121
 20
190.443344
 30
0.0
 70
    32
  0
VERTEX
  5
FE
330
DA
100
AcDbEntity
  8
L0_
  6
Continuous
 62
     2
100
AcDbVertex
100
AcDb3dPolylineVertex
 10
127.933121
 20
188.399124
 30
0.0
 70
    32
  0
VERTEX
  5
FF
330
DA
100
AcDbEntity
  8
L0_
  6
Continuous
 62
     2
100
AcDbVertex
100
AcDb3dPolylineVertex
 10
128.933121
 20
186.359451
 30
0.0
 70
    32
  0
VERTEX
  5
100
330
DA
100
AcDbEntity
  8
L0_
  6
Continuous
 62
     2
100
AcDbVertex
100
AcDb3dPolylineVertex
 10
129.933121
 20
184.3238369999999
 30
0.0
 70
    32
  0
VERTEX
  5
101
330
DA
100
AcDbEntity
  8
L0_
  6
Continuous
 62
     2
100
AcDbVertex
100
AcDb3dPolylineVertex
 10
130.49295
 20
183.185883
 30
0.0
 70
    32
  0
SEQEND
  5
102
330
DA
100
AcDbEntity
  8
L0_
  6
Continuous
 62
     2
  0
POLYLINE
  5
103
330
1E
100
AcDbEntity
  8
L0_
  6
Continuous
 62
     2
100
AcDb3dPolyline
 66
     1
 10
0.0
 20
0.0
 30
0.0
 70
     8
  0
VERTEX
  5
104
330
103
100
AcDbEntity
  8
L0_
  6
Continuous
 62
     2
100
AcDbVertex
100
AcDb3dPolylineVertex
 10
93.93312100000001
 20
311.400024
 30
0.0
 70
    32
  0
VERTEX
  5
105
330
103
100
AcDbEntity
  8
L0_
  6
Continuous
 62
     2
100
AcDbVertex
100
AcDb3dPolylineVertex
 10
93.93312100000001
 20
290.249451
 30
0.0
 70
    32
  0
VERTEX
  5
106
330
103
100
AcDbEntity
  8
L0_
  6
Continuous
 62
     2
100
AcDbVertex
100
AcDb3dPolylineVertex
 10
94.933121
 20
283.128693
 30
0.0
 70
    32
  0
VERTEX
  5
107
330
103
100
AcDbEntity
  8
L0_
  6
Continuous
 62
     2
100
AcDbVertex
100
AcDb3dPolylineVertex
 10
95.933121
 20
277.474365
 30
0.0
 70
    32
  0
VERTEX
  5
108
330
103
100
AcDbEntity
  8
L0_
  6
Continuous
 62
     2
100
AcDbVertex
100
AcDb3dPolylineVertex
 10
96.93312099999999
 20
272.7012329999999
 30
0.0
 70
    32
  0
VERTEX
  5
109
330
103
100
AcDbEntity
  8
L0_
  6
Continuous
 62
     2
100
AcDbVertex
100
AcDb3dPolylineVertex
 10
97.93312100000001
 20
268.514069
 30
0.0
 70
    32
  0
VERTEX
  5
10A
330
103
100
AcDbEntity
  8
L0_
  6
Continuous
 62
     2
100
AcDbVertex
100
AcDb3dPolylineVertex
 10
98.93312100000001
 20
264.7427979999999
 30
0.0
 70
    32
  0
VERTEX
  5
10B
330
103
100
AcDbEntity
  8
L0_
  6
Continuous
 62
     2
100
AcDbVertex
100
AcDb3dPolylineVertex
 10
99.933121
 20
261.28064
 30
0.0
 70
    32
  0
VERTEX
  5
10C
330
103
100
AcDbEntity
  8
L0_
  6
Continuous
 62
     2
100
AcDbVertex
100
AcDb3dPolylineVertex
 10
100.933121
 20
258.0560299999999
 30
0.0
 70
    32
  0
VERTEX
  5
10D
330
103
100
AcDbEntity
  8
L0_
  6
Continuous
 62
     2
100
AcDbVertex
100
AcDb3dPolylineVertex
 10
101.933121
 20
255.018814
 30
0.0
 70
    32
  0
VERTEX
  5
10E
330
103
100
AcDbEntity
  8
L0_
  6
Continuous
 62
     2
100
AcDbVertex
100
AcDb3dPolylineVertex
 10
102.933121
 20
252.1323849999999
 30
0.0
 70
    32
  0
VERTEX
  5
10F
330
103
100
AcDbEntity
  8
L0_
  6
Continuous
 62
     2
100
AcDbVertex
100
AcDb3dPolylineVertex
 10
103.933121
 20
249.369308
 30
0.0
 70
    32
  0
VERTEX
  5
110
330
103
100
AcDbEntity
  8
L0_
  6
Continuous
 62
     2
100
AcDbVertex
100
AcDb3dPolylineVertex
 10
104.933121
 20
246.708481
 30
0.0
 70
    32
  0
VERTEX
  5
111
330
103
100
AcDbEntity
  8
L0_
  6
Continuous
 62
     2
100
AcDbVertex
100
AcDb3dPolylineVertex
 10
105.933121
 20
244.133331
 30
0.0
 70
    32
  0
VERTEX
  5
112
330
103
100
AcDbEntity
  8
L0_
  6
Continuous
 62
     2
100
AcDbVertex
100
AcDb3dPolylineVertex
 10
106.933121
 20
241.6306759999999
 30
0.0
 70
    32
  0
VERTEX
  5
113
330
103
100
AcDbEntity
  8
L0_
  6
Continuous
 62
     2
100
AcDbVertex
100
AcDb3dPolylineVertex
 10
107.933121
 20
239.189789
 30
0.0
 70
    32
  0
VERTEX
  5
114
330
103
100
AcDbEntity
  8
L0_
  6
Continuous
 62
     2
100
AcDbVertex
100
AcDb3dPolylineVertex
 10
108.933121
 20
236.80191
 30
0.0
 70
    32
  0
VERTEX
  5
115
330
103
100
AcDbEntity
  8
L0_
  6
Continuous
 62
     2
100
AcDbVertex
100
AcDb3dPolylineVertex
 10
109.933121
 20
234.4597629999999
 30
0.0
 70
    32
  0
VERTEX
  5
116
330
103
100
AcDbEntity
  8
L0_
  6
Continuous
 62
     2
100
AcDbVertex
100
AcDb3dPolylineVertex
 10
110.933121
 20
232.157288
 30
0.0
 70
    32
  0
VERTEX
  5
117
330
103
100
AcDbEntity
  8
L0_
  6
Continuous
 62
     2
100
AcDbVertex
100
AcDb3dPolylineVertex
 10
111.933121
 20
229.889343
 30
0.0
 70
    32
  0
VERTEX
  5
118
330
103
100
AcDbEntity
  8
L0_
  6
Continuous
 62
     2
100
AcDbVertex
100
AcDb3dPolylineVertex
 10
112.9331209999999
 20
227.6515959999999
 30
0.0
 70
    32
  0
VERTEX
  5
119
330
103
100
AcDbEntity
  8
L0_
  6
Continuous
 62
     2
100
AcDbVertex
100
AcDb3dPolylineVertex
 10
113.9331209999999
 20
225.4402919999999
 30
0.0
 70
    32
  0
VERTEX
  5
11A
330
103
100
AcDbEntity
  8
L0_
  6
Continuous
 62
     2
100
AcDbVertex
100
AcDb3dPolylineVertex
 10
114.9331209999999
 20
223.252289
 30
0.0
 70
    32
  0
VERTEX
  5
11B
330
103
100
AcDbEntity
  8
L0_
  6
Continuous
 62
     2
100
AcDbVertex
100
AcDb3dPolylineVertex
 10
115.9331209999999
 20
221.0847779999999
 30
0.0
 70
    32
  0
VERTEX
  5
11C
330
103
100
AcDbEntity
  8
L0_
  6
Continuous
 62
     2
100
AcDbVertex
100
AcDb3dPolylineVertex
 10
116.9331209999999
 20
218.93541
 30
0.0
 70
    32
  0
VERTEX
  5
11D
330
103
100
AcDbEntity
  8
L0_
  6
Continuous
 62
     2
100
AcDbVertex
100
AcDb3dPolylineVertex
 10
117.9331209999999
 20
216.802063
 30
0.0
 70
    32
  0
VERTEX
  5
11E
330
103
100
AcDbEntity
  8
L0_
  6
Continuous
 62
     2
100
AcDbVertex
100
AcDb3dPolylineVertex
 10
118.9331209999999
 20
214.6829529999999
 30
0.0
 70
    32
  0
VERTEX
  5
11F
330
103
100
AcDbEntity
  8
L0_
  6
Continuous
 62
     2
100
AcDbVertex
100
AcDb3dPolylineVertex
 10
119.9331209999999
 20
212.5764769999999
 30
0.0
 70
    32
  0
VERTEX
  5
120
330
103
100
AcDbEntity
  8
L0_
  6
Continuous
 62
     2
100
AcDbVertex
100
AcDb3dPolylineVertex
 10
120.9331209999999
 20
210.481216
 30
0.0
 70
    32
  0
VERTEX
  5
121
330
103
100
AcDbEntity
  8
L0_
  6
Continuous
 62
     2
100
AcDbVertex
100
AcDb3dPolylineVertex
 10
121.9331209999999
 20
208.395981
 30
0.0
 70
    32
  0
VERTEX
  5
122
330
103
100
AcDbEntity
  8
L0_
  6
Continuous
 62
     2
100
AcDbVertex
100
AcDb3dPolylineVertex
 10
122.933121
 20
206.319626
 30
0.0
 70
    32
  0
VERTEX
  5
123
330
103
100
AcDbEntity
  8
L0_
  6
Continuous
 62
     2
100
AcDbVertex
100
AcDb3dPolylineVertex
 10
123.933121
 20
204.2512359999999
 30
0.0
 70
    32
  0
VERTEX
  5
124
330
103
100
AcDbEntity
  8
L0_
  6
Continuous
 62
     2
100
AcDbVertex
100
AcDb3dPolylineVertex
 10
124.933121
 20
202.189941
 30
0.0
 70
    32
  0
VERTEX
  5
125
330
103
100
AcDbEntity
  8
L0_
  6
Continuous
 62
     2
100
AcDbVertex
100
AcDb3dPolylineVertex
 10
125.933121
 20
200.134979
 30
0.0
 70
    32
  0
VERTEX
  5
126
330
103
100
AcDbEntity
  8
L0_
  6
Continuous
 62
     2
100
AcDbVertex
100
AcDb3dPolylineVertex
 10
126.933121
 20
198.085693
 30
0.0
 70
    32
  0
VERTEX
  5
127
330
103
100
AcDbEntity
  8
L0_
  6
Continuous
 62
     2
100
AcDbVertex
100
AcDb3dPolylineVertex
 10
127.933121
 20
196.0414889999999
 30
0.0
 70
    32
  0
VERTEX
  5
128
330
103
100
AcDbEntity
  8
L0_
  6
Continuous
 62
     2
100
AcDbVertex
100
AcDb3dPolylineVertex
 10
128.933121
 20
194.0018159999999
 30
0.0
 70
    32
  0
VERTEX
  5
129
330
103
100
AcDbEntity
  8
L0_
  6
Continuous
 62
     2
100
AcDbVertex
100
AcDb3dPolylineVertex
 10
129.933121
 20
191.966202
 30
0.0
 70
    32
  0
VERTEX
  5
12A
330
103
100
AcDbEntity
  8
L0_
  6
Continuous
 62
     2
100
AcDbVertex
100
AcDb3dPolylineVertex
 10
130.49295
 20
190.8282469999999
 30
0.0
 70
    32
  0
SEQEND
  5
12B
330
103
100
AcDbEntity
  8
L0_
  6
Continuous
 62
     2
  0
TEXT
  5
12C
330
1E
100
AcDbEntity
  8
L210_
  6
Continuous
 62
     4
100
AcDbText
 10
120.233322
 20
316.400024
 30
0.0
 40
2.5
  1
DWG.NO.
 41
1.185294141176468
 72
     5
 11
137.0249889999999
 21
316.400024
 31
0.0
100
AcDbText
  0
TEXT
  5
12D
330
1E
100
AcDbEntity
  8
L0_
  6
Continuous
 62
     2
100
AcDbText
 10
138.1353
 20
316.399994
 30
0.0
 40
3.0
  1
CAT.XS2500NE.CD2500A2
 41
1.194642857142857
 72
     5
 11
205.0353
 21
316.399994
 31
0.0
100
AcDbText
  0
TEXT
  5
12E
330
1E
100
AcDbEntity
  8
L0_
  6
Continuous
 62
     2
100
AcDbText
 10
141.0
 20
302.0
 30
0.0
 40
3.5
  1
XS2500NE
 41
1.213636363636364
 72
     5
 11
172.1499999999999
 21
302.0
 31
0.0
100
AcDbText
  0
TEXT
  5
12F
330
1E
100
AcDbEntity
  8
L210_
  6
Continuous
 62
     4
100
AcDbText
 10
176.0
 20
302.0
 30
0.0
 40
3.0
  1
I1=2500A
 41
1.154999999999999
 72
     5
 11
199.0999999999999
 21
302.0
 31
0.0
100
AcDbText
  0
TEXT
  5
130
330
1E
100
AcDbEntity
  8
L210_
  6
Continuous
 62
     4
100
AcDbText
 10
176.0
 20
292.0
 30
0.0
 40
3.0
  1
ICT=2500A
 41
1.174999999999999
 72
     5
 11
204.1999999999999
 21
292.0
 31
0.0
100
AcDbText
  0
TEXT
  5
131
330
1E
100
AcDbEntity
  8
L220_
  6
Continuous
 62
     1
100
AcDbText
 10
136.0583039999999
 20
111.142632
 30
0.0
 40
2.5
  1
1000%
 50
90.00000440736764
 41
1.356521739130438
 72
     5
 11
136.0583029999999
 21
124.142632
 31
0.0
100
AcDbText
  0
TEXT
  5
132
330
1E
100
AcDbEntity
  8
L220_
  6
Continuous
 62
     1
100
AcDbText
 10
131.7329409999999
 20
112.674118
 30
0.0
 40
2.5
  1
800%
 50
90.00000498224169
 41
1.380000000000005
 72
     5
 11
131.7329399999999
 21
124.1741179999999
 31
0.0
100
AcDbText
  0
TEXT
  5
133
330
1E
100
AcDbEntity
  8
L220_
  6
Continuous
 62
     1
100
AcDbText
 10
126.3470379999999
 20
112.875961
 30
0.0
 40
2.5
  1
600%
 50
90.0
 41
1.35
 72
     5
 11
126.3470379999999
 21
124.1259609999999
 31
0.0
100
AcDbText
  0
TEXT
  5
134
330
1E
100
AcDbEntity
  8
L220_
  6
Continuous
 62
     1
100
AcDbText
 10
118.679321
 20
112.875954
 30
0.0
 40
2.5
  1
400%
 50
90.0
 41
1.35
 72
     5
 11
118.679321
 21
124.125954
 31
0.0
100
AcDbText
  0
TEXT
  5
135
330
1E
100
AcDbEntity
  8
L200_
  6
Continuous
 62
     7
100
AcDbText
 10
8.572977999999999
 20
49.961887
 30
0.0
 40
2.5
  1
0.01S
 41
1.379999999999999
 72
     5
 11
20.07297799999999
 21
49.961887
 31
0.0
100
AcDbText
  0
TEXT
  5
137
330
1E
100
AcDbEntity
  8
L220_
  6
Continuous
 62
     1
100
AcDbText
 10
105.6809539999999
 20
106.671707
 30
0.0
 40
2.5
  1
I1X200%
 50
90.00000327404453
 41
1.23529411764706
 72
     5
 11
105.6809529999999
 21
124.171707
 31
0.0
100
AcDbText
  0
TEXT
  5
138
330
1E
100
AcDbEntity
  8
L220_
  6
Continuous
 62
     1
100
AcDbText
 10
169.168457
 20
200.72612
 30
0.0
 40
2.5
  1
30S
 41
1.32
 72
     5
 11
177.418457
 21
200.72612
 31
0.0
100
AcDbText
  0
TEXT
  5
139
330
1E
100
AcDbEntity
  8
L220_
  6
Continuous
 62
     1
100
AcDbText
 10
169.3726649999999
 20
193.1701969999999
 30
0.0
 40
2.5
  1
20S
 41
1.28
 72
     5
 11
177.3726649999999
 21
193.1701969999999
 31
0.0
100
AcDbText
  0
TEXT
  5
13A
330
1E
100
AcDbEntity
  8
L220_
  6
Continuous
 62
     1
100
AcDbText
 10
170.1895289999999
 20
187.4521939999999
 30
0.0
 40
2.5
  1
15S
 41
1.242857142857142
 72
     5
 11
177.439529
 21
187.4521939999999
 31
0.0
100
AcDbText
  0
TEXT
  5
13B
330
1E
100
AcDbEntity
  8
L220_
  6
Continuous
 62
     1
100
AcDbText
 10
170.1895289999999
 20
179.8962709999999
 30
0.0
 40
2.5
  1
10S
 41
1.338461538461538
 72
     5
 11
177.439529
 21
179.8962709999999
 31
0.0
100
AcDbText
  0
TEXT
  5
13C
330
1E
100
AcDbEntity
  8
L220_
  6
Continuous
 62
     1
100
AcDbText
 10
171.8232419999999
 20
166.826569
 30
0.0
 40
2.5
  1
5S
 41
1.32
 72
     5
 11
177.323242
 21
166.826569
 31
0.0
100
AcDbText
  0
TEXT
  5
13D
330
1E
100
AcDbEntity
  8
L220_
  6
Continuous
 62
     1
100
AcDbText
 10
169.579834
 20
113.8570629999999
 30
0.0
 40
2.5
  1
0.30S
 41
1.363636363636363
 72
     5
 11
182.0798339999999
 21
113.8570629999999
 31
0.0
100
AcDbText
  0
TEXT
  5
13E
330
1E
100
AcDbEntity
  8
L220_
  6
Continuous
 62
     1
100
AcDbText
 10
169.579834
 20
110.419891
 30
0.0
 40
2.5
  1
0.25S
 41
1.278260869565217
 72
     5
 11
181.829834
 21
110.419891
 31
0.0
100
AcDbText
  0
TEXT
  5
13F
330
1E
100
AcDbEntity
  8
L220_
  6
Continuous
 62
     1
100
AcDbText
 10
169.579834
 20
106.214706
 30
0.0
 40
2.5
  1
0.20S
 41
1.336363636363636
 72
     5
 11
181.829834
 21
106.214706
 31
0.0
100
AcDbText
  0
TEXT
  5
140
330
1E
100
AcDbEntity
  8
L220_
  6
Continuous
 62
     1
100
AcDbText
 10
169.579834
 20
100.7900009999999
 30
0.0
 40
2.5
  1
0.15S
 41
1.314285714285714
 72
     5
 11
181.079834
 21
100.7900009999999
 31
0.0
100
AcDbText
  0
TEXT
  5
141
330
1E
100
AcDbEntity
  8
L220_
  6
Continuous
 62
     1
100
AcDbText
 10
169.579834
 20
93.150002
 30
0.0
 40
2.5
  1
0.10S
 41
1.38
 72
     5
 11
181.079834
 21
93.150002
 31
0.0
100
AcDbText
  0
TEXT
  5
142
330
1E
100
AcDbEntity
  8
L220_
  6
Continuous
 62
     1
100
AcDbText
 10
139.4109339999999
 20
67.69164299999999
 30
0.0
 40
2.5
  1
1200%
 50
90.0
 41
1.274999999999999
 72
     5
 11
139.4109339999999
 21
80.441643
 31
0.0
100
AcDbText
  0
TEXT
  5
143
330
1E
100
AcDbEntity
  8
L220_
  6
Continuous
 62
     1
100
AcDbText
 10
133.9673459999999
 20
69.30225400000001
 30
0.0
 40
2.5
  1
900%
 50
90.0
 41
1.35
 72
     5
 11
133.9673459999999
 21
80.55225400000001
 31
0.0
100
AcDbText
  0
TEXT
  5
144
330
1E
100
AcDbEntity
  8
L220_
  6
Continuous
 62
     1
100
AcDbText
 10
126.3384929999999
 20
69.234634
 30
0.0
 40
2.5
  1
600%
 50
90.0
 41
1.35
 72
     5
 11
126.3384929999999
 21
80.48463400000001
 31
0.0
100
AcDbText
  0
TEXT
  5
145
330
1E
100
AcDbEntity
  8
L220_
  6
Continuous
 62
     1
100
AcDbText
 10
113.182434
 20
58.42775699999999
 30
0.0
 40
2.5
  1
ICTX300%
 50
90.00000260435362
 41
1.257142857142858
 72
     5
 11
113.182433
 21
80.42775699999999
 31
0.0
100
AcDbText
  0
TEXT
  5
153
330
1E
100
AcDbEntity
  8
L200_
  6
Continuous
 62
     7
100
AcDbText
 10
22.34788353590766
 20
41.91206665932957
 30
0.0
 40
2.5
  1
220V
 50
90.00001091348178
 41
0.5478260869565317
 72
     5
 11
22.34788253590766
 21
47.16206665932957
 31
0.0
100
AcDbText
  0
VIEWPORT
  5
148
330
1A
100
AcDbEntity
 67
     1
  8
0
100
AcDbViewport
 10
28.22694099999999
 20
0.0
 30
0.0
 40
650.453882
 41
420.0
 68
     1
 69
     1
 12
28.22694099999999
 22
0.0
 13
0.0
 23
0.0
 14
1.0
 24
1.0
 15
0.0
 25
0.0
 16
0.0
 26
0.0
 36
1.0
 17
0.0
 27
0.0
 37
0.0
 42
50.0
 43
0.0
 44
0.0
 45
420.0
 50
0.0
 51
0.0
 72
   100
 90
    32800
  1

281
     0
 71
     0
 74
     0
110
0.0
120
0.0
130
0.0
111
0.0
121
0.0
131
0.0
112
0.0
122
0.0
132
0.0
 79
     0
146
0.0
  0
VIEWPORT
  5
14A
330
1A
100
AcDbEntity
 67
     1
  8
VPORT-BORDERS
100
AcDbViewport
 10
0.0
 20
0.0
 30
0.0
 40
594.0
 41
420.0
 68
     2
 69
     2
 12
0.0
 22
0.0
 13
0.0
 23
0.0
 14
1.0
 24
1.0
 15
0.0
 25
0.0
 16
0.0
 26
0.0
 36
1.0
 17
0.0
 27
0.0
 37
0.0
 42
50.0
 43
0.0
 44
0.0
 45
420.0
 50
0.0
 51
0.0
 72
   100
 90
    32800
  1

281
     0
 71
     0
 74
     0
110
0.0
120
0.0
130
0.0
111
0.0
121
0.0
131
0.0
112
0.0
122
0.0
132
0.0
 79
     0
146
0.0
  0
ENDSEC
  0
SECTION
  2
OBJECTS
  0
DICTIONARY
  5
C
330
0
100
AcDbDictionary
281
     1
  3
ACAD_GROUP
350
D
  3
ACAD_LAYOUT
350
19
  3
ACAD_MLINESTYLE
350
16
  3
ACAD_PLOTSETTINGS
350
18
  3
ACAD_PLOTSTYLENAME
350
E
  0
DICTIONARY
  5
D
102
{ACAD_REACTORS
330
C
102
}
330
C
100
AcDbDictionary
281
     1
  0
DICTIONARY
  5
19
102
{ACAD_REACTORS
330
C
102
}
330
C
100
AcDbDictionary
281
     1
  3
Model
350
21
  3
ﾚｲｱｳﾄ1
350
1D
  0
DICTIONARY
  5
16
102
{ACAD_REACTORS
330
C
102
}
330
C
100
AcDbDictionary
281
     1
  3
Standard
350
17
  0
DICTIONARY
  5
18
102
{ACAD_REACTORS
330
C
102
}
330
C
100
AcDbDictionary
281
     1
  0
ACDBDICTIONARYWDFLT
  5
E
102
{ACAD_REACTORS
330
C
102
}
330
C
100
AcDbDictionary
281
     1
  3
Normal
350
F
100
AcDbDictionaryWithDefault
340
F
  0
LAYOUT
  5
21
102
{ACAD_REACTORS
330
19
102
}
330
19
100
AcDbPlotSettings
  1

  2
なし
  4

  6

 40
0.0
 41
0.0
 42
0.0
 43
0.0
 44
0.0
 45
0.0
 46
0.0
 47
0.0
 48
0.0
 49
0.0
140
0.0
141
0.0
142
1.0
143
1.0
 70
  1712
 72
     0
 73
     0
 74
     0
  7
monochrome.ctb
 75
     0
147
1.0
148
0.0
149
0.0
100
AcDbLayout
  1
Model
 70
     1
 71
     0
 10
0.0
 20
0.0
 11
12.0
 21
9.0
 12
0.0
 22
0.0
 32
0.0
 14
0.0
 24
0.0
 34
0.0
 15
0.0
 25
0.0
 35
0.0
146
0.0
 13
0.0
 23
0.0
 33
0.0
 16
1.0
 26
0.0
 36
0.0
 17
0.0
 27
1.0
 37
0.0
 76
     0
330
1E
  0
LAYOUT
  5
1D
102
{ACAD_REACTORS
330
19
102
}
330
19
100
AcDbPlotSettings
  1

  2
なし
  4

  6

 40
0.0
 41
0.0
 42
0.0
 43
0.0
 44
0.0
 45
0.0
 46
0.0
 47
0.0
 48
0.0
 49
0.0
140
0.0
141
0.0
142
1.0
143
1.0
 70
   688
 72
     0
 73
     0
 74
     5
  7
monochrome.ctb
 75
    16
147
1.0
148
0.0
149
0.0
100
AcDbLayout
  1
ﾚｲｱｳﾄ1
 70
     1
 71
     1
 10
0.0
 20
0.0
 11
12.0
 21
9.0
 12
0.0
 22
0.0
 32
0.0
 14
-297.0
 24
-210.0
 34
0.0
 15
297.0
 25
210.0
 35
0.0
146
0.0
 13
0.0
 23
0.0
 33
0.0
 16
1.0
 26
0.0
 36
0.0
 17
0.0
 27
1.0
 37
0.0
 76
     0
330
1A
331
148
  0
MLINESTYLE
  5
17
102
{ACAD_REACTORS
330
16
102
}
330
16
100
AcDbMlineStyle
  2
STANDARD
 70
     0
  3

 62
   256
 51
90.0
 52
90.0
 71
     2
 49
0.5
 62
   256
  6
BYLAYER
 49
-0.5
 62
   256
  6
BYLAYER
  0
ACDBPLACEHOLDER
  5
F
102
{ACAD_REACTORS
330
E
102
}
330
E
  0
ENDSEC
  0
EOF
