  0
SECTION
  2
HEADER
  9
$ACADVER
  1
AC1014
  9
$ACADMAINTVER
 70
     9
  9
$DWGCODEPAGE
  3
ANSI_932
  9
$INSBASE
 10
0.0
 20
0.0
 30
0.0
  9
$EXTMIN
 10
233.9332657760496
 20
59.49060660898386
 30
-0.0015258207003583
  9
$EXTMAX
 10
1027.030964199219
 20
573.9577937434646
 30
0.0000000349246037
  9
$LIMMIN
 10
0.0
 20
0.0
  9
$LIMMAX
 10
554.0
 20
395.0
  9
$ORTHOMODE
 70
     1
  9
$REGENMODE
 70
     1
  9
$FILLMODE
 70
     1
  9
$QTEXTMODE
 70
     0
  9
$MIRRTEXT
 70
     0
  9
$DRAGMODE
 70
     2
  9
$LTSCALE
 40
12.0
  9
$OSMODE
 70
    37
  9
$ATTMODE
 70
     1
  9
$TEXTSIZE
 40
3.0
  9
$TRACEWID
 40
0.05
  9
$TEXTSTYLE
  7
KANJI
  9
$CLAYER
  8
10
  9
$CELTYPE
  6
HIDDEN2
  9
$CECOLOR
 62
   256
  9
$CELTSCALE
 40
1.0
  9
$DELOBJ
 70
     1
  9
$DISPSILH
 70
     0
  9
$DIMSCALE
 40
1.0
  9
$DIMASZ
 40
2.2
  9
$DIMEXO
 40
0.0625
  9
$DIMDLI
 40
0.38
  9
$DIMRND
 40
0.05
  9
$DIMDLE
 40
0.0
  9
$DIMEXE
 40
2.5
  9
$DIMTP
 40
0.0
  9
$DIMTM
 40
0.0
  9
$DIMTXT
 40
5.0
  9
$DIMCEN
 40
0.09
  9
$DIMTSZ
 40
0.0
  9
$DIMTOL
 70
     0
  9
$DIMLIM
 70
     0
  9
$DIMTIH
 70
     0
  9
$DIMTOH
 70
     0
  9
$DIMSE1
 70
     0
  9
$DIMSE2
 70
     0
  9
$DIMTAD
 70
     1
  9
$DIMZIN
 70
     0
  9
$DIMBLK
  1
OPEN30
  9
$DIMASO
 70
     1
  9
$DIMSHO
 70
     1
  9
$DIMPOST
  1

  9
$DIMAPOST
  1

  9
$DIMALT
 70
     0
  9
$DIMALTD
 70
     2
  9
$DIMALTF
 40
25.4
  9
$DIMLFAC
 40
1.0
  9
$DIMTOFL
 70
     0
  9
$DIMTVP
 40
0.0
  9
$DIMTIX
 70
     0
  9
$DIMSOXD
 70
     0
  9
$DIMSAH
 70
     0
  9
$DIMBLK1
  1

  9
$DIMBLK2
  1

  9
$DIMSTYLE
  2
STANDARD
  9
$DIMCLRD
 70
     4
  9
$DIMCLRE
 70
     4
  9
$DIMCLRT
 70
     4
  9
$DIMTFAC
 40
1.0
  9
$DIMGAP
 40
2.0
  9
$DIMJUST
 70
     0
  9
$DIMSD1
 70
     0
  9
$DIMSD2
 70
     0
  9
$DIMTOLJ
 70
     1
  9
$DIMTZIN
 70
     0
  9
$DIMALTZ
 70
     0
  9
$DIMALTTZ
 70
     0
  9
$DIMFIT
 70
     3
  9
$DIMUPT
 70
     0
  9
$DIMUNIT
 70
     2
  9
$DIMDEC
 70
     0
  9
$DIMTDEC
 70
     0
  9
$DIMALTU
 70
     2
  9
$DIMALTTD
 70
     2
  9
$DIMTXSTY
  7
STANDARD
  9
$DIMAUNIT
 70
     0
  9
$LUNITS
 70
     2
  9
$LUPREC
 70
     4
  9
$SKETCHINC
 40
0.1
  9
$FILLETRAD
 40
0.0
  9
$AUNITS
 70
     0
  9
$AUPREC
 70
     0
  9
$MENU
  1
C:\Tcad\TCAD\tcad-s
  9
$ELEVATION
 40
0.0
  9
$PELEVATION
 40
0.0
  9
$THICKNESS
 40
0.0
  9
$LIMCHECK
 70
     0
  9
$BLIPMODE
 70
     0
  9
$CHAMFERA
 40
0.0
  9
$CHAMFERB
 40
0.0
  9
$CHAMFERC
 40
0.0
  9
$CHAMFERD
 40
0.0
  9
$SKPOLY
 70
     0
  9
$TDCREATE
 40
2450752.336623958
  9
$TDUPDATE
 40
2452145.673355324
  9
$TDINDWG
 40
0.5863746528
  9
$TDUSRTIMER
 40
0.5863746528
  9
$USRTIMER
 70
     1
  9
$ANGBASE
 50
0.0
  9
$ANGDIR
 70
     0
  9
$PDMODE
 70
    35
  9
$PDSIZE
 40
23.99999999999998
  9
$PLINEWID
 40
0.0
  9
$COORDS
 70
     1
  9
$SPLFRAME
 70
     0
  9
$SPLINETYPE
 70
     6
  9
$SPLINESEGS
 70
     8
  9
$ATTDIA
 70
     0
  9
$ATTREQ
 70
     1
  9
$HANDLING
 70
-16383
  9
$HANDSEED
  5
78CE
  9
$SURFTAB1
 70
     6
  9
$SURFTAB2
 70
     6
  9
$SURFTYPE
 70
     6
  9
$SURFU
 70
     6
  9
$SURFV
 70
     6
  9
$UCSNAME
  2

  9
$UCSORG
 10
0.0
 20
0.0
 30
0.0
  9
$UCSXDIR
 10
1.0
 20
0.0
 30
0.0
  9
$UCSYDIR
 10
0.0
 20
1.0
 30
0.0
  9
$PUCSNAME
  2

  9
$PUCSORG
 10
0.0
 20
0.0
 30
0.0
  9
$PUCSXDIR
 10
1.0
 20
0.0
 30
0.0
  9
$PUCSYDIR
 10
0.0
 20
1.0
 30
0.0
  9
$USERI1
 70
     0
  9
$USERI2
 70
     0
  9
$USERI3
 70
     0
  9
$USERI4
 70
     0
  9
$USERI5
 70
     0
  9
$USERR1
 40
0.0
  9
$USERR2
 40
0.0
  9
$USERR3
 40
0.0
  9
$USERR4
 40
0.0
  9
$USERR5
 40
0.0
  9
$WORLDVIEW
 70
     1
  9
$SHADEDGE
 70
     3
  9
$SHADEDIF
 70
    70
  9
$TILEMODE
 70
     1
  9
$MAXACTVP
 70
    16
  9
$PINSBASE
 10
0.0
 20
0.0
 30
0.0
  9
$PLIMCHECK
 70
     0
  9
$PEXTMIN
 10
1.000000000000000E+20
 20
1.000000000000000E+20
 30
1.000000000000000E+20
  9
$PEXTMAX
 10
-1.000000000000000E+20
 20
-1.000000000000000E+20
 30
-1.000000000000000E+20
  9
$PLIMMIN
 10
0.0
 20
0.0
  9
$PLIMMAX
 10
12.0
 20
9.0
  9
$UNITMODE
 70
     0
  9
$VISRETAIN
 70
     0
  9
$PLINEGEN
 70
     0
  9
$PSLTSCALE
 70
     1
  9
$TREEDEPTH
 70
  3020
  9
$PICKSTYLE
 70
     1
  9
$CMLSTYLE
  2
STANDARD
  9
$CMLJUST
 70
     0
  9
$CMLSCALE
 40
1.0
  9
$PROXYGRAPHICS
 70
     1
  9
$MEASUREMENT
 70
     0
  0
ENDSEC
  0
SECTION
  2
CLASSES
  0
CLASS
  1
LWPOLYLINE
  2
AcDbPolyline
  3
AutoCAD 2000
 90
        0
280
     0
281
     1
  0
CLASS
  1
DICTIONARYVAR
  2
AcDbDictionaryVar
  3
AutoCAD 2000
 90
        0
280
     0
281
     0
  0
CLASS
  1
HATCH
  2
AcDbHatch
  3
AutoCAD 2000
 90
        0
280
     0
281
     1
  0
CLASS
  1
ACDBDICTIONARYWDFLT
  2
AcDbDictionaryWithDefault
  3
AutoCAD 2000
 90
        0
280
     0
281
     0
  0
CLASS
  1
ACDBPLACEHOLDER
  2
AcDbPlaceHolder
  3
AutoCAD 2000
 90
        0
280
     0
281
     0
  0
CLASS
  1
LAYOUT
  2
AcDbLayout
  3
AutoCAD 2000
 90
        0
280
     0
281
     0
  0
CLASS
  1
LONG_TRANSACTION
  2
AcDbLongTransaction
  3
AutoCAD 2000
 90
        0
280
     0
281
     0
  0
CLASS
  1
LWPOLYLINE
  2
AcDbPolyline
  3
AutoCAD 2000
 90
        0
280
     0
281
     1
  0
CLASS
  1
HATCH
  2
AcDbHatch
  3
AutoCAD 2000
 90
        0
280
     0
281
     1
  0
CLASS
  1
XRECORD
  2
AcDbXrecord
  3
AutoCAD 2000
 90
        0
280
     0
281
     0
  0
CLASS
  1
LONG_TRANSACTION
  2
AcDbLongTransaction
  3
AutoCAD 2000
 90
        0
280
     0
281
     0
  0
CLASS
  1
LWPOLYLINE
  2
AcDbPolyline
  3
AutoCAD 2000
 90
        0
280
     0
281
     1
  0
CLASS
  1
HATCH
  2
AcDbHatch
  3
AutoCAD 2000
 90
        0
280
     0
281
     1
  0
CLASS
  1
XRECORD
  2
AcDbXrecord
  3
AutoCAD 2000
 90
        0
280
     0
281
     0
  0
CLASS
  1
LONG_TRANSACTION
  2
AcDbLongTransaction
  3
AutoCAD 2000
 90
        0
280
     0
281
     0
  0
CLASS
  1
LWPOLYLINE
  2
AcDbPolyline
  3
AutoCAD 2000
 90
        0
280
     0
281
     1
  0
CLASS
  1
HATCH
  2
AcDbHatch
  3
AutoCAD 2000
 90
        0
280
     0
281
     1
  0
CLASS
  1
XRECORD
  2
AcDbXrecord
  3
AutoCAD 2000
 90
        0
280
     0
281
     0
  0
CLASS
  1
LONG_TRANSACTION
  2
AcDbLongTransaction
  3
AutoCAD 2000
 90
        0
280
     0
281
     0
  0
CLASS
  1
LWPOLYLINE
  2
AcDbPolyline
  3
AutoCAD 2000
 90
        0
280
     0
281
     1
  0
CLASS
  1
HATCH
  2
AcDbHatch
  3
AutoCAD 2000
 90
        0
280
     0
281
     1
  0
CLASS
  1
XRECORD
  2
AcDbXrecord
  3
AutoCAD 2000
 90
        0
280
     0
281
     0
  0
CLASS
  1
LONG_TRANSACTION
  2
AcDbLongTransaction
  3
AutoCAD 2000
 90
        0
280
     0
281
     0
  0
CLASS
  1
LWPOLYLINE
  2
AcDbPolyline
  3
AutoCAD 2000
 90
        0
280
     0
281
     1
  0
CLASS
  1
HATCH
  2
AcDbHatch
  3
AutoCAD 2000
 90
        0
280
     0
281
     1
  0
CLASS
  1
XRECORD
  2
AcDbXrecord
  3
AutoCAD 2000
 90
        0
280
     0
281
     0
  0
ENDSEC
  0
SECTION
  2
TABLES
  0
TABLE
  2
VPORT
  5
8
330
0
100
AcDbSymbolTable
 70
     2
  0
VPORT
  5
78AA
330
8
100
AcDbSymbolTableRecord
100
AcDbViewportTableRecord
  2
*ACTIVE
 70
     0
 10
0.0
 20
0.0
 11
1.0
 21
1.0
 12
755.5315015090038
 22
258.4127568546457
 13
0.0
 23
0.0
 14
1.0
 24
1.0
 15
0.0
 25
0.0
 16
0.0
 26
0.0
 36
1.0
 17
0.0
 27
0.0
 37
0.0
 40
721.1029902493186
 41
1.862823061630218
 42
50.0
 43
0.0
 44
0.0
 50
0.0
 51
0.0
 71
     0
 72
  1000
 73
     1
 74
     1
 75
     0
 76
     0
 77
     0
 78
     0
  0
ENDTAB
  0
TABLE
  2
LTYPE
  5
5
330
0
100
AcDbSymbolTable
 70
     5
  0
LTYPE
  5
14
330
5
100
AcDbSymbolTableRecord
100
AcDbLinetypeTableRecord
  2
BYBLOCK
 70
     0
  3

 72
    65
 73
     0
 40
0.0
  0
LTYPE
  5
15
330
5
100
AcDbSymbolTableRecord
100
AcDbLinetypeTableRecord
  2
BYLAYER
 70
     0
  3

 72
    65
 73
     0
 40
0.0
  0
LTYPE
  5
16
330
5
100
AcDbSymbolTableRecord
100
AcDbLinetypeTableRecord
  2
CONTINUOUS
 70
     0
  3
Solid line
 72
    65
 73
     0
 40
0.0
  0
LTYPE
  5
37
330
5
100
AcDbSymbolTableRecord
100
AcDbLinetypeTableRecord
  2
CENTER
 70
     0
  3
____ _ ____ _ ____ _ ____ _ ____ _ ____ _ ____ 
 72
    65
 73
     4
 40
2.0
 49
1.25
 74
     0
 49
-0.25
 74
     0
 49
0.25
 74
     0
 49
-0.25
 74
     0
  0
LTYPE
  5
1FC
330
5
100
AcDbSymbolTableRecord
100
AcDbLinetypeTableRecord
  2
HIDDEN2
 70
     0
  3
_ _ _ _ _ _ _ _ _ _ _ _ _ _ _ _ _ _ _ _ _ _ _ _
 72
    65
 73
     2
 40
0.1875
 49
0.125
 74
     0
 49
-0.0625
 74
     0
  0
LTYPE
  5
1FE
330
5
100
AcDbSymbolTableRecord
100
AcDbLinetypeTableRecord
  2
PHANTOM2
 70
     0
  3
___ _ _ ___ _ _ ___ _ _ ___ _ _ ___ _ _ ___ _ _
 72
    65
 73
     6
 40
1.25
 49
0.625
 74
     0
 49
-0.125
 74
     0
 49
0.125
 74
     0
 49
-0.125
 74
     0
 49
0.125
 74
     0
 49
-0.125
 74
     0
  0
LTYPE
  5
3E5
330
5
100
AcDbSymbolTableRecord
100
AcDbLinetypeTableRecord
  2
DASHED
 70
     0
  3
Dashed line
 72
    65
 73
     2
 40
0.75
 49
0.5
 74
     0
 49
-0.25
 74
     0
  0
ENDTAB
  0
TABLE
  2
LAYER
  5
2
330
0
100
AcDbSymbolTable
 70
     9
  0
LAYER
  5
F
330
2
100
AcDbSymbolTableRecord
100
AcDbLayerTableRecord
  2
0
 70
     0
 62
     2
  6
CONTINUOUS
  0
LAYER
  5
40
330
2
100
AcDbSymbolTableRecord
100
AcDbLayerTableRecord
  2
パターン
 70
     0
 62
     8
  6
CONTINUOUS
  0
LAYER
  5
3E7
330
2
100
AcDbSymbolTableRecord
100
AcDbLayerTableRecord
  2
210
 70
     0
 62
     4
  6
CONTINUOUS
  0
LAYER
  5
3E8
330
2
100
AcDbSymbolTableRecord
100
AcDbLayerTableRecord
  2
170
 70
     0
 62
     1
  6
CONTINUOUS
  0
LAYER
  5
3EA
330
2
100
AcDbSymbolTableRecord
100
AcDbLayerTableRecord
  2
150
 70
     0
 62
     7
  6
CONTINUOUS
  0
LAYER
  5
3EC
330
2
100
AcDbSymbolTableRecord
100
AcDbLayerTableRecord
  2
225
 70
     0
 62
     3
  6
CONTINUOUS
  0
LAYER
  5
3ED
330
2
100
AcDbSymbolTableRecord
100
AcDbLayerTableRecord
  2
230
 70
     0
 62
     6
  6
CONTINUOUS
  0
LAYER
  5
3EF
330
2
100
AcDbSymbolTableRecord
100
AcDbLayerTableRecord
  2
10
 70
     0
 62
     7
  6
CONTINUOUS
  0
LAYER
  5
3F0
330
2
100
AcDbSymbolTableRecord
100
AcDbLayerTableRecord
  2
DEFPOINTS
 70
     0
 62
     7
  6
CONTINUOUS
  0
ENDTAB
  0
TABLE
  2
STYLE
  5
3
330
0
100
AcDbSymbolTable
 70
     2
  0
STYLE
  5
10
330
3
100
AcDbSymbolTableRecord
100
AcDbTextStyleTableRecord
  2
STANDARD
 70
     0
 40
0.0
 41
1.0
 50
0.0
 71
     0
 42
30.0
  3
ROMANS
  4
BIGFONT
  0
STYLE
  5
108
330
3
100
AcDbSymbolTableRecord
100
AcDbTextStyleTableRecord
  2
KANJI
 70
     0
 40
0.0
 41
0.8
 50
0.0
 71
     0
 42
3.0
  3
romans
  4
bigfont
  0
ENDTAB
  0
TABLE
  2
VIEW
  5
6
330
0
100
AcDbSymbolTable
 70
     0
  0
ENDTAB
  0
TABLE
  2
UCS
  5
7
330
0
100
AcDbSymbolTable
 70
     0
  0
ENDTAB
  0
TABLE
  2
APPID
  5
9
330
0
100
AcDbSymbolTable
 70
     1
  0
APPID
  5
11
330
9
100
AcDbSymbolTableRecord
100
AcDbRegAppTableRecord
  2
ACAD
 70
     0
  0
ENDTAB
  0
TABLE
  2
DIMSTYLE
  5
A
330
0
100
AcDbSymbolTable
 70
     1
  0
DIMSTYLE
105
1D
330
A
100
AcDbSymbolTableRecord
100
AcDbDimStyleTableRecord
  2
STANDARD
 70
     0
  3

  4

  5
OPEN30
  6

  7

 40
1.0
 41
2.2
 42
0.0625
 43
0.38
 44
2.5
 45
0.05
 46
0.0
 47
0.0
 48
0.0
140
5.0
141
0.09
142
0.0
143
25.4
144
1.0
145
0.0
146
1.0
147
2.0
 71
     0
 72
     0
 73
     0
 74
     0
 75
     0
 76
     0
 77
     1
 78
     0
170
     0
171
     2
172
     0
173
     0
174
     0
175
     0
176
     4
177
     4
178
     4
270
     2
271
     0
272
     0
273
     2
274
     2
340
10
275
     0
280
     0
281
     0
282
     0
283
     1
284
     0
285
     0
286
     0
287
     3
288
     0
  0
ENDTAB
  0
TABLE
  2
BLOCK_RECORD
  5
1
330
0
100
AcDbSymbolTable
 70
     2
  0
BLOCK_RECORD
  5
1A
102
{ACAD_XDICTIONARY
360
1BF7
102
}
330
1
100
AcDbSymbolTableRecord
100
AcDbBlockTableRecord
  2
*MODEL_SPACE
  0
BLOCK_RECORD
  5
17
102
{ACAD_XDICTIONARY
360
1BF5
102
}
330
1
100
AcDbSymbolTableRecord
100
AcDbBlockTableRecord
  2
*PAPER_SPACE
  0
BLOCK_RECORD
  5
32
330
1
100
AcDbSymbolTableRecord
100
AcDbBlockTableRecord
  2
TCAD
  0
BLOCK_RECORD
  5
3A8D
330
1
100
AcDbSymbolTableRecord
100
AcDbBlockTableRecord
  2
_OPEN30
  0
ENDTAB
  0
ENDSEC
  0
SECTION
  2
BLOCKS
  0
BLOCK
  5
1B
330
1A
100
AcDbEntity
  8
0
100
AcDbBlockBegin
  2
*MODEL_SPACE
 70
     0
 10
0.0
 20
0.0
 30
0.0
  3
*MODEL_SPACE
  1

  0
ENDBLK
  5
1C
330
1A
100
AcDbEntity
  8
0
100
AcDbBlockEnd
  0
BLOCK
  5
18
330
17
100
AcDbEntity
 67
     1
  8
0
100
AcDbBlockBegin
  2
*PAPER_SPACE
 70
     0
 10
0.0
 20
0.0
 30
0.0
  3
*PAPER_SPACE
  1

  0
ENDBLK
  5
19
330
17
100
AcDbEntity
 67
     1
  8
0
100
AcDbBlockEnd
  0
BLOCK
  5
33
330
32
100
AcDbEntity
  8
0
100
AcDbBlockBegin
  2
TCAD
 70
     0
 10
0.0
 20
0.0
 30
0.0
  3
TCAD
  1

  0
ENDBLK
  5
34
330
32
100
AcDbEntity
  8
0
100
AcDbBlockEnd
  0
BLOCK
  5
3A91
330
3A8D
100
AcDbEntity
  8
0
 62
     2
100
AcDbBlockBegin
  2
_OPEN30
 70
     0
 10
0.0
 20
0.0
 30
0.0
  3
_OPEN30
  1

  0
LINE
  5
3A8E
330
3A8D
100
AcDbEntity
  8
0
  6
BYBLOCK
 62
     0
100
AcDbLine
 10
-1.0
 20
0.26794919
 30
0.0
 11
0.0
 21
0.0
 31
0.0
  0
LINE
  5
3A8F
330
3A8D
100
AcDbEntity
  8
0
  6
BYBLOCK
 62
     0
100
AcDbLine
 10
0.0
 20
0.0
 30
0.0
 11
-1.0
 21
-0.26794919
 31
0.0
  0
LINE
  5
3A90
330
3A8D
100
AcDbEntity
  8
0
  6
BYBLOCK
 62
     0
100
AcDbLine
 10
0.0
 20
0.0
 30
0.0
 11
-1.0
 21
0.0
 31
0.0
  0
ENDBLK
  5
3A92
330
3A8D
100
AcDbEntity
  8
0
 62
     2
100
AcDbBlockEnd
  0
ENDSEC
  0
SECTION
  2
ENTITIES
  0
INSERT
  5
109
330
1A
100
AcDbEntity
  8
パターン
100
AcDbBlockReference
  2
TCAD
 10
0.0
 20
0.0
 30
0.0
  0
INSERT
  5
10A
330
1A
100
AcDbEntity
  8
パターン
100
AcDbBlockReference
  2
TCAD
 10
0.0
 20
0.0
 30
0.0
  0
LINE
  5
6CCE
330
1A
100
AcDbEntity
  8
210
  6
CONTINUOUS
 62
     4
100
AcDbLine
 10
482.9475142711851
 20
497.9481643994049
 30
0.0
 11
576.466038271185
 21
497.9481643994049
 31
0.0
  0
LINE
  5
6CCF
330
1A
100
AcDbEntity
  8
210
  6
CONTINUOUS
 62
     4
100
AcDbLine
 10
482.9475142711851
 20
392.9481343994049
 30
0.0
 11
576.466038271185
 21
392.9481343994049
 31
0.0
  0
LINE
  5
6CD0
330
1A
100
AcDbEntity
  8
210
  6
CONTINUOUS
 62
     4
100
AcDbLine
 10
519.634708271185
 20
445.4481343994049
 30
0.0
 11
556.510044271185
 21
445.4481343994049
 31
0.0
  0
LINE
  5
6CD1
330
1A
100
AcDbEntity
  8
210
  6
CONTINUOUS
 62
     4
100
AcDbLine
 10
482.134708271185
 20
410.4481343994049
 30
0.0
 11
556.510044271185
 21
410.4481343994049
 31
0.0
  0
LINE
  5
6CD2
330
1A
100
AcDbEntity
  8
210
  6
CONTINUOUS
 62
     4
100
AcDbLine
 10
482.134708271185
 20
480.448134399405
 30
0.0
 11
556.510044271185
 21
480.448134399405
 31
0.0
  0
LINE
  5
6CD3
330
1A
100
AcDbEntity
  8
210
  6
CONTINUOUS
 62
     4
100
AcDbLine
 10
519.634708271185
 20
445.4481343994049
 30
0.0
 11
556.510044271185
 21
445.4481343994049
 31
0.0
  0
LINE
  5
6CD4
330
1A
100
AcDbEntity
  8
210
  6
CONTINUOUS
 62
     4
100
AcDbLine
 10
471.4475142711851
 20
146.5044773994049
 30
0.0
 11
556.510044271185
 21
146.5044773994049
 31
0.0
  0
LINE
  5
6CD5
330
1A
100
AcDbEntity
  8
210
  6
CONTINUOUS
 62
     4
100
AcDbLine
 10
533.447544271185
 20
174.0044693994049
 30
0.0
 11
556.510044271185
 21
174.0044693994049
 31
0.0
  0
LINE
  5
6CD6
330
1A
100
AcDbEntity
  8
210
  6
CONTINUOUS
 62
     4
100
AcDbLine
 10
533.447544271185
 20
174.0044693994049
 30
0.0
 11
556.510044271185
 21
174.0044693994049
 31
0.0
  0
LINE
  5
6CD7
330
1A
100
AcDbEntity
  8
210
  6
CONTINUOUS
 62
     4
100
AcDbLine
 10
482.9475142711851
 20
236.0044693994049
 30
0.0
 11
556.510044271185
 21
236.0044693994049
 31
0.0
  0
LINE
  5
6CD8
330
1A
100
AcDbEntity
  8
210
  6
CONTINUOUS
 62
     4
100
AcDbLine
 10
491.447453271185
 20
124.0044773994049
 30
0.0
 11
576.510044271185
 21
124.0044773994049
 31
0.0
  0
LINE
  5
6CD9
330
1A
100
AcDbEntity
  8
210
  6
CONTINUOUS
 62
     4
100
AcDbLine
 10
533.447544271185
 20
174.0044693994049
 30
0.0
 11
576.510044271185
 21
174.0044693994049
 31
0.0
  0
LINE
  5
6CDA
330
1A
100
AcDbEntity
  8
230
  6
CONTINUOUS
 62
     6
100
AcDbLine
 10
537.9475142711851
 20
288.3052053994049
 30
0.0
 11
556.1354250411063
 21
322.8656525284308
 31
0.0
  0
LINE
  5
6CDD
330
1A
100
AcDbEntity
  8
210
  6
CONTINUOUS
 62
     4
100
AcDbLine
 10
533.447544271185
 20
174.0044693994049
 30
0.0
 11
576.510044271185
 21
174.0044693994049
 31
0.0
  0
LINE
  5
6CDE
330
1A
100
AcDbEntity
  8
210
  6
CONTINUOUS
 62
     4
100
AcDbLine
 10
543.9475142711851
 20
299.0044693994049
 30
0.0
 11
576.510044271185
 21
299.0044693994049
 31
0.0
  0
LINE
  5
6CE7
330
1A
100
AcDbEntity
  8
230
  6
CONTINUOUS
 62
     6
100
AcDbLine
 10
478.9475142711851
 20
250.1044753994049
 30
0.0
 11
536.885563271185
 21
348.5597973994049
 31
0.0
  0
LINE
  5
6CEA
330
1A
100
AcDbEntity
  8
230
  6
CONTINUOUS
 62
     6
100
AcDbLine
 10
289.699512271185
 20
193.9928113994049
 30
0.0
 11
277.2730292711851
 21
223.5681133994049
 31
0.0
  0
LINE
  5
6CEF
330
1A
100
AcDbEntity
  8
0
  6
CONTINUOUS
 62
     2
100
AcDbLine
 10
285.4475062711851
 20
174.0044733994049
 30
0.0
 11
515.4475062711851
 21
174.0044733994049
 31
0.0
  0
LINE
  5
6CF0
330
1A
100
AcDbEntity
  8
150
  6
HIDDEN2
 62
     7
100
AcDbLine
 10
287.3475002711851
 20
190.5044733994049
 30
0.0
 11
299.5475122711851
 21
190.5044733994049
 31
0.0
  0
LINE
  5
6CF2
330
1A
100
AcDbEntity
  8
150
  6
HIDDEN2
 62
     7
100
AcDbLine
 10
286.447506271185
 20
188.0044733994049
 30
0.0
 11
300.4475062711851
 21
188.0044733994049
 31
0.0
  0
LINE
  5
6CF3
330
1A
100
AcDbEntity
  8
150
  6
HIDDEN2
 62
     7
100
AcDbLine
 10
286.947506271185
 20
189.0044733994049
 30
0.0
 11
299.9475062711851
 21
189.0044733994049
 31
0.0
  0
LINE
  5
6CF4
330
1A
100
AcDbEntity
  8
150
  6
CONTINUOUS
 62
     7
100
AcDbLine
 10
306.947506271185
 20
195.0044733994049
 30
0.0
 11
484.447506271185
 21
195.0044733994049
 31
0.0
  0
LINE
  5
6CF5
330
1A
100
AcDbEntity
  8
170
  6
PHANTOM2
100
AcDbLine
 10
257.9474752711851
 20
299.0044733994049
 30
0.0
 11
354.4475062711851
 21
299.0044733994049
 31
0.0
  0
LINE
  5
6CF7
330
1A
100
AcDbEntity
  8
170
  6
PHANTOM2
100
AcDbLine
 10
257.9474752711851
 20
301.0044733994049
 30
0.0
 11
354.4475062711851
 21
301.0044733994049
 31
0.0
  0
LINE
  5
6CF8
330
1A
100
AcDbEntity
  8
170
  6
PHANTOM2
100
AcDbLine
 10
277.9474752711851
 20
169.0044733994049
 30
0.0
 11
305.447475271185
 21
169.0044733994049
 31
0.0
  0
LINE
  5
6CFB
330
1A
100
AcDbEntity
  8
170
  6
PHANTOM2
100
AcDbLine
 10
268.4474752711851
 20
174.0044733994049
 30
0.0
 11
268.4474752711851
 21
134.0044733994049
 31
0.0
  0
LINE
  5
6CFC
330
1A
100
AcDbEntity
  8
170
  6
PHANTOM2
100
AcDbLine
 10
273.4474752711851
 20
164.5044733994049
 30
0.0
 11
273.4474752711851
 21
137.0044733994049
 31
0.0
  0
ARC
  5
6CFD
330
1A
100
AcDbEntity
  8
170
  6
PHANTOM2
100
AcDbCircle
 10
270.4474752711851
 20
137.0044733994049
 30
0.0
 40
3.0
100
AcDbArc
 50
270.0
 51
0.0000090000000101
  0
LINE
  5
6CFE
330
1A
100
AcDbEntity
  8
170
  6
PHANTOM2
100
AcDbLine
 10
268.4474752711851
 20
134.0044733994049
 30
0.0
 11
270.4474752711851
 21
134.0044733994049
 31
0.0
  0
LINE
  5
6D15
330
1A
100
AcDbEntity
  8
0
  6
CONTINUOUS
 62
     2
100
AcDbLine
 10
285.4475062711851
 20
193.0044733994049
 30
0.0
 11
285.4475062711851
 21
174.0044733994049
 31
0.0
  0
LINE
  5
6D16
330
1A
100
AcDbEntity
  8
170
  6
PHANTOM2
100
AcDbLine
 10
268.4474752711851
 20
174.0044733994049
 30
0.0
 11
308.4474752711851
 21
174.0044733994049
 31
0.0
  0
ARC
  5
6D17
330
1A
100
AcDbEntity
  8
170
  6
PHANTOM2
100
AcDbCircle
 10
277.9474752711851
 20
164.5044733994049
 30
0.0
 40
4.5
100
AcDbArc
 50
90.0
 51
180.0000030000001
  0
ARC
  5
6D18
330
1A
100
AcDbEntity
  8
150
  6
HIDDEN2
 62
     7
100
AcDbCircle
 10
286.447506271185
 20
187.0044733994049
 30
0.0
 40
1.0
100
AcDbArc
 50
90.0
 51
180.0000030000001
  0
LINE
  5
6D19
330
1A
100
AcDbEntity
  8
150
  6
HIDDEN2
 62
     7
100
AcDbLine
 10
287.3475002711851
 20
189.0044733994049
 30
0.0
 11
287.3475002711851
 21
190.5044733994049
 31
0.0
  0
LINE
  5
6D1A
330
1A
100
AcDbEntity
  8
150
  6
HIDDEN2
 62
     7
100
AcDbLine
 10
286.947506271185
 20
188.0044733994049
 30
0.0
 11
286.947506271185
 21
189.0044733994049
 31
0.0
  0
ARC
  5
6D1B
330
1A
100
AcDbEntity
  8
0
  6
CONTINUOUS
 62
     2
100
AcDbCircle
 10
287.4475062711851
 20
193.0044733994049
 30
0.0
 40
2.0
100
AcDbArc
 50
90.0
 51
180.0000030000001
  0
LINE
  5
6D28
330
1A
100
AcDbEntity
  8
0
  6
CONTINUOUS
 62
     2
100
AcDbLine
 10
471.947506271185
 20
174.0044733994049
 30
0.0
 11
471.947506271185
 21
149.0044733994049
 31
0.0
  0
LINE
  5
6D29
330
1A
100
AcDbEntity
  8
0
  6
CONTINUOUS
 62
     2
100
AcDbLine
 10
468.947506271185
 20
149.0044733994049
 30
0.0
 11
468.947506271185
 21
174.0044733994049
 31
0.0
  0
LINE
  5
6D2A
330
1A
100
AcDbEntity
  8
0
  6
CONTINUOUS
 62
     2
100
AcDbLine
 10
331.947506271185
 20
174.0044733994049
 30
0.0
 11
331.947506271185
 21
149.0044733994049
 31
0.0
  0
LINE
  5
6D2B
330
1A
100
AcDbEntity
  8
0
  6
CONTINUOUS
 62
     2
100
AcDbLine
 10
328.9475062711851
 20
149.0044733994049
 30
0.0
 11
328.9475062711851
 21
174.0044733994049
 31
0.0
  0
LINE
  5
6D2C
330
1A
100
AcDbEntity
  8
170
  6
PHANTOM2
100
AcDbLine
 10
532.447536271185
 20
174.0044733994049
 30
0.0
 11
532.447536271185
 21
134.0044733994049
 31
0.0
  0
LINE
  5
6D2D
330
1A
100
AcDbEntity
  8
0
  6
CONTINUOUS
 62
     2
100
AcDbLine
 10
398.947506271185
 20
149.0044733994049
 30
0.0
 11
398.947506271185
 21
174.0044733994049
 31
0.0
  0
LINE
  5
6D2E
330
1A
100
AcDbEntity
  8
0
  6
CONTINUOUS
 62
     2
100
AcDbLine
 10
491.4475062711851
 20
125.0044733994049
 30
0.0
 11
491.4475062711851
 21
174.0044733994049
 31
0.0
  0
LINE
  5
6D2F
330
1A
100
AcDbEntity
  8
0
  6
CONTINUOUS
 62
     2
100
AcDbLine
 10
309.447506271185
 20
125.0044733994049
 30
0.0
 11
309.447506271185
 21
174.0044733994049
 31
0.0
  0
LINE
  5
6D30
330
1A
100
AcDbEntity
  8
225
  6
CENTER
 62
     3
100
AcDbLine
 10
400.4475062711851
 20
319.0044733994049
 30
0.0
 11
400.4475062711851
 21
79.45172877767641
 31
0.0
  0
LINE
  5
6D31
330
1A
100
AcDbEntity
  8
225
  6
CENTER
 62
     3
100
AcDbLine
 10
330.447475271185
 20
159.5044733994049
 30
0.0
 11
330.447475271185
 21
79.45172877767641
 31
0.0
  0
LINE
  5
6D32
330
1A
100
AcDbEntity
  8
225
  6
CENTER
 62
     3
100
AcDbLine
 10
470.4475062711851
 20
159.5044733994049
 30
0.0
 11
470.4475062711851
 21
79.45172877767641
 31
0.0
  0
LINE
  5
6D33
330
1A
100
AcDbEntity
  8
170
  6
PHANTOM2
100
AcDbLine
 10
527.447536271185
 20
164.5044733994049
 30
0.0
 11
527.447536271185
 21
137.0044733994049
 31
0.0
  0
LINE
  5
6D34
330
1A
100
AcDbEntity
  8
0
  6
CONTINUOUS
 62
     2
100
AcDbLine
 10
401.947506271185
 20
174.0044733994049
 30
0.0
 11
401.947506271185
 21
149.0044733994049
 31
0.0
  0
LINE
  5
6D37
330
1A
100
AcDbEntity
  8
0
  6
CONTINUOUS
 62
     2
100
AcDbLine
 10
420.447445271185
 20
124.0044733994049
 30
0.0
 11
408.4474752711851
 21
124.0044733994049
 31
0.0
  0
LINE
  5
6D38
330
1A
100
AcDbEntity
  8
0
  6
CONTINUOUS
 62
     2
100
AcDbLine
 10
420.447445271185
 20
124.0044733994049
 30
0.0
 11
408.4474752711851
 21
124.0044733994049
 31
0.0
  0
LINE
  5
6D3B
330
1A
100
AcDbEntity
  8
0
  6
CONTINUOUS
 62
     2
100
AcDbLine
 10
309.447506271185
 20
149.0044733994049
 30
0.0
 11
449.4475062711851
 21
149.0044733994049
 31
0.0
  0
LINE
  5
6D44
330
1A
100
AcDbEntity
  8
170
  6
PHANTOM2
100
AcDbLine
 10
335.4474752711851
 20
141.5044733994049
 30
0.0
 11
335.4474752711851
 21
96.50448839940494
 31
0.0
  0
LINE
  5
6D45
330
1A
100
AcDbEntity
  8
170
  6
PHANTOM2
100
AcDbLine
 10
325.4474752711851
 20
141.5044733994049
 30
0.0
 11
325.4474752711851
 21
96.50448839940494
 31
0.0
  0
LINE
  5
6D48
330
1A
100
AcDbEntity
  8
0
  6
CONTINUOUS
 62
     2
100
AcDbLine
 10
310.4475062711851
 20
124.0044733994049
 30
0.0
 11
322.4474752711851
 21
124.0044733994049
 31
0.0
  0
ARC
  5
6D49
330
1A
100
AcDbEntity
  8
0
  6
CONTINUOUS
 62
     2
100
AcDbCircle
 10
310.4475062711851
 20
125.0044733994049
 30
0.0
 40
1.0
100
AcDbArc
 50
180.0000050000001
 51
270.0000009999997
  0
LINE
  5
6D4A
330
1A
100
AcDbEntity
  8
0
  6
CONTINUOUS
 62
     2
100
AcDbLine
 10
351.447445271185
 20
125.0044733994049
 30
0.0
 11
351.447445271185
 21
149.0044733994049
 31
0.0
  0
LINE
  5
6D4B
330
1A
100
AcDbEntity
  8
0
  6
CONTINUOUS
 62
     2
100
AcDbLine
 10
336.697475271185
 20
127.0044733994049
 30
0.0
 11
336.243954271185
 21
146.0520803994049
 31
0.0
  0
LINE
  5
6D4C
330
1A
100
AcDbEntity
  8
0
  6
CONTINUOUS
 62
     2
100
AcDbLine
 10
324.197475271185
 20
127.0044733994049
 30
0.0
 11
324.650997271185
 21
146.0520803994049
 31
0.0
  0
LINE
  5
6D4D
330
1A
100
AcDbEntity
  8
0
  6
CONTINUOUS
 62
     2
100
AcDbLine
 10
338.4474752711851
 20
124.0044733994049
 30
0.0
 11
336.697475271185
 21
127.0044733994049
 31
0.0
  0
LINE
  5
6D4E
330
1A
100
AcDbEntity
  8
0
  6
CONTINUOUS
 62
     2
100
AcDbLine
 10
322.4474752711851
 20
124.0044733994049
 30
0.0
 11
324.197475271185
 21
127.0044733994049
 31
0.0
  0
LINE
  5
6D4F
330
1A
100
AcDbEntity
  8
0
  6
CONTINUOUS
 62
     2
100
AcDbLine
 10
350.447445271185
 20
124.0044733994049
 30
0.0
 11
338.4474752711851
 21
124.0044733994049
 31
0.0
  0
LINE
  5
6D50
330
1A
100
AcDbEntity
  8
0
  6
CONTINUOUS
 62
     2
100
AcDbLine
 10
350.447445271185
 20
124.0044733994049
 30
0.0
 11
338.4474752711851
 21
124.0044733994049
 31
0.0
  0
ARC
  5
6D51
330
1A
100
AcDbEntity
  8
0
  6
CONTINUOUS
 62
     2
100
AcDbCircle
 10
350.447445271185
 20
125.0044733994049
 30
0.0
 40
1.0
100
AcDbArc
 50
270.0
 51
359.999996
  0
ARC
  5
6D52
330
1A
100
AcDbEntity
  8
170
  6
PHANTOM2
100
AcDbCircle
 10
330.447475271185
 20
141.5044733994049
 30
0.0
 40
5.0
100
AcDbArc
 50
0.0
 51
180.0000050000001
  0
LINE
  5
6D53
330
1A
100
AcDbEntity
  8
0
  6
CONTINUOUS
 62
     2
100
AcDbLine
 10
334.2445342711851
 20
148.0044733994049
 30
0.0
 11
326.650417271185
 21
148.0044733994049
 31
0.0
  0
ARC
  5
6D54
330
1A
100
AcDbEntity
  8
0
  6
CONTINUOUS
 62
     2
100
AcDbCircle
 10
326.650417271185
 20
146.0044733994049
 30
0.0
 40
2.0
100
AcDbArc
 50
90.0
 51
178.6360679999999
  0
ARC
  5
6D55
330
1A
100
AcDbEntity
  8
0
  6
CONTINUOUS
 62
     2
100
AcDbCircle
 10
334.2445342711851
 20
146.0044733994049
 30
0.0
 40
2.0
100
AcDbArc
 50
1.363929000000019
 51
89.99999699999904
  0
LINE
  5
6D57
330
1A
100
AcDbEntity
  8
170
  6
PHANTOM2
100
AcDbLine
 10
405.447506271185
 20
141.5044733994049
 30
0.0
 11
405.447506271185
 21
96.50448839940494
 31
0.0
  0
LINE
  5
6D58
330
1A
100
AcDbEntity
  8
170
  6
PHANTOM2
100
AcDbLine
 10
395.447506271185
 20
141.5044733994049
 30
0.0
 11
395.447506271185
 21
96.50448839940494
 31
0.0
  0
LINE
  5
6D66
330
1A
100
AcDbEntity
  8
0
  6
CONTINUOUS
 62
     2
100
AcDbLine
 10
380.447506271185
 20
124.0044733994049
 30
0.0
 11
392.4474752711851
 21
124.0044733994049
 31
0.0
  0
LINE
  5
6D67
330
1A
100
AcDbEntity
  8
0
  6
CONTINUOUS
 62
     2
100
AcDbLine
 10
379.4475062711851
 20
125.0044733994049
 30
0.0
 11
379.4475062711851
 21
149.0044733994049
 31
0.0
  0
ARC
  5
6D68
330
1A
100
AcDbEntity
  8
0
  6
CONTINUOUS
 62
     2
100
AcDbCircle
 10
380.447506271185
 20
125.0044733994049
 30
0.0
 40
1.0
100
AcDbArc
 50
180.0000050000001
 51
270.0000009999997
  0
LINE
  5
6D69
330
1A
100
AcDbEntity
  8
0
  6
CONTINUOUS
 62
     2
100
AcDbLine
 10
406.6974752711851
 20
127.0044733994049
 30
0.0
 11
406.243954271185
 21
146.0520803994049
 31
0.0
  0
LINE
  5
6D6A
330
1A
100
AcDbEntity
  8
0
  6
CONTINUOUS
 62
     2
100
AcDbLine
 10
394.1974752711851
 20
127.0044733994049
 30
0.0
 11
394.650997271185
 21
146.0520803994049
 31
0.0
  0
LINE
  5
6D6B
330
1A
100
AcDbEntity
  8
0
  6
CONTINUOUS
 62
     2
100
AcDbLine
 10
392.4474752711851
 20
124.0044733994049
 30
0.0
 11
394.1974752711851
 21
127.0044733994049
 31
0.0
  0
LINE
  5
6D6C
330
1A
100
AcDbEntity
  8
0
  6
CONTINUOUS
 62
     2
100
AcDbLine
 10
408.4474752711851
 20
124.0044733994049
 30
0.0
 11
406.6974752711851
 21
127.0044733994049
 31
0.0
  0
LINE
  5
6D6D
330
1A
100
AcDbEntity
  8
0
  6
CONTINUOUS
 62
     2
100
AcDbLine
 10
404.244534271185
 20
148.0044733994049
 30
0.0
 11
396.650417271185
 21
148.0044733994049
 31
0.0
  0
ARC
  5
6D6E
330
1A
100
AcDbEntity
  8
170
  6
PHANTOM2
100
AcDbCircle
 10
400.4475062711851
 20
141.5044733994049
 30
0.0
 40
5.0
100
AcDbArc
 50
0.0
 51
180.0000050000001
  0
ARC
  5
6D6F
330
1A
100
AcDbEntity
  8
0
  6
CONTINUOUS
 62
     2
100
AcDbCircle
 10
396.650417271185
 20
146.0044733994049
 30
0.0
 40
2.0
100
AcDbArc
 50
90.0
 51
178.6360679999999
  0
ARC
  5
6D70
330
1A
100
AcDbEntity
  8
0
  6
CONTINUOUS
 62
     2
100
AcDbCircle
 10
404.244534271185
 20
146.0044733994049
 30
0.0
 40
2.0
100
AcDbArc
 50
1.363929000000019
 51
89.99999699999904
  0
LINE
  5
6D74
330
1A
100
AcDbEntity
  8
0
  6
CONTINUOUS
 62
     2
100
AcDbLine
 10
490.447445271185
 20
124.0044733994049
 30
0.0
 11
478.447475271185
 21
124.0044733994049
 31
0.0
  0
LINE
  5
6D75
330
1A
100
AcDbEntity
  8
0
  6
CONTINUOUS
 62
     2
100
AcDbLine
 10
490.447445271185
 20
124.0044733994049
 30
0.0
 11
478.447475271185
 21
124.0044733994049
 31
0.0
  0
LINE
  5
6D76
330
1A
100
AcDbEntity
  8
170
  6
PHANTOM2
100
AcDbLine
 10
475.4475062711851
 20
141.5044733994049
 30
0.0
 11
475.4475062711851
 21
96.50448839940494
 31
0.0
  0
LINE
  5
6D77
330
1A
100
AcDbEntity
  8
170
  6
PHANTOM2
100
AcDbLine
 10
465.4475062711851
 20
141.5044733994049
 30
0.0
 11
465.4475062711851
 21
96.50448839940494
 31
0.0
  0
LINE
  5
6D7B
330
1A
100
AcDbEntity
  8
0
  6
CONTINUOUS
 62
     2
100
AcDbLine
 10
450.4475062711851
 20
124.0044733994049
 30
0.0
 11
462.447475271185
 21
124.0044733994049
 31
0.0
  0
LINE
  5
6D7C
330
1A
100
AcDbEntity
  8
0
  6
CONTINUOUS
 62
     2
100
AcDbLine
 10
449.4475062711851
 20
125.0044733994049
 30
0.0
 11
449.4475062711851
 21
149.0044733994049
 31
0.0
  0
LINE
  5
6D7D
330
1A
100
AcDbEntity
  8
0
  6
CONTINUOUS
 62
     2
100
AcDbLine
 10
421.4474452711851
 20
125.0044733994049
 30
0.0
 11
421.4474452711851
 21
149.0044733994049
 31
0.0
  0
ARC
  5
6D7E
330
1A
100
AcDbEntity
  8
0
  6
CONTINUOUS
 62
     2
100
AcDbCircle
 10
420.447445271185
 20
125.0044733994049
 30
0.0
 40
1.0
100
AcDbArc
 50
270.0
 51
359.999996
  0
ARC
  5
6D7F
330
1A
100
AcDbEntity
  8
0
  6
CONTINUOUS
 62
     2
100
AcDbCircle
 10
450.4475062711851
 20
125.0044733994049
 30
0.0
 40
1.0
100
AcDbArc
 50
180.0000050000001
 51
270.0000009999997
  0
LINE
  5
6D80
330
1A
100
AcDbEntity
  8
0
  6
CONTINUOUS
 62
     2
100
AcDbLine
 10
476.697475271185
 20
127.0044733994049
 30
0.0
 11
476.243954271185
 21
146.0520803994049
 31
0.0
  0
LINE
  5
6D81
330
1A
100
AcDbEntity
  8
0
  6
CONTINUOUS
 62
     2
100
AcDbLine
 10
464.197475271185
 20
127.0044733994049
 30
0.0
 11
464.6509972711851
 21
146.0520803994049
 31
0.0
  0
LINE
  5
6D82
330
1A
100
AcDbEntity
  8
0
  6
CONTINUOUS
 62
     2
100
AcDbLine
 10
462.447475271185
 20
124.0044733994049
 30
0.0
 11
464.197475271185
 21
127.0044733994049
 31
0.0
  0
LINE
  5
6D83
330
1A
100
AcDbEntity
  8
0
  6
CONTINUOUS
 62
     2
100
AcDbLine
 10
478.447475271185
 20
124.0044733994049
 30
0.0
 11
476.697475271185
 21
127.0044733994049
 31
0.0
  0
LINE
  5
6D84
330
1A
100
AcDbEntity
  8
0
  6
CONTINUOUS
 62
     2
100
AcDbLine
 10
474.244534271185
 20
148.0044733994049
 30
0.0
 11
466.6504172711851
 21
148.0044733994049
 31
0.0
  0
ARC
  5
6D85
330
1A
100
AcDbEntity
  8
170
  6
PHANTOM2
100
AcDbCircle
 10
470.4475062711851
 20
141.5044733994049
 30
0.0
 40
5.0
100
AcDbArc
 50
0.0
 51
180.0000050000001
  0
ARC
  5
6D86
330
1A
100
AcDbEntity
  8
0
  6
CONTINUOUS
 62
     2
100
AcDbCircle
 10
466.6504172711851
 20
146.0044733994049
 30
0.0
 40
2.0
100
AcDbArc
 50
90.0
 51
178.6360679999999
  0
ARC
  5
6D87
330
1A
100
AcDbEntity
  8
0
  6
CONTINUOUS
 62
     2
100
AcDbCircle
 10
474.244534271185
 20
146.0044733994049
 30
0.0
 40
2.0
100
AcDbArc
 50
1.363929000000019
 51
89.99999699999904
  0
LINE
  5
6D88
330
1A
100
AcDbEntity
  8
0
  6
CONTINUOUS
 62
     2
100
AcDbLine
 10
468.947506271185
 20
149.0044733994049
 30
0.0
 11
471.947506271185
 21
149.0044733994049
 31
0.0
  0
ARC
  5
6D89
330
1A
100
AcDbEntity
  8
0
  6
CONTINUOUS
 62
     2
100
AcDbCircle
 10
490.447445271185
 20
125.0044733994049
 30
0.0
 40
1.0
100
AcDbArc
 50
270.0
 51
359.999996
  0
ARC
  5
6D8A
330
1A
100
AcDbEntity
  8
170
  6
PHANTOM2
100
AcDbCircle
 10
530.447536271185
 20
137.0044733994049
 30
0.0
 40
3.0
100
AcDbArc
 50
179.9999899999997
 51
269.9999990000002
  0
LINE
  5
6D8B
330
1A
100
AcDbEntity
  8
170
  6
PHANTOM2
100
AcDbLine
 10
532.447536271185
 20
134.0044733994049
 30
0.0
 11
530.447536271185
 21
134.0044733994049
 31
0.0
  0
LINE
  5
6D8D
330
1A
100
AcDbEntity
  8
0
  6
CONTINUOUS
 62
     2
100
AcDbLine
 10
376.447506271185
 20
302.0044733994049
 30
0.0
 11
424.4475062711851
 21
302.0044733994049
 31
0.0
  0
LINE
  5
6D8E
330
1A
100
AcDbEntity
  8
150
  6
CONTINUOUS
 62
     7
100
AcDbLine
 10
310.9475062711851
 20
212.0044733994049
 30
0.0
 11
482.9475062711851
 21
212.0044733994049
 31
0.0
  0
LINE
  5
6D8F
330
1A
100
AcDbEntity
  8
0
  6
CONTINUOUS
 62
     2
100
AcDbLine
 10
350.4475062711851
 20
298.0044733994049
 30
0.0
 11
375.4475062711851
 21
298.0044733994049
 31
0.0
  0
LINE
  5
6D95
330
1A
100
AcDbEntity
  8
150
  6
CONTINUOUS
 62
     7
100
AcDbLine
 10
322.9474752711851
 20
293.0044733994049
 30
0.0
 11
322.9474752711851
 21
215.0044733994049
 31
0.0
  0
LINE
  5
6D96
330
1A
100
AcDbEntity
  8
0
  6
CONTINUOUS
 62
     2
100
AcDbLine
 10
310.9474752711851
 20
217.0044733994049
 30
0.0
 11
315.9517782711851
 21
293.1356683994049
 31
0.0
  0
LINE
  5
6D97
330
1A
100
AcDbEntity
  8
150
  6
HIDDEN2
100
AcDbLine
 10
317.947475271185
 20
292.0044733994049
 30
0.0
 11
317.947475271185
 21
215.0044733994049
 31
0.0
  0
LINE
  5
6D98
330
1A
100
AcDbEntity
  8
225
  6
CENTER
 62
     3
100
AcDbLine
 10
293.447506271185
 20
161.0044583994049
 30
0.0
 11
293.447506271185
 21
200.0044733994049
 31
0.0
  0
LINE
  5
6D99
330
1A
100
AcDbEntity
  8
150
  6
CONTINUOUS
 62
     7
100
AcDbLine
 10
316.4475062711851
 20
195.0044733994049
 30
0.0
 11
316.4475062711851
 21
212.0044733994049
 31
0.0
  0
LINE
  5
6D9A
330
1A
100
AcDbEntity
  8
0
  6
CONTINUOUS
 62
     2
100
AcDbLine
 10
306.947506271185
 20
195.0044733994049
 30
0.0
 11
306.947506271185
 21
216.0044733994049
 31
0.0
  0
LINE
  5
6D9B
330
1A
100
AcDbEntity
  8
150
  6
DASHED
 62
     7
100
AcDbLine
 10
290.4475062711851
 20
188.0044733994049
 30
0.0
 11
290.4474912711851
 21
166.0459773994049
 31
0.0
  0
LINE
  5
6D9C
330
1A
100
AcDbEntity
  8
150
  6
DASHED
 62
     7
100
AcDbLine
 10
296.4475062711851
 20
188.0044733994049
 30
0.0
 11
296.4475062711851
 21
166.0459773994049
 31
0.0
  0
LINE
  5
6D9D
330
1A
100
AcDbEntity
  8
150
  6
DASHED
 62
     7
100
AcDbLine
 10
295.9060022711851
 20
188.0044733994049
 30
0.0
 11
295.9060022711851
 21
165.5044733994049
 31
0.0
  0
LINE
  5
6D9E
330
1A
100
AcDbEntity
  8
150
  6
DASHED
 62
     7
100
AcDbLine
 10
290.989010271185
 20
188.0044733994049
 30
0.0
 11
290.988995271185
 21
165.5044733994049
 31
0.0
  0
LINE
  5
6D9F
330
1A
100
AcDbEntity
  8
150
  6
DASHED
 62
     7
100
AcDbLine
 10
290.4474912711851
 20
166.0459773994049
 30
0.0
 11
296.4475062711851
 21
166.0459773994049
 31
0.0
  0
LINE
  5
6DA0
330
1A
100
AcDbEntity
  8
150
  6
DASHED
 62
     7
100
AcDbLine
 10
296.4475062711851
 20
166.0459773994049
 30
0.0
 11
295.9060022711851
 21
165.5044733994049
 31
0.0
  0
LINE
  5
6DA1
330
1A
100
AcDbEntity
  8
225
  6
CENTER
 62
     3
100
AcDbLine
 10
290.4474912711851
 20
166.0459773994049
 30
0.0
 11
290.988995271185
 21
165.5044733994049
 31
0.0
  0
LINE
  5
6DA2
330
1A
100
AcDbEntity
  8
150
  6
DASHED
 62
     7
100
AcDbLine
 10
290.988995271185
 20
165.5044733994049
 30
0.0
 11
295.9060022711851
 21
165.5044733994049
 31
0.0
  0
LINE
  5
6DA3
330
1A
100
AcDbEntity
  8
170
  6
PHANTOM2
100
AcDbLine
 10
308.4474752711851
 20
174.0044733994049
 30
0.0
 11
308.4474752711851
 21
172.0044733994049
 31
0.0
  0
ARC
  5
6DA4
330
1A
100
AcDbEntity
  8
170
  6
PHANTOM2
100
AcDbCircle
 10
305.447475271185
 20
172.0044733994049
 30
0.0
 40
3.0
100
AcDbArc
 50
270.0
 51
0.0000090000000101
  0
ARC
  5
6DA5
330
1A
100
AcDbEntity
  8
150
  6
HIDDEN2
 62
     7
100
AcDbCircle
 10
293.447513271185
 20
180.5044663994049
 30
0.0
 40
14.0
100
AcDbArc
 50
74.68147499999992
 51
105.3184530000001
  0
LINE
  5
6DA6
330
1A
100
AcDbEntity
  8
230
  6
CONTINUOUS
 62
     6
100
AcDbLine
 10
289.699512271185
 20
193.9928113994049
 30
0.0
 11
289.2429352711851
 21
195.9399983994049
 31
0.0
  0
LINE
  5
6DA7
330
1A
100
AcDbEntity
  8
230
  6
CONTINUOUS
 62
     6
100
AcDbLine
 10
289.699512271185
 20
193.9928113994049
 30
0.0
 11
288.6283172711851
 21
195.6817583994049
 31
0.0
  0
LINE
  5
6DA8
330
1A
100
AcDbEntity
  8
150
  6
HIDDEN2
 62
     7
100
AcDbLine
 10
288.197506271185
 20
190.5044733994049
 30
0.0
 11
288.358105271185
 21
192.3401663994049
 31
0.0
  0
LINE
  5
6DA9
330
1A
100
AcDbEntity
  8
150
  6
HIDDEN2
 62
     7
100
AcDbLine
 10
294.1975062711851
 20
189.0044733994049
 30
0.0
 11
293.447506271185
 21
190.5044733994049
 31
0.0
  0
ARC
  5
6DAA
330
1A
100
AcDbEntity
  8
150
  6
HIDDEN2
 62
     7
100
AcDbCircle
 10
290.2508792711851
 20
192.1745733994049
 30
0.0
 40
1.9
100
AcDbArc
 50
105.3184499999997
 51
175.0000399999999
  0
LINE
  5
6DAB
330
1A
100
AcDbEntity
  8
150
  6
HIDDEN2
 62
     7
100
AcDbLine
 10
293.447506271185
 20
189.0044733994049
 30
0.0
 11
292.697506271185
 21
190.5044733994049
 31
0.0
  0
LINE
  5
6DAC
330
1A
100
AcDbEntity
  8
150
  6
HIDDEN2
 62
     7
100
AcDbLine
 10
300.4475062711851
 20
188.0044733994049
 30
0.0
 11
300.4475062711851
 21
194.0044733994049
 31
0.0
  0
LINE
  5
6DAD
330
1A
100
AcDbEntity
  8
150
  6
HIDDEN2
 62
     7
100
AcDbLine
 10
299.5475122711851
 20
189.0044733994049
 30
0.0
 11
299.5475122711851
 21
190.5044733994049
 31
0.0
  0
LINE
  5
6DAE
330
1A
100
AcDbEntity
  8
150
  6
HIDDEN2
 62
     7
100
AcDbLine
 10
298.697506271185
 20
190.5044733994049
 30
0.0
 11
298.536922271185
 21
192.3401663994049
 31
0.0
  0
LINE
  5
6DAF
330
1A
100
AcDbEntity
  8
150
  6
HIDDEN2
 62
     7
100
AcDbLine
 10
299.9475062711851
 20
188.0044733994049
 30
0.0
 11
299.9475062711851
 21
189.0044733994049
 31
0.0
  0
ARC
  5
6DB0
330
1A
100
AcDbEntity
  8
150
  6
HIDDEN2
 62
     7
100
AcDbCircle
 10
296.644144271185
 20
192.1745693994049
 30
0.0
 40
1.9
100
AcDbArc
 50
4.999913000000079
 51
74.68147499999992
  0
ARC
  5
6DB1
330
1A
100
AcDbEntity
  8
150
  6
HIDDEN2
 62
     7
100
AcDbCircle
 10
301.447506271185
 20
194.0044733994049
 30
0.0
 40
1.0
100
AcDbArc
 50
90.0
 51
180.0000030000001
  0
LINE
  5
6DB2
330
1A
100
AcDbEntity
  8
150
  6
CONTINUOUS
 62
     7
100
AcDbLine
 10
310.9474752711851
 20
215.0044733994049
 30
0.0
 11
322.9474752711851
 21
215.0044733994049
 31
0.0
  0
LINE
  5
6DB3
330
1A
100
AcDbEntity
  8
150
  6
CONTINUOUS
 62
     7
100
AcDbLine
 10
310.9474752711851
 20
217.0044733994049
 30
0.0
 11
310.9474752711851
 21
215.0044733994049
 31
0.0
  0
LINE
  5
6DB4
330
1A
100
AcDbEntity
  8
0
  6
CONTINUOUS
 62
     2
100
AcDbLine
 10
310.9475062711851
 20
217.0044733994049
 30
0.0
 11
307.947506271185
 21
217.0044733994049
 31
0.0
  0
LINE
  5
6DB5
330
1A
100
AcDbEntity
  8
150
  6
CONTINUOUS
 62
     7
100
AcDbLine
 10
310.9475062711851
 20
215.0044733994049
 30
0.0
 11
310.9475062711851
 21
212.0044733994049
 31
0.0
  0
ARC
  5
6DB6
330
1A
100
AcDbEntity
  8
0
  6
CONTINUOUS
 62
     2
100
AcDbCircle
 10
307.947506271185
 20
216.0044733994049
 30
0.0
 40
1.0
100
AcDbArc
 50
90.0
 51
180.0000030000001
  0
LINE
  5
6DB7
330
1A
100
AcDbEntity
  8
150
  6
CONTINUOUS
 62
     7
100
AcDbLine
 10
317.947475271185
 20
215.0044733994049
 30
0.0
 11
317.947475271185
 21
212.0044733994049
 31
0.0
  0
LINE
  5
6DBF
330
1A
100
AcDbEntity
  8
230
  6
CONTINUOUS
 62
     6
100
AcDbLine
 10
313.7753792711851
 20
260.0259993994049
 30
0.0
 11
303.546955271185
 21
277.4229413994049
 31
0.0
  0
LINE
  5
6DC0
330
1A
100
AcDbEntity
  8
230
  6
CONTINUOUS
 62
     6
100
AcDbLine
 10
313.7753792711851
 20
260.0259993994049
 30
0.0
 11
312.4885422711851
 21
261.5570283994049
 31
0.0
  0
LINE
  5
6DC1
330
1A
100
AcDbEntity
  8
230
  6
CONTINUOUS
 62
     6
100
AcDbLine
 10
313.7753792711851
 20
260.0259993994049
 30
0.0
 11
313.063238271185
 21
261.8949173994049
 31
0.0
  0
LINE
  5
6DC2
330
1A
100
AcDbEntity
  8
0
  6
CONTINUOUS
 62
     2
100
AcDbLine
 10
319.4474752711851
 20
297.5044733994049
 30
0.0
 11
321.4474752711851
 21
297.5044733994049
 31
0.0
  0
LINE
  5
6DC3
330
1A
100
AcDbEntity
  8
0
  6
CONTINUOUS
 62
     2
100
AcDbLine
 10
317.947475271185
 20
295.0044733994049
 30
0.0
 11
338.447506271185
 21
295.0044733994049
 31
0.0
  0
LINE
  5
6DC4
330
1A
100
AcDbEntity
  8
150
  6
CONTINUOUS
 62
     7
100
AcDbLine
 10
318.9474752711851
 20
293.0044733994049
 30
0.0
 11
338.447506271185
 21
293.0044733994049
 31
0.0
  0
LINE
  5
6DC7
330
1A
100
AcDbEntity
  8
0
  6
CONTINUOUS
 62
     2
100
AcDbLine
 10
319.4474752711851
 20
295.0044733994049
 30
0.0
 11
319.4474752711851
 21
297.5044733994049
 31
0.0
  0
ARC
  5
6DC8
330
1A
100
AcDbEntity
  8
150
  6
CONTINUOUS
 62
     7
100
AcDbCircle
 10
318.9474752711851
 20
292.0044733994049
 30
0.0
 40
1.0
100
AcDbArc
 50
90.0
 51
180.0000030000001
  0
ARC
  5
6DC9
330
1A
100
AcDbEntity
  8
0
  6
CONTINUOUS
 62
     2
100
AcDbCircle
 10
317.947475271185
 20
293.0044733994049
 30
0.0
 40
2.0
100
AcDbArc
 50
90.0
 51
180.0000030000001
  0
LINE
  5
6DD0
330
1A
100
AcDbEntity
  8
0
  6
CONTINUOUS
 62
     2
100
AcDbLine
 10
338.447506271185
 20
293.0044733994049
 30
0.0
 11
349.447506271185
 21
293.0044733994049
 31
0.0
  0
LINE
  5
6DD1
330
1A
100
AcDbEntity
  8
0
  6
CONTINUOUS
 62
     2
100
AcDbLine
 10
321.4474752711851
 20
295.0044733994049
 30
0.0
 11
321.4474752711851
 21
297.5044733994049
 31
0.0
  0
LINE
  5
6DD2
330
1A
100
AcDbEntity
  8
0
  6
CONTINUOUS
 62
     2
100
AcDbLine
 10
333.9474752711851
 20
295.0044733994049
 30
0.0
 11
333.9474752711851
 21
297.5044733994049
 31
0.0
  0
LINE
  5
6DD3
330
1A
100
AcDbEntity
  8
0
  6
CONTINUOUS
 62
     2
100
AcDbLine
 10
331.9474752711851
 20
295.0044733994049
 30
0.0
 11
331.9474752711851
 21
297.5044733994049
 31
0.0
  0
LINE
  5
6DD4
330
1A
100
AcDbEntity
  8
0
  6
CONTINUOUS
 62
     2
100
AcDbLine
 10
331.9474752711851
 20
297.5044733994049
 30
0.0
 11
333.9474752711851
 21
297.5044733994049
 31
0.0
  0
LINE
  5
6DD5
330
1A
100
AcDbEntity
  8
0
  6
CONTINUOUS
 62
     2
100
AcDbLine
 10
338.447506271185
 20
295.0044733994049
 30
0.0
 11
338.447506271185
 21
293.0044733994049
 31
0.0
  0
LINE
  5
6DD6
330
1A
100
AcDbEntity
  8
0
  6
CONTINUOUS
 62
     2
100
AcDbLine
 10
349.447506271185
 20
297.0044733994049
 30
0.0
 11
349.447506271185
 21
293.0044733994049
 31
0.0
  0
ARC
  5
6DD7
330
1A
100
AcDbEntity
  8
0
  6
CONTINUOUS
 62
     2
100
AcDbCircle
 10
350.4475062711851
 20
297.0044733994049
 30
0.0
 40
1.0
100
AcDbArc
 50
90.0
 51
180.0000030000001
  0
ARC
  5
6DDA
330
1A
100
AcDbEntity
  8
0
  6
CONTINUOUS
 62
     2
100
AcDbCircle
 10
386.7193872711851
 20
314.6650563994049
 30
0.0
 40
1.0
100
AcDbArc
 50
21.12277000000032
 51
110.4998450000002
  0
LINE
  5
6DDB
330
1A
100
AcDbEntity
  8
0
  6
CONTINUOUS
 62
     2
100
AcDbLine
 10
386.3691982711851
 20
315.6017323994049
 30
0.0
 11
381.197201271185
 21
313.6680173994049
 31
0.0
  0
LINE
  5
6DDC
330
1A
100
AcDbEntity
  8
170
  6
PHANTOM2
100
AcDbLine
 10
354.4475062711851
 20
301.0044733994049
 30
0.0
 11
354.4475062711851
 21
299.0044733994049
 31
0.0
  0
LINE
  5
6DDD
330
1A
100
AcDbEntity
  8
0
  6
CONTINUOUS
 62
     2
100
AcDbLine
 10
384.3623312711851
 20
302.0044733994049
 30
0.0
 11
380.6069912711851
 21
312.3913443994049
 31
0.0
  0
LINE
  5
6DDE
330
1A
100
AcDbEntity
  8
0
  6
CONTINUOUS
 62
     2
100
AcDbLine
 10
375.4475062711851
 20
301.0044733994049
 30
0.0
 11
375.4475062711851
 21
298.0044733994049
 31
0.0
  0
ARC
  5
6DDF
330
1A
100
AcDbEntity
  8
0
  6
CONTINUOUS
 62
     2
100
AcDbCircle
 10
376.447506271185
 20
301.0044733994049
 30
0.0
 40
1.0
100
AcDbArc
 50
90.0
 51
180.0000030000001
  0
ARC
  5
6DE2
330
1A
100
AcDbEntity
  8
0
  6
CONTINUOUS
 62
     2
100
AcDbCircle
 10
381.5474212711851
 20
312.7313413994049
 30
0.0
 40
1.0
100
AcDbArc
 50
110.4999679999991
 51
199.8773439999996
  0
LINE
  5
6DE3
330
1A
100
AcDbEntity
  8
0
  6
CONTINUOUS
 62
     2
100
AcDbLine
 10
392.682491271185
 20
302.0044733994049
 30
0.0
 11
387.6521872711851
 21
315.0254083994049
 31
0.0
  0
TEXT
  5
6DE6
330
1A
100
AcDbEntity
  8
230
 62
     6
100
AcDbText
 10
393.0602462711851
 20
321.2939893994049
 30
0.0
 40
5.0
  1
ASL
100
AcDbText
  0
LINE
  5
6DE7
330
1A
100
AcDbEntity
  8
150
  6
CONTINUOUS
 62
     7
100
AcDbLine
 10
477.447506271185
 20
293.0044733994049
 30
0.0
 11
477.447506271185
 21
216.1044793994049
 31
0.0
  0
LINE
  5
6DE8
330
1A
100
AcDbEntity
  8
150
  6
PHANTOM2
 62
     7
100
AcDbLine
 10
537.9475062711851
 20
293.0044733994049
 30
0.0
 11
537.9475062711851
 21
216.1044793994049
 31
0.0
  0
LINE
  5
6DE9
330
1A
100
AcDbEntity
  8
0
  6
CONTINUOUS
 62
     2
100
AcDbLine
 10
482.9475062711851
 20
292.0044733994049
 30
0.0
 11
482.9475062711851
 21
212.0044733994049
 31
0.0
  0
LINE
  5
6DEA
330
1A
100
AcDbEntity
  8
225
  6
CENTER
 62
     3
100
AcDbLine
 10
472.447506271185
 20
255.1044793994049
 30
0.0
 11
472.447506271185
 21
217.1044793994049
 31
0.0
  0
LINE
  5
6DEB
330
1A
100
AcDbEntity
  8
150
  6
HIDDEN2
 62
     7
100
AcDbLine
 10
465.9475062711851
 20
242.1044793994049
 30
0.0
 11
465.9475062711851
 21
250.1044793994049
 31
0.0
  0
LINE
  5
6DEC
330
1A
100
AcDbEntity
  8
150
  6
HIDDEN2
 62
     7
100
AcDbLine
 10
478.9475062711851
 20
242.1044793994049
 30
0.0
 11
478.9475062711851
 21
250.1044793994049
 31
0.0
  0
LINE
  5
6DED
330
1A
100
AcDbEntity
  8
150
  6
PHANTOM2
 62
     7
100
AcDbLine
 10
477.447506271185
 20
216.1044793994049
 30
0.0
 11
537.9475062711851
 21
216.1044793994049
 31
0.0
  0
LINE
  5
6DEE
330
1A
100
AcDbEntity
  8
0
  6
CONTINUOUS
 62
     2
100
AcDbLine
 10
484.447506271185
 20
195.0044733994049
 30
0.0
 11
484.447506271185
 21
212.0044733994049
 31
0.0
  0
LINE
  5
6DEF
330
1A
100
AcDbEntity
  8
150
  6
HIDDEN2
 62
     7
100
AcDbLine
 10
481.9475062711851
 20
236.0044733994049
 30
0.0
 11
457.9475062711851
 21
236.0044733994049
 31
0.0
  0
LINE
  5
6DF0
330
1A
100
AcDbEntity
  8
150
  6
HIDDEN2
 62
     7
100
AcDbLine
 10
481.9475062711851
 20
231.0044733994049
 30
0.0
 11
457.9475062711851
 21
231.0044733994049
 31
0.0
  0
LINE
  5
6DF1
330
1A
100
AcDbEntity
  8
150
  6
HIDDEN2
 62
     7
100
AcDbLine
 10
481.447506271185
 20
238.5044733994049
 30
0.0
 11
463.447506271185
 21
238.5044733994049
 31
0.0
  0
LINE
  5
6DF2
330
1A
100
AcDbEntity
  8
150
  6
HIDDEN2
 62
     7
100
AcDbLine
 10
463.447506271185
 20
240.1044793994049
 30
0.0
 11
481.447506271185
 21
240.1044793994049
 31
0.0
  0
LINE
  5
6DF3
330
1A
100
AcDbEntity
  8
150
  6
HIDDEN2
 62
     7
100
AcDbLine
 10
464.747524271185
 20
242.1044793994049
 30
0.0
 11
480.147518271185
 21
242.1044793994049
 31
0.0
  0
LINE
  5
6DF4
330
1A
100
AcDbEntity
  8
150
  6
HIDDEN2
 62
     7
100
AcDbLine
 10
468.447506271185
 20
222.7809933994049
 30
0.0
 11
476.447506271185
 21
222.7809933994049
 31
0.0
  0
LINE
  5
6DF5
330
1A
100
AcDbEntity
  8
150
  6
HIDDEN2
 62
     7
100
AcDbLine
 10
468.447506271185
 20
222.7809933994049
 30
0.0
 11
469.1239892711851
 21
222.1044793994049
 31
0.0
  0
LINE
  5
6DF6
330
1A
100
AcDbEntity
  8
150
  6
HIDDEN2
 62
     7
100
AcDbLine
 10
468.447506271185
 20
238.5044733994049
 30
0.0
 11
468.447506271185
 21
222.7809933994049
 31
0.0
  0
LINE
  5
6DF7
330
1A
100
AcDbEntity
  8
150
  6
HIDDEN2
 62
     7
100
AcDbLine
 10
463.447506271185
 20
238.5044733994049
 30
0.0
 11
463.447506271185
 21
240.1044793994049
 31
0.0
  0
LINE
  5
6DF8
330
1A
100
AcDbEntity
  8
150
  6
HIDDEN2
 62
     7
100
AcDbLine
 10
464.747524271185
 20
240.1044793994049
 30
0.0
 11
464.747524271185
 21
242.1044793994049
 31
0.0
  0
LINE
  5
6DF9
330
1A
100
AcDbEntity
  8
150
  6
HIDDEN2
 62
     7
100
AcDbLine
 10
481.9475062711851
 20
236.0044733994049
 30
0.0
 11
481.9475062711851
 21
231.0044733994049
 31
0.0
  0
LINE
  5
6DFA
330
1A
100
AcDbEntity
  8
150
  6
HIDDEN2
 62
     7
100
AcDbLine
 10
469.1240202711851
 20
238.5044733994049
 30
0.0
 11
469.1239892711851
 21
222.1044793994049
 31
0.0
  0
LINE
  5
6DFB
330
1A
100
AcDbEntity
  8
150
  6
HIDDEN2
 62
     7
100
AcDbLine
 10
475.7709922711852
 20
238.5044733994049
 30
0.0
 11
475.7709922711852
 21
222.1044793994049
 31
0.0
  0
LINE
  5
6DFC
330
1A
100
AcDbEntity
  8
150
  6
HIDDEN2
 62
     7
100
AcDbLine
 10
476.447506271185
 20
238.5044733994049
 30
0.0
 11
476.447506271185
 21
222.7809933994049
 31
0.0
  0
LINE
  5
6DFD
330
1A
100
AcDbEntity
  8
150
  6
HIDDEN2
 62
     7
100
AcDbLine
 10
469.1239892711851
 20
222.1044793994049
 30
0.0
 11
475.7709922711852
 21
222.1044793994049
 31
0.0
  0
LINE
  5
6DFE
330
1A
100
AcDbEntity
  8
150
  6
HIDDEN2
 62
     7
100
AcDbLine
 10
476.447506271185
 20
222.7809933994049
 30
0.0
 11
475.7709922711852
 21
222.1044793994049
 31
0.0
  0
LINE
  5
6DFF
330
1A
100
AcDbEntity
  8
150
  6
HIDDEN2
 62
     7
100
AcDbLine
 10
472.447506271185
 20
240.1044793994049
 30
0.0
 11
471.4475062711851
 21
242.1044793994049
 31
0.0
  0
LINE
  5
6E00
330
1A
100
AcDbEntity
  8
150
  6
HIDDEN2
 62
     7
100
AcDbLine
 10
473.447506271185
 20
240.1044793994049
 30
0.0
 11
472.447506271185
 21
242.1044793994049
 31
0.0
  0
LINE
  5
6E01
330
1A
100
AcDbEntity
  8
150
  6
HIDDEN2
 62
     7
100
AcDbLine
 10
481.447506271185
 20
238.5044733994049
 30
0.0
 11
481.447506271185
 21
240.1044793994049
 31
0.0
  0
LINE
  5
6E02
330
1A
100
AcDbEntity
  8
150
  6
HIDDEN2
 62
     7
100
AcDbLine
 10
480.147518271185
 20
240.1044793994049
 30
0.0
 11
480.147518271185
 21
242.1044793994049
 31
0.0
  0
LINE
  5
6E03
330
1A
100
AcDbEntity
  8
225
  6
CENTER
 62
     3
100
AcDbLine
 10
507.4475062711851
 20
160.8044613994049
 30
0.0
 11
507.4475062711851
 21
200.0044733994049
 31
0.0
  0
LINE
  5
6E04
330
1A
100
AcDbEntity
  8
170
  6
PHANTOM2
100
AcDbLine
 10
532.447536271185
 20
174.0044733994049
 30
0.0
 11
492.447536271185
 21
174.0044733994049
 31
0.0
  0
LINE
  5
6E05
330
1A
100
AcDbEntity
  8
170
  6
PHANTOM2
100
AcDbLine
 10
522.947536271185
 20
169.0044733994049
 30
0.0
 11
495.4475362711851
 21
169.0044733994049
 31
0.0
  0
LINE
  5
6E06
330
1A
100
AcDbEntity
  8
150
  6
DASHED
 62
     7
100
AcDbLine
 10
509.9060022711851
 20
188.0044733994049
 30
0.0
 11
509.906033271185
 21
165.5044733994049
 31
0.0
  0
LINE
  5
6E07
330
1A
100
AcDbEntity
  8
150
  6
DASHED
 62
     7
100
AcDbLine
 10
504.9890102711851
 20
188.0044733994049
 30
0.0
 11
504.9890102711851
 21
165.5044733994049
 31
0.0
  0
LINE
  5
6E08
330
1A
100
AcDbEntity
  8
150
  6
DASHED
 62
     7
100
AcDbLine
 10
504.4475062711851
 20
188.0044733994049
 30
0.0
 11
504.4475062711851
 21
166.0459773994049
 31
0.0
  0
LINE
  5
6E09
330
1A
100
AcDbEntity
  8
150
  6
DASHED
 62
     7
100
AcDbLine
 10
510.447506271185
 20
188.0044733994049
 30
0.0
 11
510.447536271185
 21
166.0459773994049
 31
0.0
  0
LINE
  5
6E0A
330
1A
100
AcDbEntity
  8
0
  6
CONTINUOUS
 62
     2
100
AcDbLine
 10
515.4475062711851
 20
193.0044733994049
 30
0.0
 11
515.4475062711851
 21
174.0044733994049
 31
0.0
  0
ARC
  5
6E0B
330
1A
100
AcDbEntity
  8
170
  6
PHANTOM2
100
AcDbCircle
 10
495.4475362711851
 20
172.0044733994049
 30
0.0
 40
3.0
100
AcDbArc
 50
179.9999899999997
 51
269.9999990000002
  0
LINE
  5
6E0C
330
1A
100
AcDbEntity
  8
170
  6
PHANTOM2
100
AcDbLine
 10
492.447536271185
 20
174.0044733994049
 30
0.0
 11
492.447536271185
 21
172.0044733994049
 31
0.0
  0
LINE
  5
6E0D
330
1A
100
AcDbEntity
  8
150
  6
DASHED
 62
     7
100
AcDbLine
 10
509.906033271185
 20
165.5044733994049
 30
0.0
 11
504.9890102711851
 21
165.5044733994049
 31
0.0
  0
LINE
  5
6E0E
330
1A
100
AcDbEntity
  8
150
  6
DASHED
 62
     7
100
AcDbLine
 10
510.447536271185
 20
166.0459773994049
 30
0.0
 11
504.4475062711851
 21
166.0459773994049
 31
0.0
  0
LINE
  5
6E0F
330
1A
100
AcDbEntity
  8
150
  6
DASHED
 62
     7
100
AcDbLine
 10
504.4475062711851
 20
166.0459773994049
 30
0.0
 11
504.9890102711851
 21
165.5044733994049
 31
0.0
  0
LINE
  5
6E10
330
1A
100
AcDbEntity
  8
150
  6
DASHED
 62
     7
100
AcDbLine
 10
510.447536271185
 20
166.0459773994049
 30
0.0
 11
509.906033271185
 21
165.5044733994049
 31
0.0
  0
LINE
  5
6E11
330
1A
100
AcDbEntity
  8
150
  6
HIDDEN2
 62
     7
100
AcDbLine
 10
514.4475062711851
 20
188.0044733994049
 30
0.0
 11
500.4475062711851
 21
188.0044733994049
 31
0.0
  0
LINE
  5
6E12
330
1A
100
AcDbEntity
  8
150
  6
HIDDEN2
 62
     7
100
AcDbLine
 10
513.9475062711851
 20
189.0044733994049
 30
0.0
 11
500.947506271185
 21
189.0044733994049
 31
0.0
  0
LINE
  5
6E13
330
1A
100
AcDbEntity
  8
150
  6
HIDDEN2
 62
     7
100
AcDbLine
 10
500.4475062711851
 20
188.0044733994049
 30
0.0
 11
500.4475062711851
 21
194.0044733994049
 31
0.0
  0
ARC
  5
6E14
330
1A
100
AcDbEntity
  8
150
  6
HIDDEN2
 62
     7
100
AcDbCircle
 10
499.4475062711851
 20
194.0044733994049
 30
0.0
 40
1.0
100
AcDbArc
 50
359.9999949999999
 51
89.99999699999904
  0
LINE
  5
6E15
330
1A
100
AcDbEntity
  8
150
  6
HIDDEN2
 62
     7
100
AcDbLine
 10
500.947506271185
 20
188.0044733994049
 30
0.0
 11
500.947506271185
 21
189.0044733994049
 31
0.0
  0
ARC
  5
6E16
330
1A
100
AcDbEntity
  8
150
  6
HIDDEN2
 62
     7
100
AcDbCircle
 10
507.447499271185
 20
180.5044633994049
 30
0.0
 40
14.0
100
AcDbArc
 50
74.68154699999982
 51
105.318525
  0
LINE
  5
6E17
330
1A
100
AcDbEntity
  8
150
  6
HIDDEN2
 62
     7
100
AcDbLine
 10
513.547512271185
 20
190.5044733994049
 30
0.0
 11
501.3475002711849
 21
190.5044733994049
 31
0.0
  0
LINE
  5
6E18
330
1A
100
AcDbEntity
  8
150
  6
HIDDEN2
 62
     7
100
AcDbLine
 10
507.4475062711851
 20
189.0044733994049
 30
0.0
 11
508.197506271185
 21
190.5044733994049
 31
0.0
  0
ARC
  5
6E19
330
1A
100
AcDbEntity
  8
150
  6
HIDDEN2
 62
     7
100
AcDbCircle
 10
504.2508682711851
 20
192.1745663994049
 30
0.0
 40
1.9
100
AcDbArc
 50
105.318525
 51
175.0000869999999
  0
LINE
  5
6E1A
330
1A
100
AcDbEntity
  8
150
  6
HIDDEN2
 62
     7
100
AcDbLine
 10
506.6975062711851
 20
189.0044733994049
 30
0.0
 11
507.4475062711851
 21
190.5044733994049
 31
0.0
  0
LINE
  5
6E1B
330
1A
100
AcDbEntity
  8
150
  6
HIDDEN2
 62
     7
100
AcDbLine
 10
502.1975062711851
 20
190.5044733994049
 30
0.0
 11
502.3580892711851
 21
192.3401663994049
 31
0.0
  0
LINE
  5
6E1C
330
1A
100
AcDbEntity
  8
150
  6
HIDDEN2
 62
     7
100
AcDbLine
 10
501.3475002711849
 20
189.0044733994049
 30
0.0
 11
501.3475002711849
 21
190.5044733994049
 31
0.0
  0
ARC
  5
6E1D
330
1A
100
AcDbEntity
  8
150
  6
HIDDEN2
 62
     7
100
AcDbCircle
 10
514.4475062711851
 20
187.0044733994049
 30
0.0
 40
1.0
100
AcDbArc
 50
359.9999949999999
 51
89.99999699999904
  0
ARC
  5
6E1E
330
1A
100
AcDbEntity
  8
150
  6
HIDDEN2
 62
     7
100
AcDbCircle
 10
510.6441482711851
 20
192.1745693994049
 30
0.0
 40
1.9
100
AcDbArc
 50
4.999960000000043
 51
74.68155000000031
  0
LINE
  5
6E1F
330
1A
100
AcDbEntity
  8
150
  6
HIDDEN2
 62
     7
100
AcDbLine
 10
512.6975062711851
 20
190.5044733994049
 30
0.0
 11
512.5369222711851
 21
192.3401663994049
 31
0.0
  0
LINE
  5
6E20
330
1A
100
AcDbEntity
  8
150
  6
HIDDEN2
 62
     7
100
AcDbLine
 10
513.9475062711851
 20
188.0044733994049
 30
0.0
 11
513.9475062711851
 21
189.0044733994049
 31
0.0
  0
LINE
  5
6E21
330
1A
100
AcDbEntity
  8
150
  6
HIDDEN2
 62
     7
100
AcDbLine
 10
513.547512271185
 20
189.0044733994049
 30
0.0
 11
513.547512271185
 21
190.5044733994049
 31
0.0
  0
ARC
  5
6E22
330
1A
100
AcDbEntity
  8
0
  6
CONTINUOUS
 62
     2
100
AcDbCircle
 10
513.4475062711851
 20
193.0044733994049
 30
0.0
 40
2.0
100
AcDbArc
 50
0.0
 51
90.00000300000095
  0
ARC
  5
6E23
330
1A
100
AcDbEntity
  8
170
  6
PHANTOM2
100
AcDbCircle
 10
522.947536271185
 20
164.5044733994049
 30
0.0
 40
4.5
100
AcDbArc
 50
359.9999949999999
 51
89.99999699999904
  0
TEXT
  5
6E24
330
1A
100
AcDbEntity
  8
210
  6
CONTINUOUS
 62
     4
100
AcDbText
 10
549.322544271185
 20
152.1294773994049
 30
0.0
 40
5.0
  1
27.5
 50
90.00000300000095
100
AcDbText
  0
TEXT
  5
6E25
330
1A
100
AcDbEntity
  8
210
  6
CONTINUOUS
 62
     4
100
AcDbText
 10
549.322544271185
 20
200.5044693994049
 30
0.0
 40
5.0
  1
62
 50
90.00000300000095
100
AcDbText
  0
LINE
  5
6E27
330
1A
100
AcDbEntity
  8
170
  6
PHANTOM2
100
AcDbLine
 10
446.4475062711851
 20
299.0044733994049
 30
0.0
 11
542.9475062711851
 21
299.0044733994049
 31
0.0
  0
LINE
  5
6E28
330
1A
100
AcDbEntity
  8
170
  6
PHANTOM2
100
AcDbLine
 10
446.4475062711851
 20
301.0044733994049
 30
0.0
 11
542.9475062711851
 21
301.0044733994049
 31
0.0
  0
LINE
  5
6E29
330
1A
100
AcDbEntity
  8
150
  6
CONTINUOUS
100
AcDbLine
 10
478.397518271185
 20
297.5044733994049
 30
0.0
 11
487.497494271185
 21
297.5044733994049
 31
0.0
  0
LINE
  5
6E2A
330
1A
100
AcDbEntity
  8
150
  6
PHANTOM2
 62
     7
100
AcDbLine
 10
462.4475062711851
 20
295.0044733994049
 30
0.0
 11
535.9475062711851
 21
295.0044733994049
 31
0.0
  0
LINE
  5
6E2B
330
1A
100
AcDbEntity
  8
150
  6
CONTINUOUS
100
AcDbLine
 10
478.697506271185
 20
296.3044613994049
 30
0.0
 11
487.197506271185
 21
296.3044613994049
 31
0.0
  0
LINE
  5
6E2C
330
1A
100
AcDbEntity
  8
150
  6
HIDDEN2
 62
     7
100
AcDbLine
 10
465.9475062711851
 20
250.1044793994049
 30
0.0
 11
478.9475062711851
 21
250.1044793994049
 31
0.0
  0
LINE
  5
6E2D
330
1A
100
AcDbEntity
  8
150
  6
HIDDEN2
 62
     7
100
AcDbLine
 10
472.447506271185
 20
246.1044793994049
 30
0.0
 11
472.447506271185
 21
250.1044793994049
 31
0.0
  0
LINE
  5
6E2E
330
1A
100
AcDbEntity
  8
150
  6
HIDDEN2
 62
     7
100
AcDbLine
 10
472.447506271185
 20
246.1044793994049
 30
0.0
 11
472.447506271185
 21
250.1044793994049
 31
0.0
  0
LINE
  5
6E2F
330
1A
100
AcDbEntity
  8
230
  6
CONTINUOUS
 62
     6
100
AcDbLine
 10
478.9475142711851
 20
250.1044753994049
 30
0.0
 11
480.234950271185
 21
251.6350013994049
 31
0.0
  0
LINE
  5
6E30
330
1A
100
AcDbEntity
  8
230
  6
CONTINUOUS
 62
     6
100
AcDbLine
 10
478.9475142711851
 20
250.1044753994049
 30
0.0
 11
479.660386271185
 21
251.9731153994049
 31
0.0
  0
LINE
  5
6E31
330
1A
100
AcDbEntity
  8
0
  6
CONTINUOUS
 62
     2
100
AcDbLine
 10
481.947536271185
 20
293.0044733994049
 30
0.0
 11
451.447506271185
 21
293.0044733994049
 31
0.0
  0
LINE
  5
6E32
330
1A
100
AcDbEntity
  8
0
  6
CONTINUOUS
 62
     2
100
AcDbLine
 10
425.4475062711851
 20
301.0044733994049
 30
0.0
 11
425.4475062711851
 21
298.0044733994049
 31
0.0
  0
ARC
  5
6E33
330
1A
100
AcDbEntity
  8
0
  6
CONTINUOUS
 62
     2
100
AcDbCircle
 10
424.4475062711851
 20
301.0044733994049
 30
0.0
 40
1.0
100
AcDbArc
 50
0.0
 51
90.00000300000095
  0
LINE
  5
6E34
330
1A
100
AcDbEntity
  8
170
  6
PHANTOM2
100
AcDbLine
 10
446.4475062711851
 20
301.0044733994049
 30
0.0
 11
446.4475062711851
 21
299.0044733994049
 31
0.0
  0
LINE
  5
6E35
330
1A
100
AcDbEntity
  8
0
  6
CONTINUOUS
 62
     2
100
AcDbLine
 10
451.447506271185
 20
297.0044733994049
 30
0.0
 11
451.447506271185
 21
293.0044733994049
 31
0.0
  0
ARC
  5
6E36
330
1A
100
AcDbEntity
  8
0
  6
CONTINUOUS
 62
     2
100
AcDbCircle
 10
450.4475062711851
 20
297.0044733994049
 30
0.0
 40
1.0
100
AcDbArc
 50
0.0
 51
90.00000300000095
  0
LINE
  5
6E39
330
1A
100
AcDbEntity
  8
150
  6
PHANTOM2
 62
     7
100
AcDbLine
 10
462.4475062711851
 20
295.0044733994049
 30
0.0
 11
462.4475062711851
 21
293.0044733994049
 31
0.0
  0
ARC
  5
6E3A
330
1A
100
AcDbEntity
  8
150
  6
CONTINUOUS
100
AcDbCircle
 10
478.397518271185
 20
296.3044613994049
 30
0.0
 40
1.199999999999999
100
AcDbArc
 50
90.0
 51
180.0000030000001
  0
LINE
  5
6E3B
330
1A
100
AcDbEntity
  8
150
  6
CONTINUOUS
100
AcDbLine
 10
477.1975062711851
 20
295.0044733994049
 30
0.0
 11
477.1975062711851
 21
296.3044613994049
 31
0.0
  0
LINE
  5
6E3C
330
1A
100
AcDbEntity
  8
150
  6
CONTINUOUS
100
AcDbLine
 10
478.697506271185
 20
295.0044733994049
 30
0.0
 11
478.697506271185
 21
296.3044613994049
 31
0.0
  0
ARC
  5
6E3D
330
1A
100
AcDbEntity
  8
0
  6
CONTINUOUS
 62
     2
100
AcDbCircle
 10
481.947536271185
 20
292.0044733994049
 30
0.0
 40
1.0
100
AcDbArc
 50
359.9999949999999
 51
89.99999699999904
  0
LINE
  5
6E3F
330
1A
100
AcDbEntity
  8
230
  6
CONTINUOUS
 62
     6
100
AcDbLine
 10
537.9475142711851
 20
288.3052053994049
 30
0.0
 11
539.1608862105656
 21
289.8950877786939
 31
0.0
  0
LINE
  5
6E40
330
1A
100
AcDbEntity
  8
230
  6
CONTINUOUS
 62
     6
100
AcDbLine
 10
537.9475142711851
 20
288.3052053994049
 30
0.0
 11
538.5709276778179
 21
290.205561652777
 31
0.0
  0
ARC
  5
6E41
330
1A
100
AcDbEntity
  8
150
  6
CONTINUOUS
100
AcDbCircle
 10
487.497494271185
 20
296.3044613994049
 30
0.0
 40
1.199999999999999
100
AcDbArc
 50
0.0
 51
90.00000300000095
  0
LINE
  5
6E42
330
1A
100
AcDbEntity
  8
150
  6
CONTINUOUS
100
AcDbLine
 10
488.6975062711851
 20
295.0044733994049
 30
0.0
 11
488.6975062711851
 21
296.3044613994049
 31
0.0
  0
LINE
  5
6E43
330
1A
100
AcDbEntity
  8
150
  6
CONTINUOUS
100
AcDbLine
 10
487.197506271185
 20
295.0044733994049
 30
0.0
 11
487.197506271185
 21
296.3044613994049
 31
0.0
  0
ARC
  5
6E45
330
1A
100
AcDbEntity
  8
150
  6
PHANTOM2
 62
     7
100
AcDbCircle
 10
535.9475062711851
 20
293.0044733994049
 30
0.0
 40
2.0
100
AcDbArc
 50
0.0
 51
90.00000300000095
  0
LINE
  5
6E48
330
1A
100
AcDbEntity
  8
210
  6
CONTINUOUS
 62
     4
100
AcDbLine
 10
285.447483271185
 20
545.4481643994049
 30
0.0
 11
515.4475142711851
 21
545.4481643994049
 31
0.0
  0
LINE
  5
6E49
330
1A
100
AcDbEntity
  8
210
  6
CONTINUOUS
 62
     4
100
AcDbLine
 10
498.260349271185
 20
422.9481033994049
 30
0.0
 11
262.384983271185
 21
422.9481033994049
 31
0.0
  0
LINE
  5
6E4A
330
1A
100
AcDbEntity
  8
210
  6
CONTINUOUS
 62
     4
100
AcDbLine
 10
288.447483271185
 20
385.4481343994049
 30
0.0
 11
242.3849832711851
 21
385.4481343994049
 31
0.0
  0
LINE
  5
6E4B
330
1A
100
AcDbEntity
  8
210
  6
CONTINUOUS
 62
     4
100
AcDbLine
 10
288.447483271185
 20
505.448164399405
 30
0.0
 11
242.3849832711851
 21
505.448164399405
 31
0.0
  0
ARC
  5
6E4C
330
1A
100
AcDbEntity
  8
0
  6
CONTINUOUS
 62
     2
100
AcDbCircle
 10
289.4474752711851
 20
389.4481373994049
 30
0.0
 40
4.0
100
AcDbArc
 50
180.0000050000001
 51
270.0000009999997
  0
ARC
  5
6E4D
330
1A
100
AcDbEntity
  8
0
  6
CONTINUOUS
 62
     2
100
AcDbCircle
 10
289.4474752711851
 20
501.4481683994049
 30
0.0
 40
4.0
100
AcDbArc
 50
90.0
 51
180.0000030000001
  0
LINE
  5
6E4E
330
1A
100
AcDbEntity
  8
225
  6
CENTER
 62
     3
100
AcDbLine
 10
302.4474752711851
 20
467.9481373994049
 30
0.0
 11
284.4474752711851
 21
467.9481373994049
 31
0.0
  0
LINE
  5
6E4F
330
1A
100
AcDbEntity
  8
225
  6
CENTER
 62
     3
100
AcDbLine
 10
279.8312048338027
 20
445.4481373994049
 30
0.0
 11
519.4475062711851
 21
445.4481373994049
 31
0.0
  0
CIRCLE
  5
6E50
330
1A
100
AcDbEntity
  8
150
  6
CENTER
100
AcDbCircle
 10
293.447484271185
 20
467.948146399405
 30
0.0
 40
6.5
  0
LINE
  5
6E51
330
1A
100
AcDbEntity
  8
0
  6
CONTINUOUS
 62
     2
100
AcDbLine
 10
293.4474752711851
 20
460.9481373994049
 30
0.0
 11
286.4474752711851
 21
460.9481373994049
 31
0.0
  0
LINE
  5
6E52
330
1A
100
AcDbEntity
  8
0
  6
CONTINUOUS
 62
     2
100
AcDbLine
 10
293.4474752711851
 20
474.9481373994049
 30
0.0
 11
286.4474752711851
 21
474.9481373994049
 31
0.0
  0
LINE
  5
6E53
330
1A
100
AcDbEntity
  8
210
  6
CONTINUOUS
 62
     4
100
AcDbLine
 10
285.447483271185
 20
502.4481643994049
 30
0.0
 11
285.447483271185
 21
549.5106643994049
 31
0.0
  0
LINE
  5
6E54
330
1A
100
AcDbEntity
  8
210
  6
CONTINUOUS
 62
     4
100
AcDbLine
 10
266.447483271185
 20
467.948134399405
 30
0.0
 11
266.447483271185
 21
422.9481033994049
 31
0.0
  0
LINE
  5
6E55
330
1A
100
AcDbEntity
  8
210
  6
CONTINUOUS
 62
     4
100
AcDbLine
 10
246.4474832711851
 20
505.448164399405
 30
0.0
 11
246.4474832711851
 21
385.4481343994049
 31
0.0
  0
LINE
  5
6E56
330
1A
100
AcDbEntity
  8
0
  6
CONTINUOUS
 62
     2
100
AcDbLine
 10
285.4474752711851
 20
389.4481373994049
 30
0.0
 11
285.4474752711851
 21
501.4481683994049
 31
0.0
  0
LINE
  5
6E57
330
1A
100
AcDbEntity
  8
210
  6
CONTINUOUS
 62
     4
100
AcDbLine
 10
246.4474832711851
 20
385.4481343994049
 30
0.0
 11
246.1141502711851
 21
387.4201603994049
 31
0.0
  0
LINE
  5
6E58
330
1A
100
AcDbEntity
  8
210
  6
CONTINUOUS
 62
     4
100
AcDbLine
 10
246.4474832711851
 20
385.4481343994049
 30
0.0
 11
246.780816271185
 21
387.4201603994049
 31
0.0
  0
LINE
  5
6E59
330
1A
100
AcDbEntity
  8
210
  6
CONTINUOUS
 62
     4
100
AcDbLine
 10
266.447483271185
 20
422.9481033994049
 30
0.0
 11
266.1141502711851
 21
424.9201303994049
 31
0.0
  0
LINE
  5
6E5A
330
1A
100
AcDbEntity
  8
210
  6
CONTINUOUS
 62
     4
100
AcDbLine
 10
266.447483271185
 20
422.9481033994049
 30
0.0
 11
266.7808162711851
 21
424.9201303994049
 31
0.0
  0
TEXT
  5
6E5B
330
1A
100
AcDbEntity
  8
210
  6
CONTINUOUS
 62
     4
100
AcDbText
 10
243.3224832711851
 20
439.864830399405
 30
0.0
 40
5.0
  1
120
 50
90.00000300000095
100
AcDbText
  0
TEXT
  5
6E5C
330
1A
100
AcDbEntity
  8
210
  6
CONTINUOUS
 62
     4
100
AcDbText
 10
263.322483271185
 20
440.8231333994049
 30
0.0
 40
5.0
  1
45
 50
90.00000300000095
100
AcDbText
  0
LINE
  5
6E5F
330
1A
100
AcDbEntity
  8
210
  6
CONTINUOUS
 62
     4
100
AcDbLine
 10
284.2602732711851
 20
467.948134399405
 30
0.0
 11
262.384983271185
 21
467.948134399405
 31
0.0
  0
LINE
  5
6E60
330
1A
100
AcDbEntity
  8
210
  6
CONTINUOUS
 62
     4
100
AcDbLine
 10
266.447483271185
 20
467.948134399405
 30
0.0
 11
266.1141502711851
 21
465.9761073994048
 31
0.0
  0
LINE
  5
6E61
330
1A
100
AcDbEntity
  8
210
  6
CONTINUOUS
 62
     4
100
AcDbLine
 10
266.447483271185
 20
467.948134399405
 30
0.0
 11
266.7808162711851
 21
465.9761073994048
 31
0.0
  0
ARC
  5
6E62
330
1A
100
AcDbEntity
  8
0
  6
CONTINUOUS
 62
     2
100
AcDbCircle
 10
286.4474752711851
 20
459.9481373994048
 30
0.0
 40
1.0
100
AcDbArc
 50
90.0
 51
180.0000030000001
  0
ARC
  5
6E63
330
1A
100
AcDbEntity
  8
0
  6
CONTINUOUS
 62
     2
100
AcDbCircle
 10
286.4474752711851
 20
475.9481373994049
 30
0.0
 40
1.0
100
AcDbArc
 50
180.0000050000001
 51
270.0000009999997
  0
LINE
  5
6E64
330
1A
100
AcDbEntity
  8
210
  6
CONTINUOUS
 62
     4
100
AcDbLine
 10
246.4474832711851
 20
505.448164399405
 30
0.0
 11
246.1141502711851
 21
503.476138399405
 31
0.0
  0
LINE
  5
6E65
330
1A
100
AcDbEntity
  8
210
  6
CONTINUOUS
 62
     4
100
AcDbLine
 10
246.4474832711851
 20
505.448164399405
 30
0.0
 11
246.780816271185
 21
503.476138399405
 31
0.0
  0
LINE
  5
6E67
330
1A
100
AcDbEntity
  8
210
  6
CONTINUOUS
 62
     4
100
AcDbLine
 10
285.447483271185
 20
545.4481643994049
 30
0.0
 11
287.4195102711851
 21
545.1148313994049
 31
0.0
  0
LINE
  5
6E68
330
1A
100
AcDbEntity
  8
210
  6
CONTINUOUS
 62
     4
100
AcDbLine
 10
285.447483271185
 20
545.4481643994049
 30
0.0
 11
287.4195102711851
 21
545.7814973994049
 31
0.0
  0
LINE
  5
6E69
330
1A
100
AcDbEntity
  8
210
  6
CONTINUOUS
 62
     4
100
AcDbLine
 10
507.447544271185
 20
432.1352983994048
 30
0.0
 11
507.447544271185
 21
529.2792493994048
 31
0.0
  0
LINE
  5
6E6A
330
1A
100
AcDbEntity
  8
210
  6
CONTINUOUS
 62
     4
100
AcDbLine
 10
293.447483271185
 20
477.1352983994049
 30
0.0
 11
293.447483271185
 21
529.2792493994048
 31
0.0
  0
LINE
  5
6E6B
330
1A
100
AcDbEntity
  8
210
  6
CONTINUOUS
 62
     4
100
AcDbLine
 10
515.4475142711851
 20
502.4481643994049
 30
0.0
 11
515.4475142711851
 21
549.5106643994049
 31
0.0
  0
LINE
  5
6E6C
330
1A
100
AcDbEntity
  8
210
  6
CONTINUOUS
 62
     4
100
AcDbLine
 10
400.4475142711851
 20
370.4580213994049
 30
0.0
 11
472.4475142711851
 21
370.4580213994049
 31
0.0
  0
LINE
  5
6E6D
330
1A
100
AcDbEntity
  8
0
  6
CONTINUOUS
 62
     2
100
AcDbLine
 10
376.447506271185
 20
396.4481373994049
 30
0.0
 11
424.4475062711851
 21
396.4481373994049
 31
0.0
  0
LINE
  5
6E6E
330
1A
100
AcDbEntity
  8
0
  6
CONTINUOUS
 62
     2
100
AcDbLine
 10
376.447506271185
 20
494.4481373994049
 30
0.0
 11
424.4475062711851
 21
494.4481373994049
 31
0.0
  0
LINE
  5
6E6F
330
1A
100
AcDbEntity
  8
0
  6
CONTINUOUS
 62
     2
100
AcDbLine
 10
289.4474752711851
 20
385.4481373994049
 30
0.0
 11
511.4475062711851
 21
385.4481373994049
 31
0.0
  0
LINE
  5
6E70
330
1A
100
AcDbEntity
  8
0
  6
CONTINUOUS
 62
     2
100
AcDbLine
 10
289.4474752711851
 20
505.4481683994049
 30
0.0
 11
511.4475062711851
 21
505.4481683994049
 31
0.0
  0
LINE
  5
6E71
330
1A
100
AcDbEntity
  8
0
  6
CONTINUOUS
 62
     2
100
AcDbLine
 10
318.9475062711851
 20
392.9481373994049
 30
0.0
 11
481.9475062711851
 21
392.9481373994049
 31
0.0
  0
LINE
  5
6E72
330
1A
100
AcDbEntity
  8
0
  6
CONTINUOUS
 62
     2
100
AcDbLine
 10
318.9475062711851
 20
497.9481683994049
 30
0.0
 11
481.9475062711851
 21
497.9481683994049
 31
0.0
  0
LINE
  5
6E73
330
1A
100
AcDbEntity
  8
0
  6
CONTINUOUS
 62
     2
100
AcDbLine
 10
310.9475062711851
 20
497.4481683994049
 30
0.0
 11
310.9475062711851
 21
393.4481373994049
 31
0.0
  0
LINE
  5
6E74
330
1A
100
AcDbEntity
  8
150
  6
CONTINUOUS
 62
     7
100
AcDbLine
 10
322.9475062711851
 20
423.4481373994049
 30
0.0
 11
322.9475062711851
 21
432.4481373994049
 31
0.0
  0
LINE
  5
6E75
330
1A
100
AcDbEntity
  8
225
  6
CENTER
 62
     3
100
AcDbLine
 10
337.4475062711851
 20
421.448137399405
 30
0.0
 11
337.4475062711851
 21
434.4481373994049
 31
0.0
  0
LINE
  5
6E76
330
1A
100
AcDbEntity
  8
225
  6
CENTER
 62
     3
100
AcDbLine
 10
400.4475062711851
 20
515.4481683994049
 30
0.0
 11
400.4475062711851
 21
385.4481373994049
 31
0.0
  0
LINE
  5
6E77
330
1A
100
AcDbEntity
  8
150
  6
HIDDEN2
 62
     7
100
AcDbLine
 10
317.947506271185
 20
496.9481683994049
 30
0.0
 11
317.947506271185
 21
393.9481373994049
 31
0.0
  0
LINE
  5
6E78
330
1A
100
AcDbEntity
  8
0
  6
CONTINUOUS
 62
     2
100
AcDbLine
 10
375.4475062711851
 20
493.4481373994048
 30
0.0
 11
375.4475062711851
 21
397.4481373994049
 31
0.0
  0
CIRCLE
  5
6E79
330
1A
100
AcDbEntity
  8
150
  6
CONTINUOUS
100
AcDbCircle
 10
337.447536271185
 20
427.9481373994049
 30
0.0
 40
4.5
  0
LINE
  5
6E7A
330
1A
100
AcDbEntity
  8
0
  6
CONTINUOUS
 62
     2
100
AcDbLine
 10
349.447506271185
 20
392.9481373994049
 30
0.0
 11
349.447506271185
 21
497.9481683994049
 31
0.0
  0
LINE
  5
6E7B
330
1A
100
AcDbEntity
  8
0
  6
CONTINUOUS
 62
     2
100
AcDbLine
 10
310.9475062711851
 20
393.4481373994049
 30
0.0
 11
318.0814809177839
 21
393.4481373994049
 31
0.0
  0
LINE
  5
6E7C
330
1A
100
AcDbEntity
  8
150
  6
HIDDEN2
 62
     7
100
AcDbLine
 10
317.947506271185
 20
401.9481373994049
 30
0.0
 11
333.9475062711851
 21
401.9481373994049
 31
0.0
  0
LINE
  5
6E7D
330
1A
100
AcDbEntity
  8
150
  6
HIDDEN2
 62
     7
100
AcDbLine
 10
317.947506271185
 20
418.9481373994049
 30
0.0
 11
333.9475062711851
 21
418.9481373994049
 31
0.0
  0
LINE
  5
6E7E
330
1A
100
AcDbEntity
  8
225
  6
CONTINUOUS
 62
     3
100
AcDbLine
 10
318.947536271185
 20
410.4481373994049
 30
0.0
 11
337.9475062711851
 21
410.4481373994049
 31
0.0
  0
ARC
  5
6E7F
330
1A
100
AcDbEntity
  8
0
  6
CONTINUOUS
 62
     2
100
AcDbCircle
 10
318.9475062711851
 20
393.9481373994049
 30
0.0
 40
1.0
100
AcDbArc
 50
210.0000000000004
 51
270.0000009999997
  0
LINE
  5
6E80
330
1A
100
AcDbEntity
  8
0
  6
CONTINUOUS
 62
     2
100
AcDbLine
 10
310.9475062711851
 20
398.4481373994049
 30
0.0
 11
306.947506271185
 21
398.4481373994049
 31
0.0
  0
LINE
  5
6E81
330
1A
100
AcDbEntity
  8
0
  6
CONTINUOUS
 62
     2
100
AcDbLine
 10
306.947506271185
 20
398.4481373994049
 30
0.0
 11
306.947506271185
 21
401.4481373994049
 31
0.0
  0
LINE
  5
6E82
330
1A
100
AcDbEntity
  8
0
  6
CONTINUOUS
 62
     2
100
AcDbLine
 10
310.9475062711851
 20
401.4481373994049
 30
0.0
 11
306.947506271185
 21
401.4481373994049
 31
0.0
  0
LINE
  5
6E83
330
1A
100
AcDbEntity
  8
150
  6
CONTINUOUS
 62
     7
100
AcDbLine
 10
338.447506271185
 20
394.448107399405
 30
0.0
 11
338.447506271185
 21
415.4481373994049
 31
0.0
  0
LINE
  5
6E84
330
1A
100
AcDbEntity
  8
150
  6
HIDDEN2
 62
     7
100
AcDbLine
 10
337.4475062711851
 20
405.4481373994049
 30
0.0
 11
337.4475062711851
 21
415.4481373994049
 31
0.0
  0
LINE
  5
6E85
330
1A
100
AcDbEntity
  8
225
  6
CONTINUOUS
 62
     3
100
AcDbLine
 10
328.447506271185
 20
400.948137399405
 30
0.0
 11
328.447506271185
 21
419.9481373994049
 31
0.0
  0
CIRCLE
  5
6E86
330
1A
100
AcDbEntity
  8
150
  6
CONTINUOUS
 62
     7
100
AcDbCircle
 10
328.447506271185
 20
410.4481373994049
 30
0.0
 40
6.5
  0
CIRCLE
  5
6E87
330
1A
100
AcDbEntity
  8
150
  6
CONTINUOUS
 62
     7
100
AcDbCircle
 10
328.447506271185
 20
410.4481373994049
 30
0.0
 40
5.0
  0
ARC
  5
6E88
330
1A
100
AcDbEntity
  8
150
  6
HIDDEN2
 62
     7
100
AcDbCircle
 10
333.9475062711851
 20
405.4481373994049
 30
0.0
 40
3.5
100
AcDbArc
 50
270.0
 51
0.0000030000001391
  0
ARC
  5
6E89
330
1A
100
AcDbEntity
  8
150
  6
CONTINUOUS
 62
     7
100
AcDbCircle
 10
337.4475062711851
 20
394.448107399405
 30
0.0
 40
1.0
100
AcDbArc
 50
270.0
 51
0.0000030000001391
  0
ARC
  5
6E8A
330
1A
100
AcDbEntity
  8
150
  6
CONTINUOUS
 62
     7
100
AcDbCircle
 10
334.447506271185
 20
415.4481373994049
 30
0.0
 40
4.0
100
AcDbArc
 50
359.9999899999998
 51
89.99999900000023
  0
ARC
  5
6E8B
330
1A
100
AcDbEntity
  8
150
  6
HIDDEN2
 62
     7
100
AcDbCircle
 10
333.9475062711851
 20
415.4481373994049
 30
0.0
 40
3.5
100
AcDbArc
 50
359.9999899999998
 51
89.99999900000023
  0
LINE
  5
6E8C
330
1A
100
AcDbEntity
  8
225
  6
CENTER
 62
     3
100
AcDbLine
 10
330.947536271185
 20
427.9481373994049
 30
0.0
 11
343.947536271185
 21
427.9481373994049
 31
0.0
  0
LINE
  5
6E8D
330
1A
100
AcDbEntity
  8
150
  6
CONTINUOUS
 62
     7
100
AcDbLine
 10
328.447506271185
 20
407.5613883994049
 30
0.0
 11
330.947506271185
 21
409.0047473994049
 31
0.0
  0
LINE
  5
6E8E
330
1A
100
AcDbEntity
  8
150
  6
CONTINUOUS
 62
     7
100
AcDbLine
 10
330.947506271185
 20
411.8915273994049
 30
0.0
 11
328.447506271185
 21
413.334887399405
 31
0.0
  0
LINE
  5
6E8F
330
1A
100
AcDbEntity
  8
150
  6
CONTINUOUS
 62
     7
100
AcDbLine
 10
325.947506271185
 20
411.8915273994049
 30
0.0
 11
325.947506271185
 21
409.0047473994049
 31
0.0
  0
LINE
  5
6E90
330
1A
100
AcDbEntity
  8
150
  6
CONTINUOUS
 62
     7
100
AcDbLine
 10
325.947506271185
 20
409.0047473994049
 30
0.0
 11
328.447506271185
 21
407.5613883994049
 31
0.0
  0
LINE
  5
6E91
330
1A
100
AcDbEntity
  8
150
  6
CONTINUOUS
 62
     7
100
AcDbLine
 10
328.447506271185
 20
413.334887399405
 30
0.0
 11
325.947506271185
 21
411.8915273994049
 31
0.0
  0
LINE
  5
6E92
330
1A
100
AcDbEntity
  8
150
  6
CONTINUOUS
 62
     7
100
AcDbLine
 10
330.947506271185
 20
409.0047473994049
 30
0.0
 11
330.947506271185
 21
411.8915273994049
 31
0.0
  0
LINE
  5
6E93
330
1A
100
AcDbEntity
  8
150
  6
CONTINUOUS
 62
     7
100
AcDbLine
 10
326.9475062711851
 20
419.4481373994049
 30
0.0
 11
334.447506271185
 21
419.4481373994049
 31
0.0
  0
ARC
  5
6E94
330
1A
100
AcDbEntity
  8
150
  6
CONTINUOUS
 62
     7
100
AcDbCircle
 10
326.9475062711851
 20
423.4481373994049
 30
0.0
 40
4.0
100
AcDbArc
 50
179.9999949999999
 51
269.999996999999
  0
LINE
  5
6E95
330
1A
100
AcDbEntity
  8
210
  6
CONTINUOUS
 62
     4
100
AcDbLine
 10
400.4475142711851
 20
385.2609393994049
 30
0.0
 11
400.4475142711851
 21
366.3955213994049
 31
0.0
  0
LINE
  5
6E96
330
1A
100
AcDbEntity
  8
210
  6
CONTINUOUS
 62
     4
100
AcDbLine
 10
400.4475142711851
 20
370.4580213994049
 30
0.0
 11
402.4195402711851
 21
370.1246883994049
 31
0.0
  0
LINE
  5
6E97
330
1A
100
AcDbEntity
  8
210
  6
CONTINUOUS
 62
     4
100
AcDbLine
 10
400.4475142711851
 20
370.4580213994049
 30
0.0
 11
402.4195402711851
 21
370.7913553994049
 31
0.0
  0
ARC
  5
6E98
330
1A
100
AcDbEntity
  8
0
  6
CONTINUOUS
 62
     2
100
AcDbCircle
 10
376.447506271185
 20
397.4481373994049
 30
0.0
 40
1.0
100
AcDbArc
 50
180.0000050000001
 51
270.0000009999997
  0
LINE
  5
6E99
330
1A
100
AcDbEntity
  8
150
  6
CONTINUOUS
 62
     7
100
AcDbLine
 10
338.447506271185
 20
496.4481683994049
 30
0.0
 11
338.447506271185
 21
475.4481373994049
 31
0.0
  0
LINE
  5
6E9A
330
1A
100
AcDbEntity
  8
150
  6
HIDDEN2
 62
     7
100
AcDbLine
 10
337.4475062711851
 20
475.4481373994049
 30
0.0
 11
337.4475062711851
 21
485.4481373994048
 31
0.0
  0
LINE
  5
6E9B
330
1A
100
AcDbEntity
  8
225
  6
CENTER
 62
     3
100
AcDbLine
 10
293.4474752711851
 20
476.9481073994049
 30
0.0
 11
293.4474752711851
 21
458.9481073994049
 31
0.0
  0
LINE
  5
6E9C
330
1A
100
AcDbEntity
  8
225
  6
CENTER
 62
     3
100
AcDbLine
 10
328.447506271185
 20
470.9481373994049
 30
0.0
 11
328.447506271185
 21
489.9481683994049
 31
0.0
  0
CIRCLE
  5
6E9D
330
1A
100
AcDbEntity
  8
150
  6
CONTINUOUS
 62
     7
100
AcDbCircle
 10
328.447506271185
 20
480.4481373994049
 30
0.0
 40
6.5
  0
CIRCLE
  5
6E9E
330
1A
100
AcDbEntity
  8
150
  6
CONTINUOUS
 62
     7
100
AcDbCircle
 10
328.447506271185
 20
480.4481373994049
 30
0.0
 40
5.0
  0
LINE
  5
6E9F
330
1A
100
AcDbEntity
  8
150
  6
HIDDEN2
 62
     7
100
AcDbLine
 10
317.947506271185
 20
471.9481373994049
 30
0.0
 11
333.9475062711851
 21
471.9481373994049
 31
0.0
  0
LINE
  5
6EA0
330
1A
100
AcDbEntity
  8
150
  6
HIDDEN2
 62
     7
100
AcDbLine
 10
317.947506271185
 20
453.9481373994049
 30
0.0
 11
333.9475062711851
 21
453.9481373994049
 31
0.0
  0
LINE
  5
6EA1
330
1A
100
AcDbEntity
  8
150
  6
HIDDEN2
 62
     7
100
AcDbLine
 10
317.947506271185
 20
436.9481373994049
 30
0.0
 11
333.9475062711851
 21
436.9481373994049
 31
0.0
  0
LINE
  5
6EA2
330
1A
100
AcDbEntity
  8
225
  6
CONTINUOUS
 62
     3
100
AcDbLine
 10
318.947536271185
 20
445.4481373994049
 30
0.0
 11
337.9475062711851
 21
445.4481373994049
 31
0.0
  0
CIRCLE
  5
6EA3
330
1A
100
AcDbEntity
  8
150
  6
CENTER
100
AcDbCircle
 10
293.447484271185
 20
467.948146399405
 30
0.0
 40
5.25
  0
ARC
  5
6EA4
330
1A
100
AcDbEntity
  8
0
  6
CONTINUOUS
 62
     2
100
AcDbCircle
 10
293.4474752711851
 20
467.9481373994049
 30
0.0
 40
7.0
100
AcDbArc
 50
270.0
 51
89.99999100000039
  0
LINE
  5
6EA5
330
1A
100
AcDbEntity
  8
150
  6
CONTINUOUS
100
AcDbLine
 10
290.689770271185
 20
466.2510853994048
 30
0.0
 11
291.7504232711851
 21
465.1904163994049
 31
0.0
  0
LINE
  5
6EA6
330
1A
100
AcDbEntity
  8
150
  6
CONTINUOUS
100
AcDbLine
 10
291.856487271185
 20
467.4178033994049
 30
0.0
 11
290.689770271185
 21
466.2510853994048
 31
0.0
  0
LINE
  5
6EA7
330
1A
100
AcDbEntity
  8
150
  6
CONTINUOUS
100
AcDbLine
 10
290.689770271185
 20
469.645189399405
 30
0.0
 11
291.856487271185
 21
468.4784723994049
 31
0.0
  0
LINE
  5
6EA8
330
1A
100
AcDbEntity
  8
150
  6
CONTINUOUS
100
AcDbLine
 10
291.7504232711851
 20
470.7058583994049
 30
0.0
 11
290.689770271185
 21
469.645189399405
 31
0.0
  0
LINE
  5
6EA9
330
1A
100
AcDbEntity
  8
150
  6
CONTINUOUS
100
AcDbLine
 10
292.9171412711851
 20
469.5391413994049
 30
0.0
 11
291.7504232711851
 21
470.7058583994049
 31
0.0
  0
LINE
  5
6EAA
330
1A
100
AcDbEntity
  8
150
  6
CONTINUOUS
100
AcDbLine
 10
295.144527271185
 20
470.7058583994049
 30
0.0
 11
293.9778102711851
 21
469.5391413994049
 31
0.0
  0
LINE
  5
6EAB
330
1A
100
AcDbEntity
  8
150
  6
CONTINUOUS
100
AcDbLine
 10
296.2051962711851
 20
469.645189399405
 30
0.0
 11
295.144527271185
 21
470.7058583994049
 31
0.0
  0
LINE
  5
6EAC
330
1A
100
AcDbEntity
  8
150
  6
CONTINUOUS
100
AcDbLine
 10
296.2051962711851
 20
466.2510853994048
 30
0.0
 11
295.0384792711851
 21
467.4178033994049
 31
0.0
  0
LINE
  5
6EAD
330
1A
100
AcDbEntity
  8
150
  6
CONTINUOUS
100
AcDbLine
 10
295.144527271185
 20
465.1904163994049
 30
0.0
 11
296.2051962711851
 21
466.2510853994048
 31
0.0
  0
ARC
  5
6EAE
330
1A
100
AcDbEntity
  8
150
  6
CONTINUOUS
100
AcDbCircle
 10
295.568805271185
 20
467.9481453994049
 30
0.0
 40
0.75
100
AcDbArc
 50
134.9999859999998
 51
224.9999879999993
  0
ARC
  5
6EAF
330
1A
100
AcDbEntity
  8
150
  6
CONTINUOUS
100
AcDbCircle
 10
293.447484271185
 20
465.826825399405
 30
0.0
 40
0.75
100
AcDbArc
 50
44.99998299999965
 51
134.9999859999998
  0
LINE
  5
6EB0
330
1A
100
AcDbEntity
  8
150
  6
CONTINUOUS
100
AcDbLine
 10
293.9778102711851
 20
466.3571343994049
 30
0.0
 11
295.144527271185
 21
465.1904163994049
 31
0.0
  0
ARC
  5
6EB1
330
1A
100
AcDbEntity
  8
150
  6
CONTINUOUS
100
AcDbCircle
 10
291.3261642711851
 20
467.948146399405
 30
0.0
 40
0.75
100
AcDbArc
 50
314.9999839999996
 51
44.99999300000019
  0
ARC
  5
6EB2
330
1A
100
AcDbEntity
  8
150
  6
CONTINUOUS
100
AcDbCircle
 10
293.447485271185
 20
470.0694663994049
 30
0.0
 40
0.75
100
AcDbArc
 50
224.9999879999993
 51
314.9999839999996
  0
LINE
  5
6EB3
330
1A
100
AcDbEntity
  8
150
  6
CONTINUOUS
100
AcDbLine
 10
295.0384792711851
 20
468.4784723994049
 30
0.0
 11
296.2051962711851
 21
469.645189399405
 31
0.0
  0
LINE
  5
6EB4
330
1A
100
AcDbEntity
  8
150
  6
CONTINUOUS
100
AcDbLine
 10
291.7504232711851
 20
465.1904163994049
 30
0.0
 11
292.9171412711851
 21
466.3571343994049
 31
0.0
  0
ARC
  5
6EB5
330
1A
100
AcDbEntity
  8
150
  6
CONTINUOUS
 62
     7
100
AcDbCircle
 10
334.447506271185
 20
450.4481373994049
 30
0.0
 40
4.0
100
AcDbArc
 50
0.0
 51
90.00000300000095
  0
ARC
  5
6EB6
330
1A
100
AcDbEntity
  8
150
  6
HIDDEN2
 62
     7
100
AcDbCircle
 10
333.9475062711851
 20
450.4481373994049
 30
0.0
 40
3.5
100
AcDbArc
 50
0.0
 51
90.00000300000095
  0
LINE
  5
6EB7
330
1A
100
AcDbEntity
  8
225
  6
CENTER
 62
     3
100
AcDbLine
 10
328.447506271185
 20
435.9481373994049
 30
0.0
 11
328.447506271185
 21
454.9481373994049
 31
0.0
  0
ARC
  5
6EB8
330
1A
100
AcDbEntity
  8
150
  6
CONTINUOUS
 62
     7
100
AcDbCircle
 10
334.447506271185
 20
440.4481373994049
 30
0.0
 40
4.0
100
AcDbArc
 50
270.0
 51
0.0000090000000101
  0
ARC
  5
6EB9
330
1A
100
AcDbEntity
  8
150
  6
HIDDEN2
 62
     7
100
AcDbCircle
 10
333.9475062711851
 20
440.4481373994049
 30
0.0
 40
3.5
100
AcDbArc
 50
270.0
 51
0.0000090000000101
  0
CIRCLE
  5
6EBA
330
1A
100
AcDbEntity
  8
150
  6
CONTINUOUS
 62
     7
100
AcDbCircle
 10
328.447506271185
 20
445.4481373994049
 30
0.0
 40
5.0
  0
CIRCLE
  5
6EBB
330
1A
100
AcDbEntity
  8
150
  6
CONTINUOUS
 62
     7
100
AcDbCircle
 10
328.447506271185
 20
445.4481373994049
 30
0.0
 40
6.5
  0
LINE
  5
6EBC
330
1A
100
AcDbEntity
  8
150
  6
CONTINUOUS
 62
     7
100
AcDbLine
 10
326.9475062711851
 20
436.4481373994049
 30
0.0
 11
334.447506271185
 21
436.4481373994049
 31
0.0
  0
ARC
  5
6EBD
330
1A
100
AcDbEntity
  8
150
  6
CONTINUOUS
 62
     7
100
AcDbCircle
 10
326.9475062711851
 20
432.4481373994049
 30
0.0
 40
4.0
100
AcDbArc
 50
90.0
 51
179.999996
  0
LINE
  5
6EBE
330
1A
100
AcDbEntity
  8
150
  6
CONTINUOUS
 62
     7
100
AcDbLine
 10
330.947506271185
 20
446.8915273994049
 30
0.0
 11
328.447506271185
 21
448.3348873994049
 31
0.0
  0
LINE
  5
6EBF
330
1A
100
AcDbEntity
  8
150
  6
CONTINUOUS
 62
     7
100
AcDbLine
 10
328.447506271185
 20
442.5613883994049
 30
0.0
 11
330.947506271185
 21
444.0047473994049
 31
0.0
  0
LINE
  5
6EC0
330
1A
100
AcDbEntity
  8
150
  6
CONTINUOUS
 62
     7
100
AcDbLine
 10
328.447506271185
 20
448.3348873994049
 30
0.0
 11
325.947506271185
 21
446.8915273994049
 31
0.0
  0
LINE
  5
6EC1
330
1A
100
AcDbEntity
  8
150
  6
CONTINUOUS
 62
     7
100
AcDbLine
 10
325.947506271185
 20
444.0047473994049
 30
0.0
 11
328.447506271185
 21
442.5613883994049
 31
0.0
  0
LINE
  5
6EC2
330
1A
100
AcDbEntity
  8
150
  6
CONTINUOUS
 62
     7
100
AcDbLine
 10
325.947506271185
 20
446.8915273994049
 30
0.0
 11
325.947506271185
 21
444.0047473994049
 31
0.0
  0
LINE
  5
6EC3
330
1A
100
AcDbEntity
  8
150
  6
CONTINUOUS
 62
     7
100
AcDbLine
 10
330.947506271185
 20
444.0047473994049
 30
0.0
 11
330.947506271185
 21
446.8915273994049
 31
0.0
  0
LINE
  5
6EC4
330
1A
100
AcDbEntity
  8
150
  6
CONTINUOUS
 62
     7
100
AcDbLine
 10
338.447506271185
 20
450.4481373994049
 30
0.0
 11
338.447506271185
 21
440.4481373994049
 31
0.0
  0
LINE
  5
6EC5
330
1A
100
AcDbEntity
  8
150
  6
HIDDEN2
 62
     7
100
AcDbLine
 10
337.4475062711851
 20
450.4481373994049
 30
0.0
 11
337.4475062711851
 21
440.4481373994049
 31
0.0
  0
ARC
  5
6EC6
330
1A
100
AcDbEntity
  8
150
  6
CONTINUOUS
 62
     7
100
AcDbCircle
 10
334.447506271185
 20
475.4481373994049
 30
0.0
 40
4.0
100
AcDbArc
 50
270.0
 51
0.0000090000000101
  0
ARC
  5
6EC7
330
1A
100
AcDbEntity
  8
150
  6
HIDDEN2
 62
     7
100
AcDbCircle
 10
333.9475062711851
 20
475.4481373994049
 30
0.0
 40
3.5
100
AcDbArc
 50
270.0
 51
0.0000030000001391
  0
LINE
  5
6EC8
330
1A
100
AcDbEntity
  8
225
  6
CENTER
 62
     3
100
AcDbLine
 10
330.947536271185
 20
462.9481373994049
 30
0.0
 11
343.947536271185
 21
462.9481373994049
 31
0.0
  0
CIRCLE
  5
6EC9
330
1A
100
AcDbEntity
  8
150
  6
CONTINUOUS
100
AcDbCircle
 10
337.447536271185
 20
462.9481373994049
 30
0.0
 40
4.5
  0
LINE
  5
6ECA
330
1A
100
AcDbEntity
  8
150
  6
CONTINUOUS
 62
     7
100
AcDbLine
 10
322.9475062711851
 20
467.4481373994049
 30
0.0
 11
322.9475062711851
 21
458.4481373994049
 31
0.0
  0
LINE
  5
6ECB
330
1A
100
AcDbEntity
  8
150
  6
CONTINUOUS
 62
     7
100
AcDbLine
 10
326.9475062711851
 20
454.4481373994049
 30
0.0
 11
334.447506271185
 21
454.4481373994049
 31
0.0
  0
ARC
  5
6ECC
330
1A
100
AcDbEntity
  8
150
  6
CONTINUOUS
 62
     7
100
AcDbCircle
 10
326.9475062711851
 20
458.4481373994049
 30
0.0
 40
4.0
100
AcDbArc
 50
180.0000050000001
 51
270.0000009999997
  0
LINE
  5
6ECD
330
1A
100
AcDbEntity
  8
150
  6
CONTINUOUS
 62
     7
100
AcDbLine
 10
326.9475062711851
 20
471.4481373994049
 30
0.0
 11
334.447506271185
 21
471.4481373994049
 31
0.0
  0
ARC
  5
6ECE
330
1A
100
AcDbEntity
  8
150
  6
CONTINUOUS
 62
     7
100
AcDbCircle
 10
326.9475062711851
 20
467.4481373994049
 30
0.0
 40
4.0
100
AcDbArc
 50
90.0
 51
180.0000030000001
  0
LINE
  5
6ECF
330
1A
100
AcDbEntity
  8
225
  6
CENTER
 62
     3
100
AcDbLine
 10
337.4475062711851
 20
469.4481373994049
 30
0.0
 11
337.4475062711851
 21
456.4481373994048
 31
0.0
  0
LINE
  5
6ED0
330
1A
100
AcDbEntity
  8
0
  6
CONTINUOUS
 62
     2
100
AcDbLine
 10
310.9475062711851
 20
497.4481683994049
 30
0.0
 11
318.0814808674006
 21
497.4481683994049
 31
0.0
  0
LINE
  5
6ED1
330
1A
100
AcDbEntity
  8
150
  6
HIDDEN2
 62
     7
100
AcDbLine
 10
317.947506271185
 20
488.9481373994049
 30
0.0
 11
333.9475062711851
 21
488.9481373994049
 31
0.0
  0
LINE
  5
6ED2
330
1A
100
AcDbEntity
  8
225
  6
CENTER
 62
     3
100
AcDbLine
 10
318.947536271185
 20
480.4481373994049
 30
0.0
 11
337.9475062711851
 21
480.4481373994049
 31
0.0
  0
LINE
  5
6ED3
330
1A
100
AcDbEntity
  8
0
  6
CONTINUOUS
 62
     2
100
AcDbLine
 10
310.9475062711851
 20
489.4481373994048
 30
0.0
 11
306.947506271185
 21
489.4481373994048
 31
0.0
  0
LINE
  5
6ED4
330
1A
100
AcDbEntity
  8
0
  6
CONTINUOUS
 62
     2
100
AcDbLine
 10
310.9475062711851
 20
492.4481373994049
 30
0.0
 11
306.947506271185
 21
492.4481373994049
 31
0.0
  0
LINE
  5
6ED5
330
1A
100
AcDbEntity
  8
0
  6
CONTINUOUS
 62
     2
100
AcDbLine
 10
306.947506271185
 20
489.4481373994048
 30
0.0
 11
306.947506271185
 21
492.4481373994049
 31
0.0
  0
ARC
  5
6ED6
330
1A
100
AcDbEntity
  8
0
  6
CONTINUOUS
 62
     2
100
AcDbCircle
 10
318.9475062711851
 20
496.9481683994049
 30
0.0
 40
1.0
100
AcDbArc
 50
90.0
 51
149.9999999999994
  0
ARC
  5
6ED7
330
1A
100
AcDbEntity
  8
150
  6
HIDDEN2
 62
     7
100
AcDbCircle
 10
333.9475062711851
 20
485.4481373994048
 30
0.0
 40
3.5
100
AcDbArc
 50
359.9999899999998
 51
89.99999900000023
  0
LINE
  5
6ED8
330
1A
100
AcDbEntity
  8
150
  6
CONTINUOUS
 62
     7
100
AcDbLine
 10
330.947506271185
 20
481.8915273994049
 30
0.0
 11
328.447506271185
 21
483.3348873994049
 31
0.0
  0
LINE
  5
6ED9
330
1A
100
AcDbEntity
  8
150
  6
CONTINUOUS
 62
     7
100
AcDbLine
 10
328.447506271185
 20
477.5613883994049
 30
0.0
 11
330.947506271185
 21
479.0047473994049
 31
0.0
  0
LINE
  5
6EDA
330
1A
100
AcDbEntity
  8
150
  6
CONTINUOUS
 62
     7
100
AcDbLine
 10
328.447506271185
 20
483.3348873994049
 30
0.0
 11
325.947506271185
 21
481.8915273994049
 31
0.0
  0
LINE
  5
6EDB
330
1A
100
AcDbEntity
  8
150
  6
CONTINUOUS
 62
     7
100
AcDbLine
 10
325.947506271185
 20
479.0047473994049
 30
0.0
 11
328.447506271185
 21
477.5613883994049
 31
0.0
  0
LINE
  5
6EDC
330
1A
100
AcDbEntity
  8
150
  6
CONTINUOUS
 62
     7
100
AcDbLine
 10
325.947506271185
 20
481.8915273994049
 30
0.0
 11
325.947506271185
 21
479.0047473994049
 31
0.0
  0
LINE
  5
6EDD
330
1A
100
AcDbEntity
  8
150
  6
CONTINUOUS
 62
     7
100
AcDbLine
 10
330.947506271185
 20
479.0047473994049
 30
0.0
 11
330.947506271185
 21
481.8915273994049
 31
0.0
  0
ARC
  5
6EDE
330
1A
100
AcDbEntity
  8
150
  6
CONTINUOUS
 62
     7
100
AcDbCircle
 10
337.4475062711851
 20
496.4481683994049
 30
0.0
 40
1.0
100
AcDbArc
 50
0.0
 51
90.00000300000095
  0
LINE
  5
6EDF
330
1A
100
AcDbEntity
  8
0
  6
CONTINUOUS
 62
     2
100
AcDbLine
 10
381.270657271185
 20
438.9481373994049
 30
0.0
 11
395.5846522711851
 21
438.9481373994049
 31
0.0
  0
LINE
  5
6EE0
330
1A
100
AcDbEntity
  8
0
  6
CONTINUOUS
 62
     2
100
AcDbLine
 10
381.270657271185
 20
451.9481373994048
 30
0.0
 11
395.5846522711851
 21
451.9481373994048
 31
0.0
  0
ARC
  5
6EE1
330
1A
100
AcDbEntity
  8
0
  6
CONTINUOUS
 62
     2
100
AcDbCircle
 10
386.2957122711851
 20
450.9481373994049
 30
0.0
 40
1.0
100
AcDbArc
 50
0.0
 51
90.00000300000095
  0
ARC
  5
6EE2
330
1A
100
AcDbEntity
  8
0
  6
CONTINUOUS
 62
     2
100
AcDbCircle
 10
386.2957122711851
 20
439.9481373994048
 30
0.0
 40
1.0
100
AcDbArc
 50
270.0
 51
0.0000090000000101
  0
LINE
  5
6EE3
330
1A
100
AcDbEntity
  8
150
  6
CONTINUOUS
100
AcDbLine
 10
382.447506271185
 20
452.6981373994049
 30
0.0
 11
418.447506271185
 21
452.6981373994049
 31
0.0
  0
LINE
  5
6EE4
330
1A
100
AcDbEntity
  8
150
  6
CONTINUOUS
100
AcDbLine
 10
382.447506271185
 20
438.1981373994049
 30
0.0
 11
418.447506271185
 21
438.1981373994049
 31
0.0
  0
LINE
  5
6EE5
330
1A
100
AcDbEntity
  8
0
  6
CONTINUOUS
 62
     2
100
AcDbLine
 10
380.270657271185
 20
439.9481373994048
 30
0.0
 11
380.270657271185
 21
450.9481373994049
 31
0.0
  0
ARC
  5
6EE6
330
1A
100
AcDbEntity
  8
0
  6
CONTINUOUS
 62
     2
100
AcDbCircle
 10
381.270657271185
 20
439.9481373994048
 30
0.0
 40
1.0
100
AcDbArc
 50
180.0000050000001
 51
270.0000009999997
  0
LINE
  5
6EE7
330
1A
100
AcDbEntity
  8
150
  6
CONTINUOUS
100
AcDbLine
 10
382.447506271185
 20
438.9481373994049
 30
0.0
 11
382.447506271185
 21
438.1981373994049
 31
0.0
  0
LINE
  5
6EE8
330
1A
100
AcDbEntity
  8
150
  6
CONTINUOUS
100
AcDbLine
 10
382.447506271185
 20
452.6981373994049
 30
0.0
 11
382.447506271185
 21
451.9481373994048
 31
0.0
  0
ARC
  5
6EE9
330
1A
100
AcDbEntity
  8
0
  6
CONTINUOUS
 62
     2
100
AcDbCircle
 10
381.270657271185
 20
450.9481373994049
 30
0.0
 40
1.0
100
AcDbArc
 50
90.0
 51
180.0000030000001
  0
LINE
  5
6EEA
330
1A
100
AcDbEntity
  8
0
  6
CONTINUOUS
 62
     2
100
AcDbLine
 10
395.5846522711851
 20
438.9481373994049
 30
0.0
 11
395.5846522711851
 21
451.9481373994048
 31
0.0
  0
LINE
  5
6EEB
330
1A
100
AcDbEntity
  8
0
  6
CONTINUOUS
 62
     2
100
AcDbLine
 10
387.295712271185
 20
450.9481373994049
 30
0.0
 11
387.295712271185
 21
439.9481373994048
 31
0.0
  0
LINE
  5
6EEC
330
1A
100
AcDbEntity
  8
150
  6
CONTINUOUS
100
AcDbLine
 10
418.447506271185
 20
452.6981373994049
 30
0.0
 11
418.447506271185
 21
438.1981373994049
 31
0.0
  0
ARC
  5
6EED
330
1A
100
AcDbEntity
  8
0
  6
CONTINUOUS
 62
     2
100
AcDbCircle
 10
376.447506271185
 20
493.4481373994048
 30
0.0
 40
1.0
100
AcDbArc
 50
90.0
 51
180.0000030000001
  0
TEXT
  5
6EEE
330
1A
100
AcDbEntity
  8
230
 62
     6
100
AcDbText
 10
393.1108442711851
 20
517.7455883994049
 30
0.0
 40
5.0
  1
ASL
100
AcDbText
  0
TEXT
  5
6EEF
330
1A
100
AcDbEntity
  8
210
  6
CONTINUOUS
 62
     4
100
AcDbText
 10
549.322544271185
 20
423.4064673994049
 30
0.0
 40
5.0
  1
35
 50
90.00000300000095
100
AcDbText
  0
LINE
  5
6EF0
330
1A
100
AcDbEntity
  8
150
  6
PHANTOM2
 62
     7
100
AcDbLine
 10
477.9475062711851
 20
432.4481373994049
 30
0.0
 11
477.9475062711851
 21
423.4481373994049
 31
0.0
  0
LINE
  5
6EF1
330
1A
100
AcDbEntity
  8
0
  6
CONTINUOUS
 62
     2
100
AcDbLine
 10
451.447506271185
 20
392.9481373994049
 30
0.0
 11
451.447506271185
 21
497.9481683994049
 31
0.0
  0
LINE
  5
6EF2
330
1A
100
AcDbEntity
  8
225
  6
CENTER
 62
     3
100
AcDbLine
 10
507.447536271185
 20
431.9481073994049
 30
0.0
 11
507.447536271185
 21
413.9481073994049
 31
0.0
  0
LINE
  5
6EF3
330
1A
100
AcDbEntity
  8
0
  6
CONTINUOUS
 62
     2
100
AcDbLine
 10
484.447506271185
 20
496.9481683994049
 30
0.0
 11
484.447506271185
 21
393.9481373994049
 31
0.0
  0
LINE
  5
6EF4
330
1A
100
AcDbEntity
  8
150
  6
PHANTOM2
 62
     7
100
AcDbLine
 10
537.9475062711851
 20
495.4481683994049
 30
0.0
 11
537.9475062711851
 21
395.4481373994049
 31
0.0
  0
LINE
  5
6EF5
330
1A
100
AcDbEntity
  8
225
  6
CENTER
 62
     3
100
AcDbLine
 10
463.447506271185
 20
421.448137399405
 30
0.0
 11
463.447506271185
 21
434.4481373994049
 31
0.0
  0
LINE
  5
6EF6
330
1A
100
AcDbEntity
  8
0
  6
CONTINUOUS
 62
     2
100
AcDbLine
 10
482.9475062711851
 20
496.9481683994049
 30
0.0
 11
482.9475062711851
 21
393.9481373994049
 31
0.0
  0
LINE
  5
6EF7
330
1A
100
AcDbEntity
  8
0
  6
CONTINUOUS
 62
     2
100
AcDbLine
 10
425.4475062711851
 20
493.4481373994048
 30
0.0
 11
425.4475062711851
 21
397.4481373994049
 31
0.0
  0
LINE
  5
6EF8
330
1A
100
AcDbEntity
  8
0
  6
CONTINUOUS
 62
     2
100
AcDbLine
 10
515.4475062711851
 20
389.4481373994049
 30
0.0
 11
515.4475062711851
 21
501.4481683994049
 31
0.0
  0
ARC
  5
6EF9
330
1A
100
AcDbEntity
  8
0
  6
CONTINUOUS
 62
     2
100
AcDbCircle
 10
514.4475062711851
 20
430.9481373994048
 30
0.0
 40
1.0
100
AcDbArc
 50
270.0
 51
0.0000090000000101
  0
CIRCLE
  5
6EFA
330
1A
100
AcDbEntity
  8
150
  6
CONTINUOUS
100
AcDbCircle
 10
463.447506271185
 20
427.9481373994049
 30
0.0
 40
4.5
  0
LINE
  5
6EFB
330
1A
100
AcDbEntity
  8
150
  6
PHANTOM2
 62
     7
100
AcDbLine
 10
463.447506271185
 20
393.4481373994049
 30
0.0
 11
535.9475062711851
 21
393.4481373994049
 31
0.0
  0
LINE
  5
6EFC
330
1A
100
AcDbEntity
  8
210
  6
CONTINUOUS
 62
     4
100
AcDbLine
 10
472.4475142711851
 20
400.7609393994049
 30
0.0
 11
472.4475142711851
 21
366.3955213994049
 31
0.0
  0
TEXT
  5
6EFD
330
1A
100
AcDbEntity
  8
210
  6
CONTINUOUS
 62
     4
100
AcDbText
 10
432.2391802711851
 20
372.88799574079
 30
0.0
 40
5.0
  1
72
100
AcDbText
  0
LINE
  5
6EFE
330
1A
100
AcDbEntity
  8
210
  6
CONTINUOUS
 62
     4
100
AcDbLine
 10
472.4475142711851
 20
370.4580213994049
 30
0.0
 11
470.475487271185
 21
370.1246883994049
 31
0.0
  0
LINE
  5
6EFF
330
1A
100
AcDbEntity
  8
210
  6
CONTINUOUS
 62
     4
100
AcDbLine
 10
472.4475142711851
 20
370.4580213994049
 30
0.0
 11
470.475487271185
 21
370.7913553994049
 31
0.0
  0
ARC
  5
6F00
330
1A
100
AcDbEntity
  8
0
  6
CONTINUOUS
 62
     2
100
AcDbCircle
 10
424.4475062711851
 20
397.4481373994049
 30
0.0
 40
1.0
100
AcDbArc
 50
270.0
 51
0.0000090000000101
  0
LINE
  5
6F01
330
1A
100
AcDbEntity
  8
150
  6
PHANTOM2
 62
     7
100
AcDbLine
 10
462.4475062711851
 20
415.4481373994049
 30
0.0
 11
462.4475062711851
 21
394.4481373994049
 31
0.0
  0
LINE
  5
6F02
330
1A
100
AcDbEntity
  8
150
  6
CONTINUOUS
100
AcDbLine
 10
463.447506271185
 20
405.4481373994049
 30
0.0
 11
463.447506271185
 21
415.4481373994049
 31
0.0
  0
LINE
  5
6F03
330
1A
100
AcDbEntity
  8
225
  6
CENTER
 62
     3
100
AcDbLine
 10
472.447506271185
 20
400.948137399405
 30
0.0
 11
472.447506271185
 21
419.9481373994049
 31
0.0
  0
CIRCLE
  5
6F04
330
1A
100
AcDbEntity
  8
150
  6
CONTINUOUS
100
AcDbCircle
 10
472.447506271185
 20
410.4481373994049
 30
0.0
 40
6.5
  0
LINE
  5
6F05
330
1A
100
AcDbEntity
  8
150
  6
CONTINUOUS
100
AcDbLine
 10
482.9475062711851
 20
401.9481373994049
 30
0.0
 11
466.9475062711851
 21
401.9481373994049
 31
0.0
  0
ARC
  5
6F06
330
1A
100
AcDbEntity
  8
150
  6
PHANTOM2
 62
     7
100
AcDbCircle
 10
463.447506271185
 20
394.4481373994049
 30
0.0
 40
1.0
100
AcDbArc
 50
180.0000050000001
 51
270.0000009999997
  0
ARC
  5
6F07
330
1A
100
AcDbEntity
  8
150
  6
CONTINUOUS
100
AcDbCircle
 10
466.9475062711851
 20
405.4481373994049
 30
0.0
 40
3.5
100
AcDbArc
 50
180.0
 51
270.0000029999993
  0
ARC
  5
6F08
330
1A
100
AcDbEntity
  8
0
  6
CONTINUOUS
 62
     2
100
AcDbCircle
 10
481.9475062711851
 20
393.9481373994049
 30
0.0
 40
1.0
100
AcDbArc
 50
270.0
 51
0.0000090000000101
  0
LINE
  5
6F09
330
1A
100
AcDbEntity
  8
150
  6
PHANTOM2
 62
     7
100
AcDbLine
 10
466.4475062711851
 20
419.4481373994049
 30
0.0
 11
473.9475062711851
 21
419.4481373994049
 31
0.0
  0
LINE
  5
6F0A
330
1A
100
AcDbEntity
  8
150
  6
CONTINUOUS
100
AcDbLine
 10
482.9475062711851
 20
418.9481373994049
 30
0.0
 11
466.9475062711851
 21
418.9481373994049
 31
0.0
  0
LINE
  5
6F0B
330
1A
100
AcDbEntity
  8
225
  6
CENTER
 62
     3
100
AcDbLine
 10
469.9475062711851
 20
427.9481373994049
 30
0.0
 11
456.9475062711851
 21
427.9481373994049
 31
0.0
  0
LINE
  5
6F0C
330
1A
100
AcDbEntity
  8
225
  6
CONTINUOUS
 62
     3
100
AcDbLine
 10
481.9475062711851
 20
410.4481373994049
 30
0.0
 11
462.9475062711851
 21
410.4481373994049
 31
0.0
  0
ARC
  5
6F0D
330
1A
100
AcDbEntity
  8
150
  6
PHANTOM2
 62
     7
100
AcDbCircle
 10
466.4475062711851
 20
415.4481373994049
 30
0.0
 40
4.0
100
AcDbArc
 50
90.0
 51
180.0000030000001
  0
ARC
  5
6F0E
330
1A
100
AcDbEntity
  8
150
  6
CONTINUOUS
100
AcDbCircle
 10
466.9475062711851
 20
415.4481373994049
 30
0.0
 40
3.5
100
AcDbArc
 50
90.0
 51
180.000009
  0
LINE
  5
6F0F
330
1A
100
AcDbEntity
  8
150
  6
CONTINUOUS
100
AcDbLine
 10
469.4475062711851
 20
408.7160823994049
 30
0.0
 11
472.447506271185
 21
406.9840263994049
 31
0.0
  0
LINE
  5
6F10
330
1A
100
AcDbEntity
  8
150
  6
CONTINUOUS
100
AcDbLine
 10
469.4475062711851
 20
412.1801933994049
 30
0.0
 11
469.4475062711851
 21
408.7160823994049
 31
0.0
  0
LINE
  5
6F11
330
1A
100
AcDbEntity
  8
150
  6
CONTINUOUS
100
AcDbLine
 10
472.447506271185
 20
413.9122493994049
 30
0.0
 11
469.4475062711851
 21
412.1801933994049
 31
0.0
  0
LINE
  5
6F12
330
1A
100
AcDbEntity
  8
150
  6
CONTINUOUS
100
AcDbLine
 10
475.4475062711851
 20
412.1801933994049
 30
0.0
 11
472.447506271185
 21
413.9122493994049
 31
0.0
  0
LINE
  5
6F13
330
1A
100
AcDbEntity
  8
150
  6
CONTINUOUS
100
AcDbLine
 10
475.4475062711851
 20
408.7160823994049
 30
0.0
 11
475.4475062711851
 21
412.1801933994049
 31
0.0
  0
LINE
  5
6F14
330
1A
100
AcDbEntity
  8
150
  6
CONTINUOUS
100
AcDbLine
 10
472.447506271185
 20
406.9840263994049
 30
0.0
 11
475.4475062711851
 21
408.7160823994049
 31
0.0
  0
ARC
  5
6F15
330
1A
100
AcDbEntity
  8
150
  6
PHANTOM2
 62
     7
100
AcDbCircle
 10
473.9475062711851
 20
423.4481373994049
 30
0.0
 40
4.0
100
AcDbArc
 50
270.0
 51
0.0000090000000101
  0
ARC
  5
6F16
330
1A
100
AcDbEntity
  8
0
  6
CONTINUOUS
 62
     2
100
AcDbCircle
 10
511.4475062711851
 20
389.4481373994049
 30
0.0
 40
4.0
100
AcDbArc
 50
270.0
 51
0.0000090000000101
  0
LINE
  5
6F17
330
1A
100
AcDbEntity
  8
225
  6
CENTER
 62
     3
100
AcDbLine
 10
516.4475362711851
 20
422.9481073994049
 30
0.0
 11
498.447536271185
 21
422.9481073994049
 31
0.0
  0
ARC
  5
6F18
330
1A
100
AcDbEntity
  8
0
  6
CONTINUOUS
 62
     2
100
AcDbCircle
 10
507.447536271185
 20
422.9481073994049
 30
0.0
 40
7.0
100
AcDbArc
 50
90.0
 51
269.9999979999988
  0
CIRCLE
  5
6F19
330
1A
100
AcDbEntity
  8
150
  6
CENTER
100
AcDbCircle
 10
507.4475592711851
 20
422.9481173994049
 30
0.0
 40
6.5
  0
CIRCLE
  5
6F1A
330
1A
100
AcDbEntity
  8
150
  6
CENTER
100
AcDbCircle
 10
507.4475592711851
 20
422.9481173994049
 30
0.0
 40
5.25
  0
LINE
  5
6F1B
330
1A
100
AcDbEntity
  8
0
  6
CONTINUOUS
 62
     2
100
AcDbLine
 10
507.447536271185
 20
415.9481373994049
 30
0.0
 11
514.4475062711851
 21
415.9481373994049
 31
0.0
  0
ARC
  5
6F1C
330
1A
100
AcDbEntity
  8
0
  6
CONTINUOUS
 62
     2
100
AcDbCircle
 10
514.4475062711851
 20
414.9481373994049
 30
0.0
 40
1.0
100
AcDbArc
 50
0.0
 51
90.00000300000095
  0
LINE
  5
6F1D
330
1A
100
AcDbEntity
  8
150
  6
CONTINUOUS
100
AcDbLine
 10
509.038540271185
 20
423.478441399405
 30
0.0
 11
510.205257271185
 21
424.6451593994049
 31
0.0
  0
LINE
  5
6F1E
330
1A
100
AcDbEntity
  8
150
  6
CONTINUOUS
100
AcDbLine
 10
509.1445882711851
 20
420.1903863994049
 30
0.0
 11
510.205257271185
 21
421.2510553994049
 31
0.0
  0
LINE
  5
6F1F
330
1A
100
AcDbEntity
  8
150
  6
CONTINUOUS
100
AcDbLine
 10
510.205257271185
 20
421.2510553994049
 30
0.0
 11
509.038540271185
 21
422.4177723994049
 31
0.0
  0
LINE
  5
6F20
330
1A
100
AcDbEntity
  8
0
  6
CONTINUOUS
 62
     2
100
AcDbLine
 10
507.447536271185
 20
429.9481373994049
 30
0.0
 11
514.4475062711851
 21
429.9481373994049
 31
0.0
  0
LINE
  5
6F21
330
1A
100
AcDbEntity
  8
150
  6
CONTINUOUS
100
AcDbLine
 10
510.205257271185
 20
424.6451593994049
 30
0.0
 11
509.1445882711851
 21
425.7058283994049
 31
0.0
  0
ARC
  5
6F22
330
1A
100
AcDbEntity
  8
150
  6
CONTINUOUS
100
AcDbCircle
 10
507.4475592711851
 20
425.0694373994049
 30
0.0
 40
0.75
100
AcDbArc
 50
224.9999879999993
 51
314.9999839999996
  0
LINE
  5
6F23
330
1A
100
AcDbEntity
  8
150
  6
CONTINUOUS
100
AcDbLine
 10
507.977871271185
 20
421.357103399405
 30
0.0
 11
509.1445882711851
 21
420.1903863994049
 31
0.0
  0
ARC
  5
6F24
330
1A
100
AcDbEntity
  8
150
  6
CONTINUOUS
100
AcDbCircle
 10
505.3262382711851
 20
422.9481173994049
 30
0.0
 40
0.75
100
AcDbArc
 50
314.9999839999996
 51
44.99999300000019
  0
ARC
  5
6F25
330
1A
100
AcDbEntity
  8
150
  6
CONTINUOUS
100
AcDbCircle
 10
509.568879271185
 20
422.948116399405
 30
0.0
 40
0.75
100
AcDbArc
 50
134.9999859999998
 51
224.9999879999993
  0
ARC
  5
6F26
330
1A
100
AcDbEntity
  8
150
  6
CONTINUOUS
100
AcDbCircle
 10
507.447558271185
 20
420.8267963994049
 30
0.0
 40
0.75
100
AcDbArc
 50
44.99998299999965
 51
134.9999859999998
  0
LINE
  5
6F27
330
1A
100
AcDbEntity
  8
150
  6
CONTINUOUS
100
AcDbLine
 10
504.689816271185
 20
421.2510553994049
 30
0.0
 11
505.7504842711851
 21
420.1903863994049
 31
0.0
  0
LINE
  5
6F28
330
1A
100
AcDbEntity
  8
150
  6
CONTINUOUS
100
AcDbLine
 10
505.7504842711851
 20
420.1903863994049
 30
0.0
 11
506.9172022711851
 21
421.357103399405
 31
0.0
  0
LINE
  5
6F29
330
1A
100
AcDbEntity
  8
150
  6
CONTINUOUS
100
AcDbLine
 10
504.689816271185
 20
424.6451593994049
 30
0.0
 11
505.856533271185
 21
423.478441399405
 31
0.0
  0
LINE
  5
6F2A
330
1A
100
AcDbEntity
  8
150
  6
CONTINUOUS
100
AcDbLine
 10
505.7504842711851
 20
425.7058283994049
 30
0.0
 11
504.689816271185
 21
424.6451593994049
 31
0.0
  0
LINE
  5
6F2B
330
1A
100
AcDbEntity
  8
150
  6
CONTINUOUS
100
AcDbLine
 10
506.9172022711851
 20
424.5391103994049
 30
0.0
 11
505.7504842711851
 21
425.7058283994049
 31
0.0
  0
LINE
  5
6F2C
330
1A
100
AcDbEntity
  8
150
  6
CONTINUOUS
100
AcDbLine
 10
509.1445882711851
 20
425.7058283994049
 30
0.0
 11
507.977871271185
 21
424.5391103994049
 31
0.0
  0
LINE
  5
6F2D
330
1A
100
AcDbEntity
  8
150
  6
CONTINUOUS
100
AcDbLine
 10
505.856533271185
 20
422.4177723994049
 30
0.0
 11
504.689816271185
 21
421.2510553994049
 31
0.0
  0
ARC
  5
6F2E
330
1A
100
AcDbEntity
  8
150
  6
PHANTOM2
 62
     7
100
AcDbCircle
 10
535.9475062711851
 20
395.4481373994049
 30
0.0
 40
2.0
100
AcDbArc
 50
270.0
 51
0.0000090000000101
  0
LINE
  5
6F2F
330
1A
100
AcDbEntity
  8
150
  6
PHANTOM2
 62
     7
100
AcDbLine
 10
463.447506271185
 20
497.4481683994049
 30
0.0
 11
535.9475062711851
 21
497.4481683994049
 31
0.0
  0
LINE
  5
6F30
330
1A
100
AcDbEntity
  8
150
  6
PHANTOM2
 62
     7
100
AcDbLine
 10
462.4475062711851
 20
496.4481683994049
 30
0.0
 11
462.4475062711851
 21
475.4481373994049
 31
0.0
  0
LINE
  5
6F31
330
1A
100
AcDbEntity
  8
150
  6
CONTINUOUS
100
AcDbLine
 10
463.447506271185
 20
475.4481373994049
 30
0.0
 11
463.447506271185
 21
485.4481373994048
 31
0.0
  0
LINE
  5
6F32
330
1A
100
AcDbEntity
  8
225
  6
CENTER
 62
     3
100
AcDbLine
 10
472.447506271185
 20
470.9481373994049
 30
0.0
 11
472.447506271185
 21
489.9481683994049
 31
0.0
  0
CIRCLE
  5
6F33
330
1A
100
AcDbEntity
  8
150
  6
CONTINUOUS
100
AcDbCircle
 10
472.447506271185
 20
480.4481373994049
 30
0.0
 40
6.5
  0
ARC
  5
6F34
330
1A
100
AcDbEntity
  8
150
  6
PHANTOM2
 62
     7
100
AcDbCircle
 10
466.4475062711851
 20
450.4481373994049
 30
0.0
 40
4.0
100
AcDbArc
 50
90.0
 51
180.0000030000001
  0
ARC
  5
6F35
330
1A
100
AcDbEntity
  8
150
  6
CONTINUOUS
100
AcDbCircle
 10
466.9475062711851
 20
450.4481373994049
 30
0.0
 40
3.5
100
AcDbArc
 50
90.0
 51
180.0000030000001
  0
LINE
  5
6F36
330
1A
100
AcDbEntity
  8
225
  6
CENTER
 62
     3
100
AcDbLine
 10
472.447506271185
 20
435.9481373994049
 30
0.0
 11
472.447506271185
 21
454.9481373994049
 31
0.0
  0
LINE
  5
6F37
330
1A
100
AcDbEntity
  8
150
  6
PHANTOM2
 62
     7
100
AcDbLine
 10
466.4475062711851
 20
436.4481373994049
 30
0.0
 11
473.9475062711851
 21
436.4481373994049
 31
0.0
  0
LINE
  5
6F38
330
1A
100
AcDbEntity
  8
150
  6
CONTINUOUS
100
AcDbLine
 10
482.9475062711851
 20
436.9481373994049
 30
0.0
 11
466.9475062711851
 21
436.9481373994049
 31
0.0
  0
LINE
  5
6F39
330
1A
100
AcDbEntity
  8
225
  6
CONTINUOUS
 62
     3
100
AcDbLine
 10
481.9475062711851
 20
445.4481373994049
 30
0.0
 11
462.9475062711851
 21
445.4481373994049
 31
0.0
  0
CIRCLE
  5
6F3A
330
1A
100
AcDbEntity
  8
150
  6
CONTINUOUS
100
AcDbCircle
 10
472.447506271185
 20
445.4481373994049
 30
0.0
 40
6.5
  0
LINE
  5
6F3B
330
1A
100
AcDbEntity
  8
150
  6
PHANTOM2
 62
     7
100
AcDbLine
 10
462.4475062711851
 20
450.4481373994049
 30
0.0
 11
462.4475062711851
 21
440.4481373994049
 31
0.0
  0
LINE
  5
6F3C
330
1A
100
AcDbEntity
  8
150
  6
CONTINUOUS
100
AcDbLine
 10
463.447506271185
 20
450.4481373994049
 30
0.0
 11
463.447506271185
 21
440.4481373994049
 31
0.0
  0
ARC
  5
6F3D
330
1A
100
AcDbEntity
  8
150
  6
PHANTOM2
 62
     7
100
AcDbCircle
 10
466.4475062711851
 20
440.4481373994049
 30
0.0
 40
4.0
100
AcDbArc
 50
180.0000050000001
 51
270.0000009999997
  0
ARC
  5
6F3E
330
1A
100
AcDbEntity
  8
150
  6
CONTINUOUS
100
AcDbCircle
 10
466.9475062711851
 20
440.4481373994049
 30
0.0
 40
3.5
100
AcDbArc
 50
179.9999899999997
 51
269.9999990000002
  0
ARC
  5
6F3F
330
1A
100
AcDbEntity
  8
150
  6
PHANTOM2
 62
     7
100
AcDbCircle
 10
473.9475062711851
 20
432.4481373994049
 30
0.0
 40
4.0
100
AcDbArc
 50
0.0
 51
90.00000300000095
  0
LINE
  5
6F40
330
1A
100
AcDbEntity
  8
150
  6
CONTINUOUS
100
AcDbLine
 10
472.447506271185
 20
448.9122493994049
 30
0.0
 11
469.4475062711851
 21
447.180193399405
 31
0.0
  0
LINE
  5
6F41
330
1A
100
AcDbEntity
  8
150
  6
CONTINUOUS
100
AcDbLine
 10
469.4475062711851
 20
447.180193399405
 30
0.0
 11
469.4475062711851
 21
443.7160823994049
 31
0.0
  0
LINE
  5
6F42
330
1A
100
AcDbEntity
  8
150
  6
CONTINUOUS
100
AcDbLine
 10
469.4475062711851
 20
443.7160823994049
 30
0.0
 11
472.447506271185
 21
441.9840263994049
 31
0.0
  0
LINE
  5
6F43
330
1A
100
AcDbEntity
  8
150
  6
CONTINUOUS
100
AcDbLine
 10
472.447506271185
 20
441.9840263994049
 30
0.0
 11
475.4475062711851
 21
443.7160823994049
 31
0.0
  0
LINE
  5
6F44
330
1A
100
AcDbEntity
  8
150
  6
CONTINUOUS
100
AcDbLine
 10
475.4475062711851
 20
443.7160823994049
 30
0.0
 11
475.4475062711851
 21
447.180193399405
 31
0.0
  0
LINE
  5
6F45
330
1A
100
AcDbEntity
  8
150
  6
CONTINUOUS
100
AcDbLine
 10
475.4475062711851
 20
447.180193399405
 30
0.0
 11
472.447506271185
 21
448.9122493994049
 31
0.0
  0
LINE
  5
6F46
330
1A
100
AcDbEntity
  8
150
  6
PHANTOM2
 62
     7
100
AcDbLine
 10
466.4475062711851
 20
471.4481373994049
 30
0.0
 11
473.9475062711851
 21
471.4481373994049
 31
0.0
  0
LINE
  5
6F47
330
1A
100
AcDbEntity
  8
150
  6
PHANTOM2
 62
     7
100
AcDbLine
 10
466.4475062711851
 20
454.4481373994049
 30
0.0
 11
473.9475062711851
 21
454.4481373994049
 31
0.0
  0
LINE
  5
6F48
330
1A
100
AcDbEntity
  8
150
  6
CONTINUOUS
100
AcDbLine
 10
482.9475062711851
 20
471.9481373994049
 30
0.0
 11
466.9475062711851
 21
471.9481373994049
 31
0.0
  0
LINE
  5
6F49
330
1A
100
AcDbEntity
  8
150
  6
CONTINUOUS
100
AcDbLine
 10
482.9475062711851
 20
453.9481373994049
 30
0.0
 11
466.9475062711851
 21
453.9481373994049
 31
0.0
  0
LINE
  5
6F4A
330
1A
100
AcDbEntity
  8
225
  6
CENTER
 62
     3
100
AcDbLine
 10
469.9475062711851
 20
462.9481373994049
 30
0.0
 11
456.9475062711851
 21
462.9481373994049
 31
0.0
  0
LINE
  5
6F4B
330
1A
100
AcDbEntity
  8
225
  6
CENTER
 62
     3
100
AcDbLine
 10
463.447506271185
 20
469.4481373994049
 30
0.0
 11
463.447506271185
 21
456.4481373994048
 31
0.0
  0
CIRCLE
  5
6F4C
330
1A
100
AcDbEntity
  8
150
  6
CONTINUOUS
100
AcDbCircle
 10
463.447506271185
 20
462.9481373994049
 30
0.0
 40
4.5
  0
ARC
  5
6F4D
330
1A
100
AcDbEntity
  8
150
  6
PHANTOM2
 62
     7
100
AcDbCircle
 10
466.4475062711851
 20
475.4481373994049
 30
0.0
 40
4.0
100
AcDbArc
 50
180.0000050000001
 51
270.0000009999997
  0
ARC
  5
6F4E
330
1A
100
AcDbEntity
  8
150
  6
CONTINUOUS
100
AcDbCircle
 10
466.9475062711851
 20
475.4481373994049
 30
0.0
 40
3.5
100
AcDbArc
 50
180.0
 51
270.0000029999993
  0
LINE
  5
6F4F
330
1A
100
AcDbEntity
  8
150
  6
PHANTOM2
 62
     7
100
AcDbLine
 10
477.9475062711851
 20
467.4481373994049
 30
0.0
 11
477.9475062711851
 21
458.4481373994049
 31
0.0
  0
ARC
  5
6F50
330
1A
100
AcDbEntity
  8
150
  6
PHANTOM2
 62
     7
100
AcDbCircle
 10
473.9475062711851
 20
458.4481373994049
 30
0.0
 40
4.0
100
AcDbArc
 50
270.0
 51
0.0000090000000101
  0
ARC
  5
6F51
330
1A
100
AcDbEntity
  8
150
  6
PHANTOM2
 62
     7
100
AcDbCircle
 10
473.9475062711851
 20
467.4481373994049
 30
0.0
 40
4.0
100
AcDbArc
 50
0.0
 51
90.00000300000095
  0
ARC
  5
6F52
330
1A
100
AcDbEntity
  8
0
  6
CONTINUOUS
 62
     2
100
AcDbCircle
 10
424.4475062711851
 20
493.4481373994048
 30
0.0
 40
1.0
100
AcDbArc
 50
0.0
 51
90.00000300000095
  0
LINE
  5
6F53
330
1A
100
AcDbEntity
  8
150
  6
CONTINUOUS
100
AcDbLine
 10
482.9475062711851
 20
488.9481373994049
 30
0.0
 11
466.9475062711851
 21
488.9481373994049
 31
0.0
  0
LINE
  5
6F54
330
1A
100
AcDbEntity
  8
225
  6
CENTER
 62
     3
100
AcDbLine
 10
481.9475062711851
 20
480.4481373994049
 30
0.0
 11
462.9475062711851
 21
480.4481373994049
 31
0.0
  0
ARC
  5
6F55
330
1A
100
AcDbEntity
  8
150
  6
CONTINUOUS
100
AcDbCircle
 10
466.9475062711851
 20
485.4481373994048
 30
0.0
 40
3.5
100
AcDbArc
 50
90.0
 51
180.000009
  0
ARC
  5
6F56
330
1A
100
AcDbEntity
  8
150
  6
PHANTOM2
 62
     7
100
AcDbCircle
 10
463.447506271185
 20
496.4481683994049
 30
0.0
 40
1.0
100
AcDbArc
 50
90.0
 51
180.0000030000001
  0
LINE
  5
6F57
330
1A
100
AcDbEntity
  8
150
  6
CONTINUOUS
100
AcDbLine
 10
469.4475062711851
 20
482.1801933994049
 30
0.0
 11
469.4475062711851
 21
478.7160823994049
 31
0.0
  0
LINE
  5
6F58
330
1A
100
AcDbEntity
  8
150
  6
CONTINUOUS
100
AcDbLine
 10
469.4475062711851
 20
478.7160823994049
 30
0.0
 11
472.447506271185
 21
476.984026399405
 31
0.0
  0
LINE
  5
6F59
330
1A
100
AcDbEntity
  8
150
  6
CONTINUOUS
100
AcDbLine
 10
472.447506271185
 20
476.984026399405
 30
0.0
 11
475.4475062711851
 21
478.7160823994049
 31
0.0
  0
LINE
  5
6F5A
330
1A
100
AcDbEntity
  8
150
  6
CONTINUOUS
100
AcDbLine
 10
475.4475062711851
 20
478.7160823994049
 30
0.0
 11
475.4475062711851
 21
482.1801933994049
 31
0.0
  0
LINE
  5
6F5B
330
1A
100
AcDbEntity
  8
150
  6
CONTINUOUS
100
AcDbLine
 10
472.447506271185
 20
483.9122493994048
 30
0.0
 11
469.4475062711851
 21
482.1801933994049
 31
0.0
  0
LINE
  5
6F5C
330
1A
100
AcDbEntity
  8
150
  6
CONTINUOUS
100
AcDbLine
 10
475.4475062711851
 20
482.1801933994049
 30
0.0
 11
472.447506271185
 21
483.9122493994048
 31
0.0
  0
ARC
  5
6F5D
330
1A
100
AcDbEntity
  8
0
  6
CONTINUOUS
 62
     2
100
AcDbCircle
 10
481.9475062711851
 20
496.9481683994049
 30
0.0
 40
1.0
100
AcDbArc
 50
0.0
 51
90.00000300000095
  0
TEXT
  5
6F5E
330
1A
100
AcDbEntity
  8
210
  6
CONTINUOUS
 62
     4
100
AcDbText
 10
549.322544271185
 20
458.4064673994049
 30
0.0
 40
5.0
  1
35
 50
90.00000300000095
100
AcDbText
  0
ARC
  5
6F5F
330
1A
100
AcDbEntity
  8
0
  6
CONTINUOUS
 62
     2
100
AcDbCircle
 10
511.4475062711851
 20
501.4481683994049
 30
0.0
 40
4.0
100
AcDbArc
 50
0.0
 51
90.00000300000095
  0
ARC
  5
6F60
330
1A
100
AcDbEntity
  8
150
  6
PHANTOM2
 62
     7
100
AcDbCircle
 10
535.9475062711851
 20
495.4481683994049
 30
0.0
 40
2.0
100
AcDbArc
 50
0.0
 51
90.00000300000095
  0
LINE
  5
6F61
330
1A
100
AcDbEntity
  8
210
  6
CONTINUOUS
 62
     4
100
AcDbLine
 10
293.447483271185
 20
525.2167493994049
 30
0.0
 11
507.447544271185
 21
525.2167493994049
 31
0.0
  0
LINE
  5
6F62
330
1A
100
AcDbEntity
  8
210
  6
CONTINUOUS
 62
     4
100
AcDbLine
 10
293.447483271185
 20
525.2167493994049
 30
0.0
 11
295.4195102711851
 21
524.8834163994049
 31
0.0
  0
LINE
  5
6F63
330
1A
100
AcDbEntity
  8
210
  6
CONTINUOUS
 62
     4
100
AcDbLine
 10
293.447483271185
 20
525.2167493994049
 30
0.0
 11
295.4195102711851
 21
525.550083399405
 31
0.0
  0
TEXT
  5
6F64
330
1A
100
AcDbEntity
  8
210
 62
     4
100
AcDbText
 10
394.8225142711851
 20
528.3417493994049
 30
0.0
 40
5.0
  1
214
100
AcDbText
  0
TEXT
  5
6F65
330
1A
100
AcDbEntity
  8
210
 62
     4
100
AcDbText
 10
393.197483271185
 20
548.5731643994049
 30
0.0
 40
5.0
  1
230
100
AcDbText
  0
LINE
  5
6F66
330
1A
100
AcDbEntity
  8
210
  6
CONTINUOUS
 62
     4
100
AcDbLine
 10
507.447544271185
 20
525.2167493994049
 30
0.0
 11
505.4755182711851
 21
524.8834163994049
 31
0.0
  0
LINE
  5
6F67
330
1A
100
AcDbEntity
  8
210
  6
CONTINUOUS
 62
     4
100
AcDbLine
 10
507.447544271185
 20
525.2167493994049
 30
0.0
 11
505.4755182711851
 21
525.550083399405
 31
0.0
  0
LINE
  5
6F68
330
1A
100
AcDbEntity
  8
210
  6
CONTINUOUS
 62
     4
100
AcDbLine
 10
515.4475142711851
 20
545.4481643994049
 30
0.0
 11
513.4754872711851
 21
545.1148313994049
 31
0.0
  0
LINE
  5
6F69
330
1A
100
AcDbEntity
  8
210
  6
CONTINUOUS
 62
     4
100
AcDbLine
 10
515.4475142711851
 20
545.4481643994049
 30
0.0
 11
513.4754872711851
 21
545.7814973994049
 31
0.0
  0
LINE
  5
6F6B
330
1A
100
AcDbEntity
  8
210
  6
CONTINUOUS
 62
     4
100
AcDbLine
 10
552.447544271185
 20
174.0044693994049
 30
0.0
 11
552.447544271185
 21
146.5044773994049
 31
0.0
  0
LINE
  5
6F6C
330
1A
100
AcDbEntity
  8
210
  6
CONTINUOUS
 62
     4
100
AcDbLine
 10
572.447544271185
 20
174.0044693994049
 30
0.0
 11
572.447544271185
 21
124.0044773994049
 31
0.0
  0
TEXT
  5
6F6D
330
1A
100
AcDbEntity
  8
210
  6
CONTINUOUS
 62
     4
100
AcDbText
 10
569.322544271185
 20
144.4211433994049
 30
0.0
 40
5.0
  1
50
 50
90.00000300000095
100
AcDbText
  0
LINE
  5
6F73
330
1A
100
AcDbEntity
  8
210
  6
CONTINUOUS
 62
     4
100
AcDbLine
 10
552.447544271185
 20
146.5044773994049
 30
0.0
 11
552.1142112711851
 21
148.4765033994049
 31
0.0
  0
LINE
  5
6F74
330
1A
100
AcDbEntity
  8
210
  6
CONTINUOUS
 62
     4
100
AcDbLine
 10
552.447544271185
 20
146.5044773994049
 30
0.0
 11
552.7808772711851
 21
148.4765033994049
 31
0.0
  0
LINE
  5
6F75
330
1A
100
AcDbEntity
  8
210
  6
CONTINUOUS
 62
     4
100
AcDbLine
 10
572.447544271185
 20
124.0044773994049
 30
0.0
 11
572.1142112711851
 21
125.9765033994049
 31
0.0
  0
LINE
  5
6F76
330
1A
100
AcDbEntity
  8
210
  6
CONTINUOUS
 62
     4
100
AcDbLine
 10
572.447544271185
 20
124.0044773994049
 30
0.0
 11
572.7808772711851
 21
125.9765033994049
 31
0.0
  0
LINE
  5
6F77
330
1A
100
AcDbEntity
  8
210
  6
CONTINUOUS
 62
     4
100
AcDbLine
 10
572.447544271185
 20
299.0044693994049
 30
0.0
 11
572.447544271185
 21
174.0044693994049
 31
0.0
  0
LINE
  5
6F79
330
1A
100
AcDbEntity
  8
210
  6
CONTINUOUS
 62
     4
100
AcDbLine
 10
552.447544271185
 20
236.0044693994049
 30
0.0
 11
552.447544271185
 21
174.0044693994049
 31
0.0
  0
LINE
  5
6F7A
330
1A
100
AcDbEntity
  8
210
  6
CONTINUOUS
 62
     4
100
AcDbLine
 10
552.447544271185
 20
174.0044693994049
 30
0.0
 11
552.1142112711851
 21
175.9764963994049
 31
0.0
  0
LINE
  5
6F7B
330
1A
100
AcDbEntity
  8
210
  6
CONTINUOUS
 62
     4
100
AcDbLine
 10
552.447544271185
 20
174.0044693994049
 30
0.0
 11
552.7808772711851
 21
175.9764963994049
 31
0.0
  0
LINE
  5
6F7C
330
1A
100
AcDbEntity
  8
210
  6
CONTINUOUS
 62
     4
100
AcDbLine
 10
552.447544271185
 20
174.0044693994049
 30
0.0
 11
552.1142112711851
 21
172.0324423994049
 31
0.0
  0
LINE
  5
6F7D
330
1A
100
AcDbEntity
  8
210
  6
CONTINUOUS
 62
     4
100
AcDbLine
 10
552.447544271185
 20
174.0044693994049
 30
0.0
 11
552.7808772711851
 21
172.0324423994049
 31
0.0
  0
LINE
  5
6F81
330
1A
100
AcDbEntity
  8
210
  6
CONTINUOUS
 62
     4
100
AcDbLine
 10
572.447544271185
 20
174.0044693994049
 30
0.0
 11
572.1142112711851
 21
175.9764963994049
 31
0.0
  0
LINE
  5
6F82
330
1A
100
AcDbEntity
  8
210
  6
CONTINUOUS
 62
     4
100
AcDbLine
 10
572.447544271185
 20
174.0044693994049
 30
0.0
 11
572.7808772711851
 21
175.9764963994049
 31
0.0
  0
LINE
  5
6F83
330
1A
100
AcDbEntity
  8
210
  6
CONTINUOUS
 62
     4
100
AcDbLine
 10
572.447544271185
 20
174.0044693994049
 30
0.0
 11
572.1142112711851
 21
172.0324423994049
 31
0.0
  0
LINE
  5
6F84
330
1A
100
AcDbEntity
  8
210
  6
CONTINUOUS
 62
     4
100
AcDbLine
 10
572.447544271185
 20
174.0044693994049
 30
0.0
 11
572.7808772711851
 21
172.0324423994049
 31
0.0
  0
LINE
  5
6F86
330
1A
100
AcDbEntity
  8
210
  6
CONTINUOUS
 62
     4
100
AcDbLine
 10
552.447544271185
 20
236.0044693994049
 30
0.0
 11
552.1142112711851
 21
234.0324423994049
 31
0.0
  0
LINE
  5
6F87
330
1A
100
AcDbEntity
  8
210
  6
CONTINUOUS
 62
     4
100
AcDbLine
 10
552.447544271185
 20
236.0044693994049
 30
0.0
 11
552.7808772711851
 21
234.0324423994049
 31
0.0
  0
TEXT
  5
6F88
330
1A
100
AcDbEntity
  8
210
  6
CONTINUOUS
 62
     4
100
AcDbText
 10
569.322544271185
 20
231.1294693994049
 30
0.0
 40
5.0
  1
125
 50
90.00000300000095
100
AcDbText
  0
LINE
  5
6F94
330
1A
100
AcDbEntity
  8
210
  6
CONTINUOUS
 62
     4
100
AcDbLine
 10
572.447544271185
 20
299.0044693994049
 30
0.0
 11
572.1142112711851
 21
297.0324423994049
 31
0.0
  0
LINE
  5
6F95
330
1A
100
AcDbEntity
  8
210
  6
CONTINUOUS
 62
     4
100
AcDbLine
 10
572.447544271185
 20
299.0044693994049
 30
0.0
 11
572.7808772711851
 21
297.0324423994049
 31
0.0
  0
LINE
  5
6F96
330
1A
100
AcDbEntity
  8
210
  6
CONTINUOUS
 62
     4
100
AcDbLine
 10
572.4035382711851
 20
392.9481343994049
 30
0.0
 11
572.4035382711851
 21
497.9481643994049
 31
0.0
  0
LINE
  5
6F97
330
1A
100
AcDbEntity
  8
210
  6
CONTINUOUS
 62
     4
100
AcDbLine
 10
552.447544271185
 20
410.4481343994049
 30
0.0
 11
552.447544271185
 21
445.4481343994049
 31
0.0
  0
LINE
  5
6F99
330
1A
100
AcDbEntity
  8
210
  6
CONTINUOUS
 62
     4
100
AcDbLine
 10
572.4035382711851
 20
392.9481343994049
 30
0.0
 11
572.070204271185
 21
394.9201603994049
 31
0.0
  0
LINE
  5
6F9A
330
1A
100
AcDbEntity
  8
210
  6
CONTINUOUS
 62
     4
100
AcDbLine
 10
572.4035382711851
 20
392.9481343994049
 30
0.0
 11
572.7368712711849
 21
394.9201603994049
 31
0.0
  0
LINE
  5
6F9B
330
1A
100
AcDbEntity
  8
210
  6
CONTINUOUS
 62
     4
100
AcDbLine
 10
552.447544271185
 20
410.4481343994049
 30
0.0
 11
552.1142112711851
 21
412.4201603994049
 31
0.0
  0
LINE
  5
6F9C
330
1A
100
AcDbEntity
  8
210
  6
CONTINUOUS
 62
     4
100
AcDbLine
 10
552.447544271185
 20
410.4481343994049
 30
0.0
 11
552.7808772711851
 21
412.4201603994049
 31
0.0
  0
LINE
  5
6F9D
330
1A
100
AcDbEntity
  8
210
  6
CONTINUOUS
 62
     4
100
AcDbLine
 10
552.447544271185
 20
445.4481343994049
 30
0.0
 11
552.447544271185
 21
480.448134399405
 31
0.0
  0
TEXT
  5
6F9E
330
1A
100
AcDbEntity
  8
210
  6
CONTINUOUS
 62
     4
100
AcDbText
 10
569.2785382711851
 20
439.6148303994049
 30
0.0
 40
5.0
  1
105
 50
90.00000300000095
100
AcDbText
  0
LINE
  5
6F9F
330
1A
100
AcDbEntity
  8
210
  6
CONTINUOUS
 62
     4
100
AcDbLine
 10
552.447544271185
 20
445.4481343994049
 30
0.0
 11
552.1142112711851
 21
443.4761073994049
 31
0.0
  0
LINE
  5
6FA0
330
1A
100
AcDbEntity
  8
210
  6
CONTINUOUS
 62
     4
100
AcDbLine
 10
552.447544271185
 20
445.4481343994049
 30
0.0
 11
552.7808772711851
 21
443.4761073994049
 31
0.0
  0
LINE
  5
6FA1
330
1A
100
AcDbEntity
  8
210
  6
CONTINUOUS
 62
     4
100
AcDbLine
 10
552.447544271185
 20
445.4481343994049
 30
0.0
 11
552.1142112711851
 21
447.4201603994049
 31
0.0
  0
LINE
  5
6FA2
330
1A
100
AcDbEntity
  8
210
  6
CONTINUOUS
 62
     4
100
AcDbLine
 10
552.447544271185
 20
445.4481343994049
 30
0.0
 11
552.7808772711851
 21
447.4201603994049
 31
0.0
  0
LINE
  5
6FA3
330
1A
100
AcDbEntity
  8
210
  6
CONTINUOUS
 62
     4
100
AcDbLine
 10
552.447544271185
 20
480.448134399405
 30
0.0
 11
552.1142112711851
 21
478.4761073994048
 31
0.0
  0
LINE
  5
6FA4
330
1A
100
AcDbEntity
  8
210
  6
CONTINUOUS
 62
     4
100
AcDbLine
 10
552.447544271185
 20
480.448134399405
 30
0.0
 11
552.7808772711851
 21
478.4761073994048
 31
0.0
  0
LINE
  5
6FA5
330
1A
100
AcDbEntity
  8
210
  6
CONTINUOUS
 62
     4
100
AcDbLine
 10
572.4035382711851
 20
497.9481643994049
 30
0.0
 11
572.070204271185
 21
495.976138399405
 31
0.0
  0
LINE
  5
6FA6
330
1A
100
AcDbEntity
  8
210
  6
CONTINUOUS
 62
     4
100
AcDbLine
 10
572.4035382711851
 20
497.9481643994049
 30
0.0
 11
572.7368712711849
 21
495.976138399405
 31
0.0
  0
LINE
  5
7038
330
1A
100
AcDbEntity
  8
170
  6
DASHED
100
AcDbLine
 10
951.7729782503991
 20
521.2826691398888
 30
0.0
 11
951.7729782503991
 21
376.2826081398887
 31
0.0
  0
LINE
  5
7039
330
1A
100
AcDbEntity
  8
170
  6
CONTINUOUS
100
AcDbLine
 10
916.7729782503991
 20
524.7201691398888
 30
0.0
 11
916.7729782503991
 21
379.7201381398887
 31
0.0
  0
LINE
  5
703A
330
1A
100
AcDbEntity
  8
170
  6
CONTINUOUS
100
AcDbLine
 10
732.7729782503991
 20
524.7201691398888
 30
0.0
 11
732.7729782503991
 21
379.7201381398887
 31
0.0
  0
LINE
  5
703B
330
1A
100
AcDbEntity
  8
170
  6
DASHED
100
AcDbLine
 10
697.7730392503992
 20
528.1576691398888
 30
0.0
 11
697.7730392503992
 21
383.1576081398887
 31
0.0
  0
LINE
  5
703D
330
1A
100
AcDbEntity
  8
170
  6
CONTINUOUS
100
AcDbLine
 10
956.772978250399
 20
524.7201691398888
 30
0.0
 11
956.772978250399
 21
379.7201081398887
 31
0.0
  0
LINE
  5
703E
330
1A
100
AcDbEntity
  8
170
  6
CONTINUOUS
100
AcDbLine
 10
692.772978250399
 20
524.7201691398888
 30
0.0
 11
692.772978250399
 21
379.7201081398887
 31
0.0
  0
LINE
  5
703F
330
1A
100
AcDbEntity
  8
210
  6
CONTINUOUS
 62
     4
100
AcDbLine
 10
920.8986192503989
 20
429.7201841398887
 30
0.0
 11
630.188047250399
 21
429.7201841398886
 31
0.0
  0
LINE
  5
7041
330
1A
100
AcDbEntity
  8
225
  6
CENTER
 62
     3
100
AcDbLine
 10
652.7729782503991
 20
452.2201691398888
 30
0.0
 11
996.772978250399
 21
452.2201691398888
 31
0.0
  0
LINE
  5
7042
330
1A
100
AcDbEntity
  8
170
  6
PHANTOM2
 62
     1
100
AcDbLine
 10
716.772978250399
 20
512.2201691398888
 30
0.0
 11
932.7729782503991
 21
512.2201691398888
 31
0.0
  0
LINE
  5
7043
330
1A
100
AcDbEntity
  8
170
  6
PHANTOM2
 62
     1
100
AcDbLine
 10
716.772978250399
 20
392.2201691398888
 30
0.0
 11
932.7729782503991
 21
392.2201691398888
 31
0.0
  0
LINE
  5
7045
330
1A
100
AcDbEntity
  8
225
  6
CENTER
 62
     3
100
AcDbLine
 10
652.7729782503991
 20
228.8325133412703
 30
0.0
 11
976.7729782503991
 21
228.8325133412703
 31
0.0
  0
LINE
  5
7046
330
1A
100
AcDbEntity
  8
170
  6
PHANTOM2
 62
     1
100
AcDbLine
 10
716.772978250399
 20
288.8325133412704
 30
0.0
 11
932.7729782503991
 21
288.8325133412704
 31
0.0
  0
LINE
  5
7047
330
1A
100
AcDbEntity
  8
170
  6
PHANTOM2
 62
     1
100
AcDbLine
 10
716.772978250399
 20
168.8324833412704
 30
0.0
 11
932.7729782503991
 21
168.8324833412704
 31
0.0
  0
LINE
  5
704B
330
1A
100
AcDbEntity
  8
10
  6
CONTINUOUS
100
AcDbLine
 10
870.772978250399
 20
301.3325133412704
 30
0.0
 11
870.772978250399
 21
156.3324833412703
 31
0.0
  0
LINE
  5
704C
330
1A
100
AcDbEntity
  8
10
  6
CONTINUOUS
100
AcDbLine
 10
778.7729782503991
 20
301.3325133412704
 30
0.0
 11
778.7729782503991
 21
156.3324833412703
 31
0.0
  0
LINE
  5
704D
330
1A
100
AcDbEntity
  8
225
  6
CENTER
 62
     3
100
AcDbLine
 10
824.7729782503991
 20
306.0496258751122
 30
0.0
 11
824.7729782503991
 21
148.1565215428122
 31
0.0
  0
ARC
  5
704E
330
1A
100
AcDbEntity
  8
170
  6
PHANTOM2
 62
     1
100
AcDbCircle
 10
716.772978250399
 20
175.8324833412704
 30
0.0
 40
7.0
100
AcDbArc
 50
180.0000050000001
 51
270.0000010000014
  0
LINE
  5
704F
330
1A
100
AcDbEntity
  8
210
  6
CONTINUOUS
 62
     4
100
AcDbLine
 10
706.8986192503991
 20
474.7201841398887
 30
0.0
 11
630.1880472503991
 21
474.7201841398888
 31
0.0
  0
TEXT
  5
7050
330
1A
100
AcDbEntity
  8
210
  6
CONTINUOUS
 62
     4
100
AcDbText
 10
629.330274135773
 20
446.9630240213136
 30
0.0
 40
5.0
  1
45
 50
90.00000300000095
100
AcDbText
  0
LINE
  5
7051
330
1A
100
AcDbEntity
  8
170
  6
PHANTOM2
 62
     1
100
AcDbLine
 10
709.772978250399
 20
175.8324833412704
 30
0.0
 11
709.772978250399
 21
281.8325133412703
 31
0.0
  0
ARC
  5
7054
330
1A
100
AcDbEntity
  8
170
  6
PHANTOM2
 62
     1
100
AcDbCircle
 10
716.772978250399
 20
281.8325133412703
 30
0.0
 40
7.0
100
AcDbArc
 50
90.0
 51
180.0000030000001
  0
LINE
  5
705E
330
1A
100
AcDbEntity
  8
170
  6
PHANTOM2
 62
     1
100
AcDbLine
 10
709.772978250399
 20
399.2201691398888
 30
0.0
 11
709.772978250399
 21
505.2201691398888
 31
0.0
  0
LINE
  5
705F
330
1A
100
AcDbEntity
  8
170
  6
CONTINUOUS
100
AcDbLine
 10
692.772978250399
 20
379.7201081398887
 30
0.0
 11
696.1062912503991
 21
382.2201081398887
 31
0.0
  0
LINE
  5
7060
330
1A
100
AcDbEntity
  8
170
  6
CONTINUOUS
100
AcDbLine
 10
722.7730392503992
 20
372.2201081398887
 30
0.0
 11
729.4396652503991
 21
377.2201081398887
 31
0.0
  0
LINE
  5
7061
330
1A
100
AcDbEntity
  8
170
  6
CONTINUOUS
100
AcDbLine
 10
702.7730392503992
 20
387.2201081398887
 30
0.0
 11
712.7730392503991
 21
379.7201081398887
 31
0.0
  0
LINE
  5
7062
330
1A
100
AcDbEntity
  8
170
  6
CONTINUOUS
100
AcDbLine
 10
696.1062912503991
 20
382.2201081398887
 30
0.0
 11
702.7730392503992
 21
387.2201081398887
 31
0.0
  0
LINE
  5
7063
330
1A
100
AcDbEntity
  8
170
  6
CONTINUOUS
100
AcDbLine
 10
712.7730392503991
 20
379.7201081398887
 30
0.0
 11
722.7730392503992
 21
372.2201081398887
 31
0.0
  0
ARC
  5
7064
330
1A
100
AcDbEntity
  8
170
  6
PHANTOM2
 62
     1
100
AcDbCircle
 10
716.772978250399
 20
399.2201691398888
 30
0.0
 40
7.0
100
AcDbArc
 50
180.0000050000001
 51
270.0000010000014
  0
LINE
  5
7065
330
1A
100
AcDbEntity
  8
170
  6
CONTINUOUS
100
AcDbLine
 10
729.4396652503991
 20
377.2201081398887
 30
0.0
 11
732.7729782503991
 21
379.7201081398887
 31
0.0
  0
LINE
  5
7066
330
1A
100
AcDbEntity
  8
210
  6
CONTINUOUS
 62
     4
100
AcDbLine
 10
633.1880472503991
 20
474.7201841398887
 30
0.0
 11
633.1880472503991
 21
429.7201841398887
 31
0.0
  0
LINE
  5
7067
330
1A
100
AcDbEntity
  8
210
  6
CONTINUOUS
 62
     4
100
AcDbLine
 10
633.1880472503991
 20
429.7201841398887
 30
0.0
 11
632.8547142503991
 21
431.6922111398888
 31
0.0
  0
LINE
  5
7068
330
1A
100
AcDbEntity
  8
210
  6
CONTINUOUS
 62
     4
100
AcDbLine
 10
633.1880472503991
 20
429.7201841398887
 30
0.0
 11
633.521381250399
 21
431.6922111398888
 31
0.0
  0
LINE
  5
706B
330
1A
100
AcDbEntity
  8
210
  6
CONTINUOUS
 62
     4
100
AcDbLine
 10
633.1880472503991
 20
474.7201841398887
 30
0.0
 11
632.8547142503991
 21
472.7481571398887
 31
0.0
  0
LINE
  5
706C
330
1A
100
AcDbEntity
  8
210
  6
CONTINUOUS
 62
     4
100
AcDbLine
 10
633.1880472503991
 20
474.7201841398887
 30
0.0
 11
633.521381250399
 21
472.7481571398887
 31
0.0
  0
ARC
  5
7073
330
1A
100
AcDbEntity
  8
170
  6
PHANTOM2
 62
     1
100
AcDbCircle
 10
716.772978250399
 20
505.2201691398888
 30
0.0
 40
7.0
100
AcDbArc
 50
90.0
 51
180.0000030000001
  0
LINE
  5
7076
330
1A
100
AcDbEntity
  8
225
  6
CENTER
 62
     3
100
AcDbLine
 10
824.7729782503991
 20
527.3124884889618
 30
0.0
 11
824.7729782503991
 21
379.7201381398887
 31
0.0
  0
ARC
  5
707B
330
1A
100
AcDbEntity
  8
170
  6
PHANTOM2
 62
     1
100
AcDbCircle
 10
932.7729782503991
 20
175.8324833412704
 30
0.0
 40
7.0
100
AcDbArc
 50
270.0
 51
0.0000090000000101
  0
LINE
  5
707C
330
1A
100
AcDbEntity
  8
170
  6
PHANTOM2
 62
     1
100
AcDbLine
 10
939.772978250399
 20
175.8324833412704
 30
0.0
 11
939.772978250399
 21
281.8325133412703
 31
0.0
  0
ARC
  5
707D
330
1A
100
AcDbEntity
  8
170
  6
PHANTOM2
 62
     1
100
AcDbCircle
 10
932.7729782503991
 20
281.8325133412703
 30
0.0
 40
7.0
100
AcDbArc
 50
0.0
 51
90.00000299999769
  0
LINE
  5
707E
330
1A
100
AcDbEntity
  8
170
  6
PHANTOM2
 62
     1
100
AcDbLine
 10
939.772978250399
 20
399.2201691398888
 30
0.0
 11
939.772978250399
 21
505.2201691398888
 31
0.0
  0
LINE
  5
707F
330
1A
100
AcDbEntity
  8
170
  6
CONTINUOUS
100
AcDbLine
 10
953.439604250399
 20
377.2201081398887
 30
0.0
 11
956.772978250399
 21
379.7201081398887
 31
0.0
  0
LINE
  5
7080
330
1A
100
AcDbEntity
  8
170
  6
CONTINUOUS
100
AcDbLine
 10
920.1062302503991
 20
382.2201081398887
 30
0.0
 11
926.7729782503991
 21
387.2201081398887
 31
0.0
  0
LINE
  5
7081
330
1A
100
AcDbEntity
  8
170
  6
CONTINUOUS
100
AcDbLine
 10
916.7729782503991
 20
379.7201081398887
 30
0.0
 11
920.1062302503991
 21
382.2201081398887
 31
0.0
  0
LINE
  5
7082
330
1A
100
AcDbEntity
  8
170
  6
CONTINUOUS
100
AcDbLine
 10
936.7729782503991
 20
379.7201081398887
 30
0.0
 11
946.772978250399
 21
372.2201081398887
 31
0.0
  0
LINE
  5
7083
330
1A
100
AcDbEntity
  8
170
  6
CONTINUOUS
100
AcDbLine
 10
926.7729782503991
 20
387.2201081398887
 30
0.0
 11
936.7729782503991
 21
379.7201081398887
 31
0.0
  0
LINE
  5
7084
330
1A
100
AcDbEntity
  8
170
  6
CONTINUOUS
100
AcDbLine
 10
946.772978250399
 20
372.2201081398887
 30
0.0
 11
953.439604250399
 21
377.2201081398887
 31
0.0
  0
ARC
  5
7085
330
1A
100
AcDbEntity
  8
170
  6
PHANTOM2
 62
     1
100
AcDbCircle
 10
932.7729782503991
 20
399.2201691398888
 30
0.0
 40
7.0
100
AcDbArc
 50
270.0
 51
0.0000090000000101
  0
LINE
  5
7086
330
1A
100
AcDbEntity
  8
225
  6
CONTINUOUS
 62
     3
100
AcDbLine
 10
921.2729782503991
 20
429.7201691398888
 30
0.0
 11
942.272978250399
 21
429.7201691398888
 31
0.0
  0
LINE
  5
7087
330
1A
100
AcDbEntity
  8
225
  6
CONTINUOUS
 62
     3
100
AcDbLine
 10
931.772978250399
 20
440.2201691398888
 30
0.0
 11
931.772978250399
 21
419.2201691398888
 31
0.0
  0
CIRCLE
  5
7088
330
1A
100
AcDbEntity
  8
10
  6
CONTINUOUS
100
AcDbCircle
 10
931.772978250399
 20
429.7201691398888
 30
0.0
 40
2.458499999999999
  0
CIRCLE
  5
7089
330
1A
100
AcDbEntity
  8
10
  6
CONTINUOUS
100
AcDbCircle
 10
931.772978250399
 20
429.7201691398888
 30
0.0
 40
3.0
  0
ARC
  5
708C
330
1A
100
AcDbEntity
  8
170
  6
PHANTOM2
 62
     1
100
AcDbCircle
 10
932.7729782503991
 20
505.2201691398888
 30
0.0
 40
7.0
100
AcDbArc
 50
0.0
 51
90.00000299999769
  0
LINE
  5
7092
330
1A
100
AcDbEntity
  8
170
  6
CONTINUOUS
100
AcDbLine
 10
692.772978250399
 20
524.7201691398888
 30
0.0
 11
696.1062912503991
 21
527.2201691398889
 31
0.0
  0
LINE
  5
7095
330
1A
100
AcDbEntity
  8
170
  6
CONTINUOUS
100
AcDbLine
 10
722.7730392503992
 20
517.2201691398888
 30
0.0
 11
729.4396652503991
 21
522.2201691398888
 31
0.0
  0
LINE
  5
7097
330
1A
100
AcDbEntity
  8
170
  6
CONTINUOUS
100
AcDbLine
 10
702.7730392503992
 20
532.2201691398888
 30
0.0
 11
712.7730392503991
 21
524.7201691398888
 31
0.0
  0
LINE
  5
7098
330
1A
100
AcDbEntity
  8
170
  6
CONTINUOUS
100
AcDbLine
 10
696.1062912503991
 20
527.2201691398889
 30
0.0
 11
702.7730392503992
 21
532.2201691398888
 31
0.0
  0
LINE
  5
7099
330
1A
100
AcDbEntity
  8
170
  6
CONTINUOUS
100
AcDbLine
 10
712.7730392503991
 20
524.7201691398888
 30
0.0
 11
722.7730392503992
 21
517.2201691398888
 31
0.0
  0
LINE
  5
709E
330
1A
100
AcDbEntity
  8
170
  6
CONTINUOUS
100
AcDbLine
 10
729.4396652503991
 20
522.2201691398888
 30
0.0
 11
732.7729782503991
 21
524.7201691398888
 31
0.0
  0
LINE
  5
70AC
330
1A
100
AcDbEntity
  8
170
  6
CONTINUOUS
100
AcDbLine
 10
920.1062302503991
 20
527.2201691398889
 30
0.0
 11
926.7729782503991
 21
532.2201691398888
 31
0.0
  0
LINE
  5
70AF
330
1A
100
AcDbEntity
  8
170
  6
CONTINUOUS
100
AcDbLine
 10
916.7729782503991
 20
524.7201691398888
 30
0.0
 11
920.1062302503991
 21
527.2201691398889
 31
0.0
  0
LINE
  5
70B2
330
1A
100
AcDbEntity
  8
170
  6
CONTINUOUS
100
AcDbLine
 10
936.7729782503991
 20
524.7201691398888
 30
0.0
 11
946.772978250399
 21
517.2201691398888
 31
0.0
  0
LINE
  5
70B3
330
1A
100
AcDbEntity
  8
170
  6
CONTINUOUS
100
AcDbLine
 10
926.7729782503991
 20
532.2201691398888
 30
0.0
 11
936.7729782503991
 21
524.7201691398888
 31
0.0
  0
TEXT
  5
70BC
330
1A
100
AcDbEntity
  8
230
 62
     6
100
AcDbText
 10
275.2776229067499
 20
441.9811067305444
 30
0.0
 40
5.0
  1
L
100
AcDbText
  0
TEXT
  5
70BD
330
1A
100
AcDbEntity
  8
230
 62
     6
100
AcDbText
 10
273.6807035868112
 20
443.9599399437857
 30
0.0
 40
5.0
  1
H
100
AcDbText
  0
TEXT
  5
70BE
330
1A
100
AcDbEntity
  8
230
 62
     6
100
AcDbText
 10
646.6031258859638
 20
448.7531384710284
 30
0.0
 40
5.0
  1
L
100
AcDbText
  0
TEXT
  5
70BF
330
1A
100
AcDbEntity
  8
230
 62
     6
100
AcDbText
 10
645.0062065660252
 20
450.7319716842696
 30
0.0
 40
5.0
  1
H
100
AcDbText
  0
TEXT
  5
70C0
330
1A
100
AcDbEntity
  8
230
 62
     6
100
AcDbText
 10
818.648579682698
 20
529.8879768847602
 30
0.0
 40
5.0
  1
ASL
100
AcDbText
  0
LINE
  5
70C1
330
1A
100
AcDbEntity
  8
210
 62
     4
100
AcDbLine
 10
931.772978250399
 20
440.2201691398887
 30
0.0
 11
931.772978250399
 21
549.4402771398888
 31
0.0
  0
LINE
  5
70C2
330
1A
100
AcDbEntity
  8
210
 62
     4
100
AcDbLine
 10
916.7729782503991
 20
524.7201691398888
 30
0.0
 11
916.7729782503991
 21
549.4402771398888
 31
0.0
  0
LINE
  5
70C3
330
1A
100
AcDbEntity
  8
210
 62
     4
100
AcDbLine
 10
732.7729782503991
 20
524.7201691398888
 30
0.0
 11
732.7729782503991
 21
549.4402771398888
 31
0.0
  0
LINE
  5
70C4
330
1A
100
AcDbEntity
  8
210
 62
     4
100
AcDbLine
 10
717.773039250399
 20
502.6576691398887
 30
0.0
 11
717.773039250399
 21
549.4402771398888
 31
0.0
  0
LINE
  5
70C5
330
1A
100
AcDbEntity
  8
210
 62
     4
100
AcDbLine
 10
719.9730392503989
 20
566.9402771398888
 30
0.0
 11
929.5729782503993
 21
566.9402771398888
 31
0.0
  0
INSERT
  5
70C6
330
1A
100
AcDbEntity
  8
210
 62
     4
100
AcDbBlockReference
  2
_OPEN30
 10
916.7729782503991
 20
546.9402771398888
 30
0.0
 41
2.200000000000045
 42
2.200000000000045
 43
2.2
 50
180.0
  0
LINE
  5
70C7
330
1A
100
AcDbEntity
  8
210
 62
     4
100
AcDbLine
 10
734.9729782503991
 20
546.9402771398888
 30
0.0
 11
914.5729782503993
 21
546.9402771398888
 31
0.0
  0
LINE
  5
70C8
330
1A
100
AcDbEntity
  8
210
 62
     4
100
AcDbLine
 10
717.7730392503991
 20
485.2201691398889
 30
0.0
 11
717.773039250399
 21
569.4402771398888
 31
0.0
  0
TEXT
  5
70C9
330
1A
100
AcDbEntity
  8
210
100
AcDbText
 10
720.1539611313513
 20
548.9402771398888
 30
0.0
 40
5.0
  1
15
100
AcDbText
1001
ACAD
1000
MTEXTBEGIN
1070
    73
1070
     1
1070
    44
1040
1.0
1070
    74
1070
     0
1000
MTEXTEND
  0
MTEXT
  5
70CA
330
1A
100
AcDbEntity
  8
210
 62
     4
100
AcDbMText
 10
725.27300856592
 20
551.4404215767776
 30
0.0
 40
5.0
 41
0.0
 71
     5
 72
     1
  1
\A1;15
 11
0.9999999999989464
 21
-0.0000014516272459
 31
0.0
1001
ACAD
1000
MTEXTBEGIN
1070
    73
1070
     1
1070
    44
1040
1.0
1070
    74
1070
     0
1000
MTEXTEND
1000
MTEXTBEGIN
1070
    73
1070
     1
1070
    44
1040
1.0
1070
    74
1070
     0
1000
MTEXTEND
1000
MTEXTBEGIN
1070
    73
1070
     1
1070
    44
1040
1.0
1070
    74
1070
     0
1000
MTEXTEND
1000
MTEXTBEGIN
1070
    73
1070
     1
1070
    44
1040
1.0
1070
    74
1070
     0
1000
MTEXTEND
  0
LINE
  5
70CB
330
1A
100
AcDbEntity
  8
210
 62
     4
100
AcDbLine
 10
732.7729782503991
 20
543.3859876092644
 30
0.0
 11
732.7729782503991
 21
549.4402771398888
 31
0.0
  0
LINE
  5
70CC
330
1A
100
AcDbEntity
  8
210
 62
     4
100
AcDbLine
 10
719.973039250399
 20
546.9402771398888
 30
0.0
 11
730.572978250399
 21
546.9402771398888
 31
0.0
  0
INSERT
  5
70CD
330
1A
100
AcDbEntity
  8
210
 62
     4
100
AcDbBlockReference
  2
_OPEN30
 10
717.773039250399
 20
546.9402771398888
 30
0.0
 41
2.200000000000045
 42
2.200000000000045
 43
2.2
 50
180.0
  0
INSERT
  5
70CE
330
1A
100
AcDbEntity
  8
210
 62
     4
100
AcDbBlockReference
  2
_OPEN30
 10
732.7729782503991
 20
546.9402771398888
 30
0.0
 41
2.200000000000045
 42
2.200000000000045
 43
2.2
 50
180.0
  0
LINE
  5
70CF
330
1A
100
AcDbEntity
  8
210
 62
     4
100
AcDbLine
 10
732.7729782503991
 20
546.9402771398888
 30
0.0
 11
730.572978250399
 21
546.9402771398888
 31
0.0
  0
LINE
  5
70D0
330
1A
100
AcDbEntity
  8
210
 62
     4
100
AcDbLine
 10
732.7729782503991
 20
546.9402771398888
 30
0.0
 11
730.572978250399
 21
546.3507889218887
 31
0.0
  0
LINE
  5
70D1
330
1A
100
AcDbEntity
  8
210
 62
     4
100
AcDbLine
 10
730.572978250399
 20
547.5297653578889
 30
0.0
 11
732.7729782503991
 21
546.9402771398888
 31
0.0
  0
INSERT
  5
70D2
330
1A
100
AcDbEntity
  8
210
 62
     4
100
AcDbBlockReference
  2
_OPEN30
 10
717.773039250399
 20
566.9402771398888
 30
0.0
 41
2.200000000000045
 42
2.200000000000045
 43
2.2
 50
180.0
  0
MTEXT
  5
70D4
330
1A
100
AcDbEntity
  8
210
 62
     4
100
AcDbMText
 10
824.7729782503991
 20
551.4402771398888
 30
0.0
 40
5.0
 41
0.0
 71
     5
 72
     1
  1
\A1;184
1001
ACAD
1000
MTEXTBEGIN
1070
    73
1070
     1
1070
    44
1040
1.0
1070
    74
1070
     0
1000
MTEXTEND
1000
MTEXTBEGIN
1070
    73
1070
     1
1070
    44
1040
1.0
1070
    74
1070
     0
1000
MTEXTEND
1000
MTEXTBEGIN
1070
    73
1070
     1
1070
    44
1040
1.0
1070
    74
1070
     0
1000
MTEXTEND
  0
MTEXT
  5
70D5
330
1A
100
AcDbEntity
  8
210
 62
     4
100
AcDbMText
 10
824.773008750399
 20
571.4402771398888
 30
0.0
 40
5.0
 41
0.0
 71
     5
 72
     1
  1
\A1;214
1001
ACAD
1000
MTEXTBEGIN
1070
    73
1070
     1
1070
    44
1040
1.0
1070
    74
1070
     0
1000
MTEXTEND
1000
MTEXTBEGIN
1070
    73
1070
     1
1070
    44
1040
1.0
1070
    74
1070
     0
1000
MTEXTEND
1000
MTEXTBEGIN
1070
    73
1070
     1
1070
    44
1040
1.0
1070
    74
1070
     0
1000
MTEXTEND
1000
MTEXTBEGIN
1070
    73
1070
     1
1070
    44
1040
1.0
1070
    74
1070
     0
1000
MTEXTEND
  0
LINE
  5
70D6
330
1A
100
AcDbEntity
  8
210
 62
     4
100
AcDbLine
 10
916.7729782503991
 20
543.3859876092644
 30
0.0
 11
916.7729782503991
 21
549.4402771398888
 31
0.0
  0
INSERT
  5
70D7
330
1A
100
AcDbEntity
  8
210
 62
     4
100
AcDbBlockReference
  2
_OPEN30
 10
916.7729782503991
 20
546.9402771398888
 30
0.0
 41
2.200000000000045
 42
2.200000000000045
 43
2.2
  0
LINE
  5
70D8
330
1A
100
AcDbEntity
  8
210
 62
     4
100
AcDbLine
 10
931.772978250399
 20
534.2139163613917
 30
0.0
 11
931.772978250399
 21
569.4402771398888
 31
0.0
  0
MTEXT
  5
70D9
330
1A
100
AcDbEntity
  8
210
 62
     4
100
AcDbMText
 10
924.2729782503991
 20
551.4402771398888
 30
0.0
 40
5.0
 41
0.0
 71
     5
 72
     1
  1
\A1;15
1001
ACAD
1000
MTEXTBEGIN
1070
    73
1070
     1
1070
    44
1040
1.0
1070
    74
1070
     0
1000
MTEXTEND
1000
MTEXTBEGIN
1070
    73
1070
     1
1070
    44
1040
1.0
1070
    74
1070
     0
1000
MTEXTEND
1000
MTEXTBEGIN
1070
    73
1070
     1
1070
    44
1040
1.0
1070
    74
1070
     0
1000
MTEXTEND
1000
MTEXTBEGIN
1070
    73
1070
     1
1070
    44
1040
1.0
1070
    74
1070
     0
1000
MTEXTEND
  0
LINE
  5
70DA
330
1A
100
AcDbEntity
  8
210
 62
     4
100
AcDbLine
 10
918.9729782503988
 20
546.9402771398888
 30
0.0
 11
929.5729782503993
 21
546.9402771398888
 31
0.0
  0
INSERT
  5
70DB
330
1A
100
AcDbEntity
  8
210
 62
     4
100
AcDbBlockReference
  2
_OPEN30
 10
931.772978250399
 20
546.9402771398888
 30
0.0
 41
2.200000000000045
 42
2.200000000000045
 43
2.2
  0
INSERT
  5
70DC
330
1A
100
AcDbEntity
  8
210
 62
     4
100
AcDbBlockReference
  2
_OPEN30
 10
931.772978250399
 20
566.9402771398888
 30
0.0
 41
2.200000000000045
 42
2.200000000000045
 43
2.2
  0
LINE
  5
70DF
330
1A
100
AcDbEntity
  8
230
  6
CONTINUOUS
 62
     6
100
AcDbLine
 10
716.3837942503988
 20
477.3791191398889
 30
0.0
 11
688.5697585662618
 21
530.610807763662
 31
0.0
  0
TEXT
  5
70E0
330
1A
100
AcDbEntity
  8
230
  6
CONTINUOUS
 62
     6
100
AcDbText
 10
661.0227425468901
 20
533.4060736789913
 30
0.0
 40
5.0
  1
2-M6
100
AcDbText
  0
LINE
  5
70E1
330
1A
100
AcDbEntity
  8
230
  6
CONTINUOUS
 62
     6
100
AcDbLine
 10
688.5697585662618
 20
530.610807763662
 30
0.0
 11
658.9707455467848
 21
530.610807763662
 31
0.0
  0
LINE
  5
70E2
330
1A
100
AcDbEntity
  8
225
  6
CONTINUOUS
 62
     3
100
AcDbLine
 10
717.7730392503991
 20
485.2201691398889
 30
0.0
 11
717.7730392503991
 21
464.2201691398889
 31
0.0
  0
CIRCLE
  5
70E4
330
1A
100
AcDbEntity
  8
10
  6
CONTINUOUS
100
AcDbCircle
 10
717.7730392503991
 20
474.7201691398889
 30
0.0
 40
3.0
  0
LINE
  5
70E5
330
1A
100
AcDbEntity
  8
225
  6
CONTINUOUS
 62
     3
100
AcDbLine
 10
728.2730392503991
 20
474.7201691398889
 30
0.0
 11
707.2730392503991
 21
474.7201691398889
 31
0.0
  0
LINE
  5
70E6
330
1A
100
AcDbEntity
  8
230
  6
CONTINUOUS
 62
     6
100
AcDbLine
 10
716.3837942503988
 20
477.3791191398889
 30
0.0
 11
715.7659792503992
 21
479.2813031398889
 31
0.0
  0
LINE
  5
70E7
330
1A
100
AcDbEntity
  8
230
  6
CONTINUOUS
 62
     6
100
AcDbLine
 10
716.3837942503988
 20
477.3791191398889
 30
0.0
 11
715.1751092503992
 21
478.9725691398889
 31
0.0
  0
CIRCLE
  5
70EF
330
1A
100
AcDbEntity
  8
10
  6
CONTINUOUS
100
AcDbCircle
 10
717.7730392503991
 20
474.7201691398889
 30
0.0
 40
2.458499999999999
  0
LINE
  5
70F0
330
1A
100
AcDbEntity
  8
230
  6
CONTINUOUS
 62
     6
100
AcDbLine
 10
783.3881506177001
 20
357.3624282129724
 30
0.0
 11
874.5183591939692
 21
357.3624282129724
 31
0.0
  0
TEXT
  5
70F1
330
1A
100
AcDbEntity
  8
230
 62
     6
100
AcDbText
 10
796.6258144509645
 20
361.2115482129722
 30
0.0
 40
10.0
  1
取付寸法図
100
AcDbText
  0
LINE
  5
70F3
330
1A
100
AcDbEntity
  8
210
 62
     4
100
AcDbLine
 10
870.772978250399
 20
301.3325133412704
 30
0.0
 11
870.772978250399
 21
329.592271020258
 31
0.0
  0
LINE
  5
70F4
330
1A
100
AcDbEntity
  8
210
 62
     4
100
AcDbLine
 10
778.7729782503991
 20
301.3325133412704
 30
0.0
 11
778.7729782503991
 21
329.592271020258
 31
0.0
  0
LINE
  5
70F5
330
1A
100
AcDbEntity
  8
210
 62
     4
100
AcDbLine
 10
780.9729782503991
 20
327.0922710202579
 30
0.0
 11
868.5729782503992
 21
327.0922710202579
 31
0.0
  0
TEXT
  5
70F6
330
1A
100
AcDbEntity
  8
230
 62
     6
100
AcDbText
 10
803.2960323851099
 20
318.8253801995676
 30
0.0
 40
5.0
  1
パネルカット幅
100
AcDbText
  0
TEXT
  5
70F7
330
1A
100
AcDbEntity
  8
230
 62
     6
100
AcDbText
 10
817.4462243123532
 20
309.1523520904244
 30
0.0
 40
5.0
  1
ASL
100
AcDbText
  0
MTEXT
  5
70F8
330
1A
100
AcDbEntity
  8
210
 62
     4
100
AcDbMText
 10
824.7729782503991
 20
331.592271020258
 30
0.0
 40
5.0
 41
0.0
 71
     5
 72
     1
  1
\A1;92
1001
ACAD
1000
MTEXTBEGIN
1070
    73
1070
     1
1070
    44
1040
1.0
1070
    74
1070
     0
1000
MTEXTEND
1000
MTEXTBEGIN
1070
    73
1070
     1
1070
    44
1040
1.0
1070
    74
1070
     0
1000
MTEXTEND
1000
MTEXTBEGIN
1070
    73
1070
     1
1070
    44
1040
1.0
1070
    74
1070
     0
1000
MTEXTEND
  0
INSERT
  5
70F9
330
1A
100
AcDbEntity
  8
210
 62
     4
100
AcDbBlockReference
  2
_OPEN30
 10
778.7729782503991
 20
327.0922710202579
 30
0.0
 41
2.200000000000045
 42
2.200000000000045
 43
2.2
 50
180.0
  0
INSERT
  5
70FA
330
1A
100
AcDbEntity
  8
210
 62
     4
100
AcDbBlockReference
  2
_OPEN30
 10
870.772978250399
 20
327.0922710202579
 30
0.0
 41
2.200000000000045
 42
2.200000000000045
 43
2.2
  0
HATCH
  5
7137
330
1A
100
AcDbEntity
  8
170
100
AcDbHatch
 10
0.0
 20
0.0
 30
0.0
210
0.0
220
0.0
230
1.0
  2
ANSI31
 70
     0
 71
     0
 91
        8
 92
       22
 72
     1
 73
     1
 93
        5
 10
717.772978250399
 20
281.3325133412703
 42
0.4142135623730953
 10
710.7729782503991
 20
274.3325133412704
 42
0.0
 10
710.7729782503989
 20
228.8325133412703
 42
0.0
 10
778.7729782503991
 20
228.8325133412703
 42
0.0
 10
778.7729782503991
 20
281.3325133412703
 42
0.0
 97
        0
 92
        7
 72
     1
 73
     1
 93
        7
 10
692.7729782503989
 20
295.5200133412704
 42
0.0
 10
692.7729782503989
 20
228.8325133412703
 42
0.0
 10
710.7729782503991
 20
228.8325133412703
 42
0.0
 10
710.7729782503991
 20
274.3325133412704
 42
-0.4142135623730951
 10
717.772978250399
 20
281.3325133412703
 42
0.0
 10
778.7729782503991
 20
281.3325133412703
 42
0.0
 10
778.7729782503991
 20
295.5200133412704
 42
0.0
 97
        0
 92
        7
 72
     1
 73
     1
 93
        7
 10
710.7729782503989
 20
228.8325133412703
 42
0.0
 10
692.7729782503988
 20
228.8325133412703
 42
0.0
 10
692.7729782503988
 20
162.1450133412703
 42
0.0
 10
778.772978250399
 20
162.1450133412703
 42
0.0
 10
778.772978250399
 20
176.3324833412704
 42
0.0
 10
717.772978250399
 20
176.3324833412704
 42
-0.4142135623730945
 10
710.7729782503991
 20
183.3324833412704
 42
0.0
 97
        0
 92
        7
 72
     1
 73
     1
 93
        5
 10
778.7729782503991
 20
176.3324833412704
 42
0.0
 10
778.7729782503991
 20
228.8325133412703
 42
0.0
 10
710.7729782503989
 20
228.8325133412703
 42
0.0
 10
710.7729782503991
 20
183.3324833412704
 42
0.4142135623730985
 10
717.7729782503992
 20
176.3324833412704
 42
0.0
 97
        0
 92
        7
 72
     1
 73
     1
 93
        5
 10
870.7729782503992
 20
281.3325133412703
 42
0.0
 10
870.772978250399
 20
228.8325133412703
 42
0.0
 10
938.772978250399
 20
228.8325133412703
 42
0.0
 10
938.772978250399
 20
274.3325133412704
 42
0.4142135623730946
 10
931.772978250399
 20
281.3325133412703
 42
0.0
 97
        0
 92
        7
 72
     1
 73
     1
 93
        7
 10
938.772978250399
 20
228.8325133412703
 42
0.0
 10
956.7729782503995
 20
228.8325133412703
 42
0.0
 10
956.7729782503997
 20
295.5200133412704
 42
0.0
 10
870.7729782503992
 20
295.5200133412704
 42
0.0
 10
870.7729782503992
 20
281.3325133412703
 42
0.0
 10
931.772978250399
 20
281.3325133412703
 42
-0.4142135623730946
 10
938.772978250399
 20
274.3325133412704
 42
0.0
 97
        0
 92
        7
 72
     1
 73
     1
 93
        5
 10
938.7729782503994
 20
228.8325133412703
 42
0.0
 10
870.7729782503989
 20
228.8325133412703
 42
0.0
 10
870.7729782503989
 20
176.3324833412704
 42
0.0
 10
931.772978250399
 20
176.3324833412704
 42
0.4142135623730932
 10
938.772978250399
 20
183.3324833412704
 42
0.0
 97
        0
 92
        7
 72
     1
 73
     1
 93
        7
 10
956.7729782503993
 20
228.8325133412703
 42
0.0
 10
938.772978250399
 20
228.8325133412703
 42
0.0
 10
938.772978250399
 20
183.3324833412704
 42
-0.4142135623730932
 10
931.772978250399
 20
176.3324833412704
 42
0.0
 10
870.7729782503992
 20
176.3324833412704
 42
0.0
 10
870.772978250399
 20
162.1450133412703
 42
0.0
 10
956.7729782503993
 20
162.1450133412703
 42
0.0
 97
        0
 75
     0
 76
     1
 52
0.0
 41
50.0
 77
     0
 78
     1
 53
45.0
 43
-130.5798646235366
 44
136.3324832013816
 45
-4.419417382415921
 46
4.419417382415922
 79
     0
 47
0.8122357737012407
 98
        8
 10
745.1441134276493
 20
264.3515853795909
 10
715.8797739391062
 20
290.3431304963469
 10
709.3765895078631
 20
202.6216657272957
 10
745.1441134276493
 20
196.1237794481069
 10
907.7237687658239
 20
257.853699100402
 10
943.4912926856105
 20
267.6005285191854
 10
917.4785485953384
 20
205.8706088668902
 10
949.9944802995033
 20
183.128006889729
  0
TEXT
  5
7138
330
1A
100
AcDbEntity
  8
230
 62
     6
100
AcDbText
 10
645.0062065660252
 20
227.3443158856512
 30
0.0
 40
5.0
  1
H
100
AcDbText
  0
TEXT
  5
7139
330
1A
100
AcDbEntity
  8
230
 62
     6
100
AcDbText
 10
646.6031258859638
 20
225.36548267241
 30
0.0
 40
5.0
  1
L
100
AcDbText
  0
LINE
  5
713C
330
1A
100
AcDbEntity
  8
230
  6
CONTINUOUS
 62
     6
100
AcDbLine
 10
942.2968152503989
 20
516.404845139889
 30
0.0
 11
979.1210649899287
 21
564.3405496499822
 31
0.0
  0
LINE
  5
713D
330
1A
100
AcDbEntity
  8
230
  6
CONTINUOUS
 62
     6
100
AcDbLine
 10
979.1210649899287
 20
564.3405496499822
 30
0.0
 11
1026.999620266866
 21
564.3405496499822
 31
0.0
  0
TEXT
  5
713E
330
1A
100
AcDbEntity
  8
230
  6
CONTINUOUS
 62
     6
100
AcDbText
 10
989.1213118644756
 20
566.2098335091516
 30
0.0
 40
5.0
  1
取付アングル
100
AcDbText
  0
LINE
  5
713F
330
1A
100
AcDbEntity
  8
230
  6
CONTINUOUS
 62
     6
100
AcDbLine
 10
942.2968152503989
 20
516.404845139889
 30
0.0
 11
943.762508250399
 21
517.7656331398889
 31
0.0
  0
LINE
  5
7140
330
1A
100
AcDbEntity
  8
230
  6
CONTINUOUS
 62
     6
100
AcDbLine
 10
942.2968152503989
 20
516.404845139889
 30
0.0
 11
943.2338292503988
 21
518.1717651398887
 31
0.0
  0
LINE
  5
7141
330
1A
100
AcDbEntity
  8
170
  6
CONTINUOUS
100
AcDbLine
 10
946.772978250399
 20
517.2201691398888
 30
0.0
 11
956.772978250399
 21
524.7201691398888
 31
0.0
  0
TEXT
  5
7142
330
1A
100
AcDbEntity
  8
230
 62
     6
100
AcDbText
 10
773.8164950104553
 20
130.0462255000612
 30
0.0
 40
10.0
  1
パネルカット寸法図
100
AcDbText
  0
LINE
  5
7143
330
1A
100
AcDbEntity
  8
230
  6
CONTINUOUS
 62
     6
100
AcDbLine
 10
767.9612497850255
 20
126.1971055000614
 30
0.0
 11
885.7284718287717
 21
126.1971055000614
 31
0.0
  0
LINE
  5
7144
330
1A
100
AcDbEntity
  8
210
  6
CONTINUOUS
 62
     4
100
AcDbLine
 10
395.4475142711851
 20
102.5045033994049
 30
0.0
 11
405.447509271185
 21
102.5045033994049
 31
0.0
  0
LINE
  5
7145
330
1A
100
AcDbEntity
  8
210
  6
CONTINUOUS
 62
     4
100
AcDbLine
 10
400.4475112711849
 20
82.5045033994049
 30
0.0
 11
398.4754852711851
 21
82.17116939940487
 31
0.0
  0
LINE
  5
7146
330
1A
100
AcDbEntity
  8
210
  6
CONTINUOUS
 62
     4
100
AcDbLine
 10
400.4475112711849
 20
82.5045033994049
 30
0.0
 11
398.4754852711851
 21
82.83783639940494
 31
0.0
  0
TEXT
  5
7147
330
1A
100
AcDbEntity
  8
210
  6
CONTINUOUS
 62
     4
100
AcDbText
 10
391.884956271185
 20
65.6101477492019
 30
0.0
 40
5.0
  1
182
100
AcDbText
  0
LINE
  5
7148
330
1A
100
AcDbEntity
  8
210
  6
CONTINUOUS
 62
     4
100
AcDbLine
 10
330.4474762711852
 20
82.5045033994049
 30
0.0
 11
400.4475112711849
 21
82.5045033994049
 31
0.0
  0
LINE
  5
7149
330
1A
100
AcDbEntity
  8
210
  6
CONTINUOUS
 62
     4
100
AcDbLine
 10
309.4474772711851
 20
62.50450339940491
 30
0.0
 11
491.447454271185
 21
62.50450339940491
 31
0.0
  0
LINE
  5
714A
330
1A
100
AcDbEntity
  8
210
  6
CONTINUOUS
 62
     4
100
AcDbLine
 10
309.4474772711851
 20
62.50450339940491
 30
0.0
 11
311.4195042711851
 21
62.17117039940487
 31
0.0
  0
LINE
  5
714B
330
1A
100
AcDbEntity
  8
210
  6
CONTINUOUS
 62
     4
100
AcDbLine
 10
309.4474772711851
 20
62.50450339940491
 30
0.0
 11
311.4195042711851
 21
62.83783639940494
 31
0.0
  0
TEXT
  5
714C
330
1A
100
AcDbEntity
  8
230
  6
CONTINUOUS
 62
     6
100
AcDbText
 10
346.3763766969955
 20
76.27306028774794
 30
0.0
 40
5.0
  1
ブスバーピッチ
100
AcDbText
  0
LINE
  5
714D
330
1A
100
AcDbEntity
  8
210
  6
CONTINUOUS
 62
     4
100
AcDbLine
 10
330.4474762711852
 20
82.5045033994049
 30
0.0
 11
332.419503271185
 21
82.17116939940487
 31
0.0
  0
LINE
  5
714E
330
1A
100
AcDbEntity
  8
210
  6
CONTINUOUS
 62
     4
100
AcDbLine
 10
330.4474762711852
 20
82.5045033994049
 30
0.0
 11
332.419503271185
 21
82.83783639940494
 31
0.0
  0
TEXT
  5
714F
330
1A
100
AcDbEntity
  8
210
  6
CONTINUOUS
 62
     4
100
AcDbText
 10
358.7599752711851
 20
85.6101467492019
 30
0.0
 40
5.0
  1
70
100
AcDbText
  0
LINE
  5
7150
330
1A
100
AcDbEntity
  8
210
  6
CONTINUOUS
 62
     4
100
AcDbLine
 10
395.4475142711851
 20
102.5045033994049
 30
0.0
 11
387.4495042711851
 21
102.5045033994049
 31
0.0
  0
LINE
  5
7151
330
1A
100
AcDbEntity
  8
210
  6
CONTINUOUS
 62
     4
100
AcDbLine
 10
395.4475142711851
 20
102.5045033994049
 30
0.0
 11
393.4754872711851
 21
102.8378373994049
 31
0.0
  0
LINE
  5
7152
330
1A
100
AcDbEntity
  8
210
  6
CONTINUOUS
 62
     4
100
AcDbLine
 10
395.4475142711851
 20
102.5045033994049
 30
0.0
 11
393.4754872711851
 21
102.1711703994048
 31
0.0
  0
LINE
  5
7153
330
1A
100
AcDbEntity
  8
210
  6
CONTINUOUS
 62
     4
100
AcDbLine
 10
491.447454271185
 20
62.50450339940491
 30
0.0
 11
489.475427271185
 21
62.17117039940487
 31
0.0
  0
LINE
  5
7154
330
1A
100
AcDbEntity
  8
210
  6
CONTINUOUS
 62
     4
100
AcDbLine
 10
491.447454271185
 20
62.50450339940491
 30
0.0
 11
489.475427271185
 21
62.83783639940494
 31
0.0
  0
TEXT
  5
7155
330
1A
100
AcDbEntity
  8
230
  6
CONTINUOUS
 62
     6
100
AcDbText
 10
411.7646797651214
 20
95.97829128774796
 30
0.0
 40
5.0
  1
適用ブスバー厚さ
100
AcDbText
  0
TEXT
  5
7156
330
1A
100
AcDbEntity
  8
230
  6
CONTINUOUS
 62
     6
100
AcDbText
 10
416.5063178413008
 20
76.27306028774794
 30
0.0
 40
5.0
  1
ブスバーピッチ
100
AcDbText
  0
LINE
  5
7157
330
1A
100
AcDbEntity
  8
210
  6
CONTINUOUS
 62
     4
100
AcDbLine
 10
400.4475112711849
 20
82.5045033994049
 30
0.0
 11
470.4475232711851
 21
82.5045033994049
 31
0.0
  0
TEXT
  5
7158
330
1A
100
AcDbEntity
  8
210
  6
CONTINUOUS
 62
     4
100
AcDbText
 10
428.7600102711851
 20
85.6101467492019
 30
0.0
 40
5.0
  1
70
100
AcDbText
  0
LINE
  5
7159
330
1A
100
AcDbEntity
  8
210
  6
CONTINUOUS
 62
     4
100
AcDbLine
 10
400.4475112711849
 20
82.5045033994049
 30
0.0
 11
402.419538271185
 21
82.17116939940487
 31
0.0
  0
LINE
  5
715A
330
1A
100
AcDbEntity
  8
210
  6
CONTINUOUS
 62
     4
100
AcDbLine
 10
400.4475112711849
 20
82.5045033994049
 30
0.0
 11
402.419538271185
 21
82.83783639940494
 31
0.0
  0
LINE
  5
715B
330
1A
100
AcDbEntity
  8
210
  6
CONTINUOUS
 62
     4
100
AcDbLine
 10
405.447509271185
 20
102.5045033994049
 30
0.0
 11
423.3504121330563
 21
102.5045033994049
 31
0.0
  0
LINE
  5
715C
330
1A
100
AcDbEntity
  8
210
  6
CONTINUOUS
 62
     4
100
AcDbLine
 10
405.447509271185
 20
102.5045033994049
 30
0.0
 11
407.4195352711852
 21
102.8378373994049
 31
0.0
  0
LINE
  5
715D
330
1A
100
AcDbEntity
  8
210
  6
CONTINUOUS
 62
     4
100
AcDbLine
 10
405.447509271185
 20
102.5045033994049
 30
0.0
 11
407.4195352711852
 21
102.1711703994048
 31
0.0
  0
TEXT
  5
715E
330
1A
100
AcDbEntity
  8
210
  6
CONTINUOUS
 62
     4
100
AcDbText
 10
409.4129131330562
 20
105.6101477492018
 30
0.0
 40
5.0
  1
10
100
AcDbText
  0
LINE
  5
715F
330
1A
100
AcDbEntity
  8
210
  6
CONTINUOUS
 62
     4
100
AcDbLine
 10
470.4475232711851
 20
82.5045033994049
 30
0.0
 11
468.475497271185
 21
82.17116939940487
 31
0.0
  0
LINE
  5
7160
330
1A
100
AcDbEntity
  8
210
  6
CONTINUOUS
 62
     4
100
AcDbLine
 10
470.4475232711851
 20
82.5045033994049
 30
0.0
 11
468.475497271185
 21
82.83783639940494
 31
0.0
  0
LINE
  5
7162
330
1A
100
AcDbEntity
  8
210
  6
CONTINUOUS
 62
     4
100
AcDbLine
 10
491.447454271185
 20
139.5044693994048
 30
0.0
 11
491.4474542711852
 21
59.50450339940502
 31
0.0
  0
LINE
  5
7163
330
1A
100
AcDbEntity
  8
210
  6
CONTINUOUS
 62
     4
100
AcDbLine
 10
309.4474772711851
 20
139.5044693994048
 30
0.0
 11
309.4474772711851
 21
59.5045033994048
 31
0.0
  0
ARC
  5
7167
330
1A
100
AcDbEntity
  8
150
  6
CONTINUOUS
 62
     7
100
AcDbCircle
 10
318.9475062711851
 20
496.9481684517648
 30
0.0
 40
1.0
100
AcDbArc
 50
149.9999999999994
 51
180.0000030000001
  0
ARC
  5
7168
330
1A
100
AcDbEntity
  8
150
  6
CONTINUOUS
 62
     7
100
AcDbCircle
 10
318.9475062711851
 20
393.9481374866714
 30
0.0
 40
1.0
100
AcDbArc
 50
180.0000050000001
 51
210.0000000000004
  0
LINE
  5
7169
330
1A
100
AcDbEntity
  8
150
  6
HIDDEN2
 62
     7
100
AcDbLine
 10
382.447506271185
 20
451.9481373994048
 30
0.0
 11
382.447506271185
 21
438.9481373994049
 31
0.0
  0
LINE
  5
77BB
330
1A
100
AcDbEntity
  8
150
  6
CONTINUOUS
 62
     7
100
AcDbLine
 10
318.081480917784
 20
393.4481373994049
 30
0.0
 11
337.4475062711851
 21
393.4481073994049
 31
0.0
  0
CIRCLE
  5
77BC
330
1A
100
AcDbEntity
  8
10
100
AcDbCircle
 10
293.4474752711851
 20
467.9481073994049
 30
0.0
 40
3.0
  0
CIRCLE
  5
77BD
330
1A
100
AcDbEntity
  8
10
100
AcDbCircle
 10
507.447536271185
 20
422.9481073994049
 30
0.0
 40
3.0
  0
LINE
  5
77BF
330
1A
100
AcDbEntity
  8
150
  6
CONTINUOUS
 62
     7
100
AcDbLine
 10
318.0814808674006
 20
497.4481684517648
 30
0.0
 11
337.4475062188252
 21
497.4481683994049
 31
0.0
  0
LINE
  5
77C0
330
1A
100
AcDbEntity
  8
0
  6
CONTINUOUS
 62
     2
100
AcDbLine
 10
484.447506271185
 20
496.9481683994049
 30
0.0
 11
482.9475062711851
 21
496.9481683994049
 31
0.0
  0
LINE
  5
77C1
330
1A
100
AcDbEntity
  8
0
  6
CONTINUOUS
 62
     2
100
AcDbLine
 10
484.447506271185
 20
393.9481373994049
 30
0.0
 11
482.9475062711851
 21
393.9481375564846
 31
0.0
  0
LINE
  5
77C3
330
1A
100
AcDbEntity
  8
0
  6
CONTINUOUS
 62
     2
100
AcDbLine
 10
306.947506271185
 20
195.0044733994049
 30
0.0
 11
287.4475062711851
 21
195.0044733994049
 31
0.0
  0
LINE
  5
77C4
330
1A
100
AcDbEntity
  8
0
  6
CONTINUOUS
 62
     2
100
AcDbLine
 10
425.4475062711851
 20
298.0044733994049
 30
0.0
 11
450.4475062711851
 21
298.0044733994049
 31
0.0
  0
LINE
  5
77C5
330
1A
100
AcDbEntity
  8
150
  6
CONTINUOUS
 62
     7
100
AcDbLine
 10
375.4475062711851
 20
298.0044733994049
 30
0.0
 11
425.4475062711851
 21
298.0044733994049
 31
0.0
  0
LINE
  5
77C6
330
1A
100
AcDbEntity
  8
0
  6
CONTINUOUS
 62
     2
100
AcDbLine
 10
482.9475062711851
 20
212.0044733994049
 30
0.0
 11
484.447506271185
 21
212.0044733994049
 31
0.0
  0
LINE
  5
77C7
330
1A
100
AcDbEntity
  8
0
  6
CONTINUOUS
 62
     2
100
AcDbLine
 10
484.447506271185
 20
195.0044733994049
 30
0.0
 11
513.4475061664653
 21
195.0044733994049
 31
0.0
  0
LWPOLYLINE
  5
77C8
330
1A
100
AcDbEntity
  8
10
  6
HIDDEN2
100
AcDbPolyline
 90
        4
 70
     1
 43
0.0
 10
504.4475062711851
 20
169.0044733994049
 10
510.447506271185
 20
169.0044733994049
 10
510.447506271185
 20
188.0044733994049
 10
504.4475062711851
 20
188.0044733994049
  0
LWPOLYLINE
  5
77C9
330
1A
100
AcDbEntity
  8
10
  6
HIDDEN2
100
AcDbPolyline
 90
        4
 70
     1
 43
0.0
 10
296.4475062711851
 20
169.0044733994049
 10
290.4475062711851
 20
169.0044733994049
 10
290.4475062711851
 20
188.0044733994049
 10
296.4475062711851
 20
188.0044733994049
  0
TEXT
  5
77D8
330
1A
100
AcDbEntity
  8
230
  6
CONTINUOUS
 62
     6
100
AcDbText
 10
559.8566686893902
 20
325.615769488232
 30
0.0
 40
5.0
  1
(TCF)
100
AcDbText
  0
LINE
  5
77D9
330
1A
100
AcDbEntity
  8
230
  6
CONTINUOUS
 62
     6
100
AcDbLine
 10
556.1354250411063
 20
322.8656525284308
 30
0.0
 11
597.7101765506031
 21
322.8656525284308
 31
0.0
  0
TEXT
  5
77DD
330
1A
100
AcDbEntity
  8
230
  6
CONTINUOUS
 62
     6
100
AcDbText
 10
541.757953289899
 20
350.501288861833
 30
0.0
 40
5.0
  1
六角穴付　M8
100
AcDbText
  0
TEXT
  5
77DE
330
1A
100
AcDbEntity
  8
230
  6
CONTINUOUS
 62
     6
100
AcDbText
 10
541.3060913283487
 20
357.7118748948862
 30
0.0
 40
5.0
  1
負荷側接続ねじ
100
AcDbText
  0
LINE
  5
77DF
330
1A
100
AcDbEntity
  8
230
  6
CONTINUOUS
 62
     6
100
AcDbLine
 10
536.885563271185
 20
348.5597973994049
 30
0.0
 11
585.3516201174234
 21
348.5597973994049
 31
0.0
  0
LINE
  5
77E2
330
1A
100
AcDbEntity
  8
210
  6
CONTINUOUS
 62
     4
100
AcDbLine
 10
287.447475271185
 20
195.0044733994049
 30
0.0
 11
246.0099832711851
 21
195.0044733994049
 31
0.0
  0
LINE
  5
77E3
330
1A
100
AcDbEntity
  8
210
  6
CONTINUOUS
 62
     4
100
AcDbLine
 10
268.447475271185
 20
174.0044733994049
 30
0.0
 11
246.009983271185
 21
174.0044733994049
 31
0.0
  0
MTEXT
  5
77E4
330
1A
100
AcDbEntity
  8
210
  6
CONTINUOUS
 62
     4
100
AcDbMText
 10
244.0099832711849
 20
184.5044733994049
 30
0.0
 40
5.0
 41
0.0
 71
     5
 72
     1
  1
\A1;21
 11
0.0000000000000001
 21
1.0
 31
0.0
1001
ACAD
1000
MTEXTBEGIN
1070
    73
1070
     1
1070
    44
1040
1.0
1070
    74
1070
     0
1000
MTEXTEND
1000
MTEXTBEGIN
1070
    73
1070
     1
1070
    44
1040
1.0
1070
    74
1070
     0
1000
MTEXTEND
1000
MTEXTBEGIN
1070
    73
1070
     1
1070
    44
1040
1.0
1070
    74
1070
     0
1000
MTEXTEND
  0
LINE
  5
77E5
330
1A
100
AcDbEntity
  8
210
  6
CONTINUOUS
 62
     4
100
AcDbLine
 10
248.509983271185
 20
176.2044733994048
 30
0.0
 11
248.509983271185
 21
192.804473399405
 31
0.0
  0
INSERT
  5
77E6
330
1A
100
AcDbEntity
  8
210
  6
CONTINUOUS
 62
     4
100
AcDbBlockReference
  2
_OPEN30
 10
248.509983271185
 20
174.0044733994049
 30
0.0
 41
2.200000000000045
 42
2.200000000000045
 43
2.2
 50
270.0
  0
INSERT
  5
77E7
330
1A
100
AcDbEntity
  8
210
  6
CONTINUOUS
 62
     4
100
AcDbBlockReference
  2
_OPEN30
 10
248.509983271185
 20
195.0044733994049
 30
0.0
 41
2.200000000000045
 42
2.200000000000045
 43
2.2
 50
90.0
  0
LINE
  5
77E8
330
1A
100
AcDbEntity
  8
230
  6
CONTINUOUS
 62
     6
100
AcDbLine
 10
277.2730292711851
 20
223.5681133994049
 30
0.0
 11
234.014454271185
 21
223.5681133994049
 31
0.0
  0
TEXT
  5
77E9
330
1A
100
AcDbEntity
  8
230
  6
CONTINUOUS
 62
     6
100
AcDbText
 10
233.968250271185
 20
233.8473033994048
 30
0.0
 40
5.0
  1
差込台取付けねじ
100
AcDbText
  0
TEXT
  5
77EA
330
1A
100
AcDbEntity
  8
230
  6
CONTINUOUS
 62
     6
100
AcDbText
 10
234.7394370437779
 20
226.2306493994049
 30
0.0
 40
5.0
  1
ナベM6
100
AcDbText
  0
TEXT
  5
77EB
330
1A
100
AcDbEntity
  8
230
  6
CONTINUOUS
 62
     6
100
AcDbText
 10
273.5717926369172
 20
286.0193593994049
 30
0.0
 40
5.0
  1
端子カバー
100
AcDbText
  0
LINE
  5
77EC
330
1A
100
AcDbEntity
  8
230
  6
CONTINUOUS
 62
     6
100
AcDbLine
 10
303.546955271185
 20
277.4229413994049
 30
0.0
 11
272.3008919525294
 21
277.4229413994049
 31
0.0
  0
TEXT
  5
77ED
330
1A
100
AcDbEntity
  8
230
  6
CONTINUOUS
 62
     6
100
AcDbText
 10
273.545399271185
 20
278.9089343994049
 30
0.0
 40
5.0
  1
標準装備
100
AcDbText
  0
TEXT
  5
77F0
330
1A
100
AcDbEntity
  8
230
  6
CONTINUOUS
 62
     6
100
AcDbText
 10
559.8566686893902
 20
333.5341672372911
 30
0.0
 40
5.0
  1
端子カバー
100
AcDbText
  0
TEXT
  5
77F1
330
1A
100
AcDbEntity
  8
230
  6
CONTINUOUS
 62
     6
100
AcDbText
 10
559.8566686893902
 20
316.1846700099925
 30
0.0
 40
5.0
  1
ワンタッチ式
100
AcDbText
  0
LWPOLYLINE
  5
77FF
330
1A
100
AcDbEntity
  8
230
 62
     6
100
AcDbPolyline
 90
        4
 70
     1
 43
0.0
 10
783.0982973294808
 20
66.84085910469855
 10
872.5813019826968
 20
66.84085910469855
 10
872.5813019826968
 20
84.12217733552893
 10
783.0982973294808
 20
84.12217733552893
  0
TEXT
  5
7800
330
1A
100
AcDbEntity
  8
230
 62
     6
100
AcDbText
 10
796.3359611627452
 20
70.68997910469841
 30
0.0
 40
10.0
  1
XDI3SZ
100
AcDbText
  0
ENDSEC
  0
SECTION
  2
OBJECTS
  0
DICTIONARY
  5
C
330
0
100
AcDbDictionary
  3
ACAD_GROUP
350
D
  3
ACAD_LAYOUT
350
1B83
  3
ACAD_MLINESTYLE
350
E
  3
ACAD_PLOTSETTINGS
350
1B84
  3
ACAD_PLOTSTYLENAME
350
1B81
  3
ACDBHEADERROUNDTRIPXREC
350
78AB
  3
ACDBVARIABLEDICTIONARY
350
E7A
  0
DICTIONARY
  5
1BF7
330
1A
100
AcDbDictionary
280
     1
  3
ACAD_LAYOUTSELFREF
360
78CD
  0
DICTIONARY
  5
1BF5
330
17
100
AcDbDictionary
280
     1
  3
ACAD_LAYOUTSELFREF
360
78CC
  0
DICTIONARY
  5
D
102
{ACAD_REACTORS
330
C
102
}
330
C
100
AcDbDictionary
  0
DICTIONARY
  5
1B83
102
{ACAD_REACTORS
330
C
102
}
330
C
100
AcDbDictionary
  0
DICTIONARY
  5
E
102
{ACAD_REACTORS
330
C
102
}
330
C
100
AcDbDictionary
  3
STANDARD
350
13
  0
DICTIONARY
  5
1B84
102
{ACAD_REACTORS
330
C
102
}
330
C
100
AcDbDictionary
  0
ACDBDICTIONARYWDFLT
  5
1B81
102
{ACAD_REACTORS
330
C
102
}
330
C
100
AcDbDictionary
281
     1
  3
Normal
350
1B82
100
AcDbDictionaryWithDefault
340
1B82
  0
DICTIONARY
  5
78AB
102
{ACAD_REACTORS
330
C
102
}
330
C
100
AcDbDictionary
  3
CEPSNTYPE
350
78B5
  3
DIMSTYLEDATA
350
78B9
  3
FINGERPRINTGUID
350
78B6
  3
HYPERLINKBASE
350
78AE
  3
INSUNITS
350
78B4
  3
LAYOUTDICT
350
78B0
  3
LWETCUNION
350
78B3
  3
PLOTSETDICT
350
78B1
  3
PLOTSTYLNAMDICT
350
78B2
  3
PSVPSCALE
350
78B8
  3
PUCSBASE
350
78BC
  3
PUCSORGBACK
350
78C2
  3
PUCSORGBOTTOM
350
78BE
  3
PUCSORGFRONT
350
78C1
  3
PUCSORGLEFT
350
78BF
  3
PUCSORGRIGHT
350
78C0
  3
PUCSORGTOP
350
78BD
  3
PUCSORTHOREF
350
78BA
  3
PUCSORTHOVIEW
350
78BB
  3
STYLESHEET
350
78AF
  3
TSTACKALIGN
350
78AC
  3
TSTACKSIZE
350
78AD
  3
UCSBASE
350
78C5
  3
UCSORGBACK
350
78CB
  3
UCSORGBOTTOM
350
78C7
  3
UCSORGFRONT
350
78CA
  3
UCSORGLEFT
350
78C8
  3
UCSORGRIGHT
350
78C9
  3
UCSORGTOP
350
78C6
  3
UCSORTHOREF
350
78C3
  3
UCSORTHOVIEW
350
78C4
  3
VERSIONGUID
350
78B7
  0
DICTIONARY
  5
E7A
102
{ACAD_REACTORS
330
C
102
}
330
C
100
AcDbDictionary
  3
SORTENTS
350
E7B
  0
XRECORD
  5
78CD
102
{ACAD_REACTORS
330
1BF7
102
}
330
1BF7
100
AcDbXrecord
340
1A
  0
XRECORD
  5
78CC
102
{ACAD_REACTORS
330
1BF5
102
}
330
1BF5
100
AcDbXrecord
340
17
  0
MLINESTYLE
  5
13
102
{ACAD_REACTORS
330
E
102
}
330
E
100
AcDbMlineStyle
  2
STANDARD
 70
     0
  3

 62
     0
 51
90.0
 52
90.0
 71
     2
 49
0.5
 62
   256
  6
BYLAYER
 49
-0.5
 62
   256
  6
BYLAYER
  0
ACDBPLACEHOLDER
  5
1B82
102
{ACAD_REACTORS
330
1B81
102
}
330
1B81
100
AcDbPlaceHolder
280
     0
  0
XRECORD
  5
78B5
102
{ACAD_REACTORS
330
78AB
102
}
330
78AB
100
AcDbXrecord
 90
        0
  0
XRECORD
  5
78B9
102
{ACAD_REACTORS
330
78AB
102
}
330
78AB
100
AcDbXrecord
1000
DSTYLE
1002
{
1070
   341
340
3A8D
1070
   342
340
3A8D
1002
}
  0
XRECORD
  5
78B6
102
{ACAD_REACTORS
330
78AB
102
}
330
78AB
100
AcDbXrecord
  1
{D592FCE0-8350-11D5-ACAE-009099148E29}
  0
XRECORD
  5
78AE
102
{ACAD_REACTORS
330
78AB
102
}
330
78AB
100
AcDbXrecord
  1

  0
XRECORD
  5
78B4
102
{ACAD_REACTORS
330
78AB
102
}
330
78AB
100
AcDbXrecord
 90
        0
  0
XRECORD
  5
78B0
102
{ACAD_REACTORS
330
78AB
102
}
330
78AB
100
AcDbXrecord
340
1B83
  0
XRECORD
  5
78B3
102
{ACAD_REACTORS
330
78AB
102
}
330
78AB
100
AcDbXrecord
 90
    10781
  0
XRECORD
  5
78B1
102
{ACAD_REACTORS
330
78AB
102
}
330
78AB
100
AcDbXrecord
340
1B84
  0
XRECORD
  5
78B2
102
{ACAD_REACTORS
330
78AB
102
}
330
78AB
100
AcDbXrecord
340
1B81
  0
XRECORD
  5
78B8
102
{ACAD_REACTORS
330
78AB
102
}
330
78AB
100
AcDbXrecord
 40
0.0
  0
XRECORD
  5
78BC
102
{ACAD_REACTORS
330
78AB
102
}
330
78AB
100
AcDbXrecord
340
0
  0
XRECORD
  5
78C2
102
{ACAD_REACTORS
330
78AB
102
}
330
78AB
100
AcDbXrecord
 10
0.0
 20
0.0
 30
0.0
  0
XRECORD
  5
78BE
102
{ACAD_REACTORS
330
78AB
102
}
330
78AB
100
AcDbXrecord
 10
0.0
 20
0.0
 30
0.0
  0
XRECORD
  5
78C1
102
{ACAD_REACTORS
330
78AB
102
}
330
78AB
100
AcDbXrecord
 10
0.0
 20
0.0
 30
0.0
  0
XRECORD
  5
78BF
102
{ACAD_REACTORS
330
78AB
102
}
330
78AB
100
AcDbXrecord
 10
0.0
 20
0.0
 30
0.0
  0
XRECORD
  5
78C0
102
{ACAD_REACTORS
330
78AB
102
}
330
78AB
100
AcDbXrecord
 10
0.0
 20
0.0
 30
0.0
  0
XRECORD
  5
78BD
102
{ACAD_REACTORS
330
78AB
102
}
330
78AB
100
AcDbXrecord
 10
0.0
 20
0.0
 30
0.0
  0
XRECORD
  5
78BA
102
{ACAD_REACTORS
330
78AB
102
}
330
78AB
100
AcDbXrecord
340
0
  0
XRECORD
  5
78BB
102
{ACAD_REACTORS
330
78AB
102
}
330
78AB
100
AcDbXrecord
 70
     0
  0
XRECORD
  5
78AF
102
{ACAD_REACTORS
330
78AB
102
}
330
78AB
100
AcDbXrecord
  1
機械図面設定（みずいろ細線）.ctb
  0
XRECORD
  5
78AC
102
{ACAD_REACTORS
330
78AB
102
}
330
78AB
100
AcDbXrecord
 90
        1
  0
XRECORD
  5
78AD
102
{ACAD_REACTORS
330
78AB
102
}
330
78AB
100
AcDbXrecord
 90
       70
  0
XRECORD
  5
78C5
102
{ACAD_REACTORS
330
78AB
102
}
330
78AB
100
AcDbXrecord
340
0
  0
XRECORD
  5
78CB
102
{ACAD_REACTORS
330
78AB
102
}
330
78AB
100
AcDbXrecord
 10
0.0
 20
0.0
 30
0.0
  0
XRECORD
  5
78C7
102
{ACAD_REACTORS
330
78AB
102
}
330
78AB
100
AcDbXrecord
 10
0.0
 20
0.0
 30
0.0
  0
XRECORD
  5
78CA
102
{ACAD_REACTORS
330
78AB
102
}
330
78AB
100
AcDbXrecord
 10
0.0
 20
0.0
 30
0.0
  0
XRECORD
  5
78C8
102
{ACAD_REACTORS
330
78AB
102
}
330
78AB
100
AcDbXrecord
 10
0.0
 20
0.0
 30
0.0
  0
XRECORD
  5
78C9
102
{ACAD_REACTORS
330
78AB
102
}
330
78AB
100
AcDbXrecord
 10
0.0
 20
0.0
 30
0.0
  0
XRECORD
  5
78C6
102
{ACAD_REACTORS
330
78AB
102
}
330
78AB
100
AcDbXrecord
 10
0.0
 20
0.0
 30
0.0
  0
XRECORD
  5
78C3
102
{ACAD_REACTORS
330
78AB
102
}
330
78AB
100
AcDbXrecord
340
0
  0
XRECORD
  5
78C4
102
{ACAD_REACTORS
330
78AB
102
}
330
78AB
100
AcDbXrecord
 70
     0
  0
XRECORD
  5
78B7
102
{ACAD_REACTORS
330
78AB
102
}
330
78AB
100
AcDbXrecord
  1
{8C8829E6-97E0-11D5-A38A-00B0D0356B67}
  0
DICTIONARYVAR
  5
E7B
102
{ACAD_REACTORS
330
E7A
102
}
330
E7A
100
DictionaryVariables
280
     0
  1
96
  0
ENDSEC
  0
EOF
