  0
SECTION
  2
HEADER
  9
$ACADVER
  1
AC1014
  9
$ACADMAINTVER
 70
     9
  9
$DWGCODEPAGE
  3
ANSI_932
  9
$INSBASE
 10
0.0
 20
0.0
 30
0.0
  9
$EXTMIN
 10
201.8376001696691
 20
81.02224709842323
 30
0.0
  9
$EXTMAX
 10
1006.460990808772
 20
598.3210020984232
 30
0.0
  9
$LIMMIN
 10
0.0
 20
0.0
  9
$LIMMAX
 10
554.0
 20
395.0
  9
$ORTHOMODE
 70
     1
  9
$REGENMODE
 70
     1
  9
$FILLMODE
 70
     1
  9
$QTEXTMODE
 70
     0
  9
$MIRRTEXT
 70
     0
  9
$DRAGMODE
 70
     2
  9
$LTSCALE
 40
12.0
  9
$OSMODE
 70
    37
  9
$ATTMODE
 70
     1
  9
$TEXTSIZE
 40
3.0
  9
$TRACEWID
 40
0.05
  9
$TEXTSTYLE
  7
KANJI
  9
$CLAYER
  8
150
  9
$CELTYPE
  6
BYLAYER
  9
$CECOLOR
 62
   256
  9
$CELTSCALE
 40
1.0
  9
$DELOBJ
 70
     1
  9
$DISPSILH
 70
     0
  9
$DIMSCALE
 40
1.0
  9
$DIMASZ
 40
2.2
  9
$DIMEXO
 40
0.0625
  9
$DIMDLI
 40
0.38
  9
$DIMRND
 40
0.05
  9
$DIMDLE
 40
0.0
  9
$DIMEXE
 40
2.5
  9
$DIMTP
 40
0.0
  9
$DIMTM
 40
0.0
  9
$DIMTXT
 40
5.0
  9
$DIMCEN
 40
0.09
  9
$DIMTSZ
 40
0.0
  9
$DIMTOL
 70
     0
  9
$DIMLIM
 70
     0
  9
$DIMTIH
 70
     0
  9
$DIMTOH
 70
     0
  9
$DIMSE1
 70
     0
  9
$DIMSE2
 70
     0
  9
$DIMTAD
 70
     1
  9
$DIMZIN
 70
     0
  9
$DIMBLK
  1
OPEN30
  9
$DIMASO
 70
     1
  9
$DIMSHO
 70
     1
  9
$DIMPOST
  1

  9
$DIMAPOST
  1

  9
$DIMALT
 70
     0
  9
$DIMALTD
 70
     2
  9
$DIMALTF
 40
25.4
  9
$DIMLFAC
 40
1.0
  9
$DIMTOFL
 70
     0
  9
$DIMTVP
 40
0.0
  9
$DIMTIX
 70
     0
  9
$DIMSOXD
 70
     0
  9
$DIMSAH
 70
     0
  9
$DIMBLK1
  1

  9
$DIMBLK2
  1

  9
$DIMSTYLE
  2
STANDARD
  9
$DIMCLRD
 70
     4
  9
$DIMCLRE
 70
     4
  9
$DIMCLRT
 70
     4
  9
$DIMTFAC
 40
1.0
  9
$DIMGAP
 40
2.0
  9
$DIMJUST
 70
     0
  9
$DIMSD1
 70
     0
  9
$DIMSD2
 70
     0
  9
$DIMTOLJ
 70
     1
  9
$DIMTZIN
 70
     0
  9
$DIMALTZ
 70
     0
  9
$DIMALTTZ
 70
     0
  9
$DIMFIT
 70
     3
  9
$DIMUPT
 70
     0
  9
$DIMUNIT
 70
     2
  9
$DIMDEC
 70
     0
  9
$DIMTDEC
 70
     0
  9
$DIMALTU
 70
     2
  9
$DIMALTTD
 70
     2
  9
$DIMTXSTY
  7
STANDARD
  9
$DIMAUNIT
 70
     0
  9
$LUNITS
 70
     2
  9
$LUPREC
 70
     4
  9
$SKETCHINC
 40
0.1
  9
$FILLETRAD
 40
0.0
  9
$AUNITS
 70
     0
  9
$AUPREC
 70
     0
  9
$MENU
  1
C:\Tcad\TCAD\tcad-s
  9
$ELEVATION
 40
0.0
  9
$PELEVATION
 40
0.0
  9
$THICKNESS
 40
0.0
  9
$LIMCHECK
 70
     0
  9
$BLIPMODE
 70
     0
  9
$CHAMFERA
 40
0.0
  9
$CHAMFERB
 40
0.0
  9
$CHAMFERC
 40
0.0
  9
$CHAMFERD
 40
0.0
  9
$SKPOLY
 70
     0
  9
$TDCREATE
 40
2450752.336623958
  9
$TDUPDATE
 40
2452145.675584143
  9
$TDINDWG
 40
0.4781290509
  9
$TDUSRTIMER
 40
0.4781290509
  9
$USRTIMER
 70
     1
  9
$ANGBASE
 50
0.0
  9
$ANGDIR
 70
     0
  9
$PDMODE
 70
    35
  9
$PDSIZE
 40
23.99999999999998
  9
$PLINEWID
 40
0.0
  9
$COORDS
 70
     1
  9
$SPLFRAME
 70
     0
  9
$SPLINETYPE
 70
     6
  9
$SPLINESEGS
 70
     8
  9
$ATTDIA
 70
     0
  9
$ATTREQ
 70
     1
  9
$HANDLING
 70
-16383
  9
$HANDSEED
  5
7179
  9
$SURFTAB1
 70
     6
  9
$SURFTAB2
 70
     6
  9
$SURFTYPE
 70
     6
  9
$SURFU
 70
     6
  9
$SURFV
 70
     6
  9
$UCSNAME
  2

  9
$UCSORG
 10
0.0
 20
0.0
 30
0.0
  9
$UCSXDIR
 10
1.0
 20
0.0
 30
0.0
  9
$UCSYDIR
 10
0.0
 20
1.0
 30
0.0
  9
$PUCSNAME
  2

  9
$PUCSORG
 10
0.0
 20
0.0
 30
0.0
  9
$PUCSXDIR
 10
1.0
 20
0.0
 30
0.0
  9
$PUCSYDIR
 10
0.0
 20
1.0
 30
0.0
  9
$USERI1
 70
     0
  9
$USERI2
 70
     0
  9
$USERI3
 70
     0
  9
$USERI4
 70
     0
  9
$USERI5
 70
     0
  9
$USERR1
 40
0.0
  9
$USERR2
 40
0.0
  9
$USERR3
 40
0.0
  9
$USERR4
 40
0.0
  9
$USERR5
 40
0.0
  9
$WORLDVIEW
 70
     1
  9
$SHADEDGE
 70
     3
  9
$SHADEDIF
 70
    70
  9
$TILEMODE
 70
     1
  9
$MAXACTVP
 70
    16
  9
$PINSBASE
 10
0.0
 20
0.0
 30
0.0
  9
$PLIMCHECK
 70
     0
  9
$PEXTMIN
 10
1.000000000000000E+20
 20
1.000000000000000E+20
 30
1.000000000000000E+20
  9
$PEXTMAX
 10
-1.000000000000000E+20
 20
-1.000000000000000E+20
 30
-1.000000000000000E+20
  9
$PLIMMIN
 10
0.0
 20
0.0
  9
$PLIMMAX
 10
12.0
 20
9.0
  9
$UNITMODE
 70
     0
  9
$VISRETAIN
 70
     0
  9
$PLINEGEN
 70
     0
  9
$PSLTSCALE
 70
     1
  9
$TREEDEPTH
 70
  3020
  9
$PICKSTYLE
 70
     1
  9
$CMLSTYLE
  2
STANDARD
  9
$CMLJUST
 70
     0
  9
$CMLSCALE
 40
1.0
  9
$PROXYGRAPHICS
 70
     1
  9
$MEASUREMENT
 70
     0
  0
ENDSEC
  0
SECTION
  2
CLASSES
  0
CLASS
  1
LWPOLYLINE
  2
AcDbPolyline
  3
AutoCAD 2000
 90
        0
280
     0
281
     1
  0
CLASS
  1
DICTIONARYVAR
  2
AcDbDictionaryVar
  3
AutoCAD 2000
 90
        0
280
     0
281
     0
  0
CLASS
  1
HATCH
  2
AcDbHatch
  3
AutoCAD 2000
 90
        0
280
     0
281
     1
  0
CLASS
  1
ACDBDICTIONARYWDFLT
  2
AcDbDictionaryWithDefault
  3
AutoCAD 2000
 90
        0
280
     0
281
     0
  0
CLASS
  1
ACDBPLACEHOLDER
  2
AcDbPlaceHolder
  3
AutoCAD 2000
 90
        0
280
     0
281
     0
  0
CLASS
  1
LAYOUT
  2
AcDbLayout
  3
AutoCAD 2000
 90
        0
280
     0
281
     0
  0
CLASS
  1
LONG_TRANSACTION
  2
AcDbLongTransaction
  3
AutoCAD 2000
 90
        0
280
     0
281
     0
  0
CLASS
  1
LWPOLYLINE
  2
AcDbPolyline
  3
AutoCAD 2000
 90
        0
280
     0
281
     1
  0
CLASS
  1
HATCH
  2
AcDbHatch
  3
AutoCAD 2000
 90
        0
280
     0
281
     1
  0
CLASS
  1
XRECORD
  2
AcDbXrecord
  3
AutoCAD 2000
 90
        0
280
     0
281
     0
  0
CLASS
  1
LONG_TRANSACTION
  2
AcDbLongTransaction
  3
AutoCAD 2000
 90
        0
280
     0
281
     0
  0
CLASS
  1
LWPOLYLINE
  2
AcDbPolyline
  3
AutoCAD 2000
 90
        0
280
     0
281
     1
  0
CLASS
  1
HATCH
  2
AcDbHatch
  3
AutoCAD 2000
 90
        0
280
     0
281
     1
  0
CLASS
  1
XRECORD
  2
AcDbXrecord
  3
AutoCAD 2000
 90
        0
280
     0
281
     0
  0
CLASS
  1
LONG_TRANSACTION
  2
AcDbLongTransaction
  3
AutoCAD 2000
 90
        0
280
     0
281
     0
  0
CLASS
  1
LWPOLYLINE
  2
AcDbPolyline
  3
AutoCAD 2000
 90
        0
280
     0
281
     1
  0
CLASS
  1
HATCH
  2
AcDbHatch
  3
AutoCAD 2000
 90
        0
280
     0
281
     1
  0
CLASS
  1
XRECORD
  2
AcDbXrecord
  3
AutoCAD 2000
 90
        0
280
     0
281
     0
  0
CLASS
  1
LONG_TRANSACTION
  2
AcDbLongTransaction
  3
AutoCAD 2000
 90
        0
280
     0
281
     0
  0
CLASS
  1
LWPOLYLINE
  2
AcDbPolyline
  3
AutoCAD 2000
 90
        0
280
     0
281
     1
  0
CLASS
  1
HATCH
  2
AcDbHatch
  3
AutoCAD 2000
 90
        0
280
     0
281
     1
  0
CLASS
  1
XRECORD
  2
AcDbXrecord
  3
AutoCAD 2000
 90
        0
280
     0
281
     0
  0
CLASS
  1
LONG_TRANSACTION
  2
AcDbLongTransaction
  3
AutoCAD 2000
 90
        0
280
     0
281
     0
  0
CLASS
  1
LWPOLYLINE
  2
AcDbPolyline
  3
AutoCAD 2000
 90
        0
280
     0
281
     1
  0
CLASS
  1
HATCH
  2
AcDbHatch
  3
AutoCAD 2000
 90
        0
280
     0
281
     1
  0
CLASS
  1
XRECORD
  2
AcDbXrecord
  3
AutoCAD 2000
 90
        0
280
     0
281
     0
  0
ENDSEC
  0
SECTION
  2
TABLES
  0
TABLE
  2
VPORT
  5
8
330
0
100
AcDbSymbolTable
 70
     2
  0
VPORT
  5
7155
330
8
100
AcDbSymbolTableRecord
100
AcDbViewportTableRecord
  2
*ACTIVE
 70
     0
 10
0.0
 20
0.0
 11
1.0
 21
1.0
 12
807.2146486802218
 22
231.842474974402
 13
0.0
 23
0.0
 14
1.0
 24
1.0
 15
0.0
 25
0.0
 16
0.0
 26
0.0
 36
1.0
 17
0.0
 27
0.0
 37
0.0
 40
171.4925331049516
 41
1.862823061630218
 42
50.0
 43
0.0
 44
0.0
 50
0.0
 51
0.0
 71
     0
 72
  1000
 73
     1
 74
     1
 75
     0
 76
     0
 77
     0
 78
     0
  0
ENDTAB
  0
TABLE
  2
LTYPE
  5
5
330
0
100
AcDbSymbolTable
 70
     5
  0
LTYPE
  5
14
330
5
100
AcDbSymbolTableRecord
100
AcDbLinetypeTableRecord
  2
BYBLOCK
 70
     0
  3

 72
    65
 73
     0
 40
0.0
  0
LTYPE
  5
15
330
5
100
AcDbSymbolTableRecord
100
AcDbLinetypeTableRecord
  2
BYLAYER
 70
     0
  3

 72
    65
 73
     0
 40
0.0
  0
LTYPE
  5
16
330
5
100
AcDbSymbolTableRecord
100
AcDbLinetypeTableRecord
  2
CONTINUOUS
 70
     0
  3
Solid line
 72
    65
 73
     0
 40
0.0
  0
LTYPE
  5
37
330
5
100
AcDbSymbolTableRecord
100
AcDbLinetypeTableRecord
  2
CENTER
 70
     0
  3
____ _ ____ _ ____ _ ____ _ ____ _ ____ _ ____ 
 72
    65
 73
     4
 40
2.0
 49
1.25
 74
     0
 49
-0.25
 74
     0
 49
0.25
 74
     0
 49
-0.25
 74
     0
  0
LTYPE
  5
1FC
330
5
100
AcDbSymbolTableRecord
100
AcDbLinetypeTableRecord
  2
HIDDEN2
 70
     0
  3
_ _ _ _ _ _ _ _ _ _ _ _ _ _ _ _ _ _ _ _ _ _ _ _
 72
    65
 73
     2
 40
0.1875
 49
0.125
 74
     0
 49
-0.0625
 74
     0
  0
LTYPE
  5
1FE
330
5
100
AcDbSymbolTableRecord
100
AcDbLinetypeTableRecord
  2
PHANTOM2
 70
     0
  3
___ _ _ ___ _ _ ___ _ _ ___ _ _ ___ _ _ ___ _ _
 72
    65
 73
     6
 40
1.25
 49
0.625
 74
     0
 49
-0.125
 74
     0
 49
0.125
 74
     0
 49
-0.125
 74
     0
 49
0.125
 74
     0
 49
-0.125
 74
     0
  0
LTYPE
  5
3E5
330
5
100
AcDbSymbolTableRecord
100
AcDbLinetypeTableRecord
  2
DASHED
 70
     0
  3
Dashed line
 72
    65
 73
     2
 40
0.75
 49
0.5
 74
     0
 49
-0.25
 74
     0
  0
ENDTAB
  0
TABLE
  2
LAYER
  5
2
330
0
100
AcDbSymbolTable
 70
     9
  0
LAYER
  5
F
330
2
100
AcDbSymbolTableRecord
100
AcDbLayerTableRecord
  2
0
 70
     0
 62
     2
  6
CONTINUOUS
  0
LAYER
  5
40
330
2
100
AcDbSymbolTableRecord
100
AcDbLayerTableRecord
  2
パターン
 70
     0
 62
     8
  6
CONTINUOUS
  0
LAYER
  5
3E7
330
2
100
AcDbSymbolTableRecord
100
AcDbLayerTableRecord
  2
210
 70
     0
 62
     4
  6
CONTINUOUS
  0
LAYER
  5
3E8
330
2
100
AcDbSymbolTableRecord
100
AcDbLayerTableRecord
  2
170
 70
     0
 62
     1
  6
CONTINUOUS
  0
LAYER
  5
3EA
330
2
100
AcDbSymbolTableRecord
100
AcDbLayerTableRecord
  2
150
 70
     0
 62
     7
  6
CONTINUOUS
  0
LAYER
  5
3EC
330
2
100
AcDbSymbolTableRecord
100
AcDbLayerTableRecord
  2
225
 70
     0
 62
     3
  6
CONTINUOUS
  0
LAYER
  5
3ED
330
2
100
AcDbSymbolTableRecord
100
AcDbLayerTableRecord
  2
230
 70
     0
 62
     6
  6
CONTINUOUS
  0
LAYER
  5
3EF
330
2
100
AcDbSymbolTableRecord
100
AcDbLayerTableRecord
  2
10
 70
     0
 62
     7
  6
CONTINUOUS
  0
LAYER
  5
3F0
330
2
100
AcDbSymbolTableRecord
100
AcDbLayerTableRecord
  2
DEFPOINTS
 70
     0
 62
     7
  6
CONTINUOUS
  0
ENDTAB
  0
TABLE
  2
STYLE
  5
3
330
0
100
AcDbSymbolTable
 70
     2
  0
STYLE
  5
10
330
3
100
AcDbSymbolTableRecord
100
AcDbTextStyleTableRecord
  2
STANDARD
 70
     0
 40
0.0
 41
1.0
 50
0.0
 71
     0
 42
30.0
  3
ROMANS
  4
BIGFONT
  0
STYLE
  5
108
330
3
100
AcDbSymbolTableRecord
100
AcDbTextStyleTableRecord
  2
KANJI
 70
     0
 40
0.0
 41
0.8
 50
0.0
 71
     0
 42
3.0
  3
romans
  4
bigfont
  0
ENDTAB
  0
TABLE
  2
VIEW
  5
6
330
0
100
AcDbSymbolTable
 70
     0
  0
ENDTAB
  0
TABLE
  2
UCS
  5
7
330
0
100
AcDbSymbolTable
 70
     0
  0
ENDTAB
  0
TABLE
  2
APPID
  5
9
330
0
100
AcDbSymbolTable
 70
     1
  0
APPID
  5
11
330
9
100
AcDbSymbolTableRecord
100
AcDbRegAppTableRecord
  2
ACAD
 70
     0
  0
ENDTAB
  0
TABLE
  2
DIMSTYLE
  5
A
330
0
100
AcDbSymbolTable
 70
     1
  0
DIMSTYLE
105
1D
330
A
100
AcDbSymbolTableRecord
100
AcDbDimStyleTableRecord
  2
STANDARD
 70
     0
  3

  4

  5
OPEN30
  6

  7

 40
1.0
 41
2.2
 42
0.0625
 43
0.38
 44
2.5
 45
0.05
 46
0.0
 47
0.0
 48
0.0
140
5.0
141
0.09
142
0.0
143
25.4
144
1.0
145
0.0
146
1.0
147
2.0
 71
     0
 72
     0
 73
     0
 74
     0
 75
     0
 76
     0
 77
     1
 78
     0
170
     0
171
     2
172
     0
173
     0
174
     0
175
     0
176
     4
177
     4
178
     4
270
     2
271
     0
272
     0
273
     2
274
     2
340
10
275
     0
280
     0
281
     0
282
     0
283
     1
284
     0
285
     0
286
     0
287
     3
288
     0
  0
ENDTAB
  0
TABLE
  2
BLOCK_RECORD
  5
1
330
0
100
AcDbSymbolTable
 70
     2
  0
BLOCK_RECORD
  5
1A
102
{ACAD_XDICTIONARY
360
1BF7
102
}
330
1
100
AcDbSymbolTableRecord
100
AcDbBlockTableRecord
  2
*MODEL_SPACE
  0
BLOCK_RECORD
  5
17
102
{ACAD_XDICTIONARY
360
1BF5
102
}
330
1
100
AcDbSymbolTableRecord
100
AcDbBlockTableRecord
  2
*PAPER_SPACE
  0
BLOCK_RECORD
  5
32
330
1
100
AcDbSymbolTableRecord
100
AcDbBlockTableRecord
  2
TCAD
  0
BLOCK_RECORD
  5
3A8D
330
1
100
AcDbSymbolTableRecord
100
AcDbBlockTableRecord
  2
_OPEN30
  0
ENDTAB
  0
ENDSEC
  0
SECTION
  2
BLOCKS
  0
BLOCK
  5
1B
330
1A
100
AcDbEntity
  8
0
100
AcDbBlockBegin
  2
*MODEL_SPACE
 70
     0
 10
0.0
 20
0.0
 30
0.0
  3
*MODEL_SPACE
  1

  0
ENDBLK
  5
1C
330
1A
100
AcDbEntity
  8
0
100
AcDbBlockEnd
  0
BLOCK
  5
18
330
17
100
AcDbEntity
 67
     1
  8
0
100
AcDbBlockBegin
  2
*PAPER_SPACE
 70
     0
 10
0.0
 20
0.0
 30
0.0
  3
*PAPER_SPACE
  1

  0
ENDBLK
  5
19
330
17
100
AcDbEntity
 67
     1
  8
0
100
AcDbBlockEnd
  0
BLOCK
  5
33
330
32
100
AcDbEntity
  8
0
100
AcDbBlockBegin
  2
TCAD
 70
     0
 10
0.0
 20
0.0
 30
0.0
  3
TCAD
  1

  0
ENDBLK
  5
34
330
32
100
AcDbEntity
  8
0
100
AcDbBlockEnd
  0
BLOCK
  5
3A91
330
3A8D
100
AcDbEntity
  8
0
 62
     2
100
AcDbBlockBegin
  2
_OPEN30
 70
     0
 10
0.0
 20
0.0
 30
0.0
  3
_OPEN30
  1

  0
LINE
  5
3A8E
330
3A8D
100
AcDbEntity
  8
0
  6
BYBLOCK
 62
     0
100
AcDbLine
 10
-1.0
 20
0.26794919
 30
0.0
 11
0.0
 21
0.0
 31
0.0
  0
LINE
  5
3A8F
330
3A8D
100
AcDbEntity
  8
0
  6
BYBLOCK
 62
     0
100
AcDbLine
 10
0.0
 20
0.0
 30
0.0
 11
-1.0
 21
-0.26794919
 31
0.0
  0
LINE
  5
3A90
330
3A8D
100
AcDbEntity
  8
0
  6
BYBLOCK
 62
     0
100
AcDbLine
 10
0.0
 20
0.0
 30
0.0
 11
-1.0
 21
0.0
 31
0.0
  0
ENDBLK
  5
3A92
330
3A8D
100
AcDbEntity
  8
0
 62
     2
100
AcDbBlockEnd
  0
ENDSEC
  0
SECTION
  2
ENTITIES
  0
INSERT
  5
109
330
1A
100
AcDbEntity
  8
パターン
100
AcDbBlockReference
  2
TCAD
 10
0.0
 20
0.0
 30
0.0
  0
INSERT
  5
10A
330
1A
100
AcDbEntity
  8
パターン
100
AcDbBlockReference
  2
TCAD
 10
0.0
 20
0.0
 30
0.0
  0
LINE
  5
662D
330
1A
100
AcDbEntity
  8
210
  6
CONTINUOUS
 62
     4
100
AcDbLine
 10
445.5988668995389
 20
526.5384210984231
 30
0.0
 11
543.1173908995389
 21
526.5384210984231
 31
0.0
  0
LINE
  5
662E
330
1A
100
AcDbEntity
  8
210
  6
CONTINUOUS
 62
     4
100
AcDbLine
 10
445.5988668995389
 20
421.5383910984232
 30
0.0
 11
543.1173908995389
 21
421.5383910984232
 31
0.0
  0
LINE
  5
662F
330
1A
100
AcDbEntity
  8
210
  6
CONTINUOUS
 62
     4
100
AcDbLine
 10
486.2860608995388
 20
474.0383910984232
 30
0.0
 11
523.1613968995389
 21
474.0383910984232
 31
0.0
  0
LINE
  5
6630
330
1A
100
AcDbEntity
  8
210
  6
CONTINUOUS
 62
     4
100
AcDbLine
 10
448.7860608995388
 20
439.0383910984232
 30
0.0
 11
523.1613968995389
 21
439.0383910984232
 31
0.0
  0
LINE
  5
6631
330
1A
100
AcDbEntity
  8
210
  6
CONTINUOUS
 62
     4
100
AcDbLine
 10
448.7860608995388
 20
509.0383910984232
 30
0.0
 11
523.1613968995389
 21
509.0383910984232
 31
0.0
  0
LINE
  5
6632
330
1A
100
AcDbEntity
  8
210
  6
CONTINUOUS
 62
     4
100
AcDbLine
 10
486.2860608995388
 20
474.0383910984232
 30
0.0
 11
523.1613968995389
 21
474.0383910984232
 31
0.0
  0
LINE
  5
6633
330
1A
100
AcDbEntity
  8
210
  6
CONTINUOUS
 62
     4
100
AcDbLine
 10
438.098866899539
 20
175.0947340984231
 30
0.0
 11
523.1613968995389
 21
175.0947340984231
 31
0.0
  0
LINE
  5
6634
330
1A
100
AcDbEntity
  8
210
  6
CONTINUOUS
 62
     4
100
AcDbLine
 10
500.0988968995389
 20
202.5947260984232
 30
0.0
 11
523.1613968995389
 21
202.5947260984232
 31
0.0
  0
LINE
  5
6635
330
1A
100
AcDbEntity
  8
210
  6
CONTINUOUS
 62
     4
100
AcDbLine
 10
500.0988968995389
 20
202.5947260984232
 30
0.0
 11
523.1613968995389
 21
202.5947260984232
 31
0.0
  0
LINE
  5
6636
330
1A
100
AcDbEntity
  8
210
  6
CONTINUOUS
 62
     4
100
AcDbLine
 10
449.5988668995389
 20
264.5947260984231
 30
0.0
 11
523.1613968995389
 21
264.5947260984231
 31
0.0
  0
LINE
  5
6637
330
1A
100
AcDbEntity
  8
210
  6
CONTINUOUS
 62
     4
100
AcDbLine
 10
500.0988968995389
 20
202.5947260984232
 30
0.0
 11
543.1613968995389
 21
202.5947260984232
 31
0.0
  0
LINE
  5
6638
330
1A
100
AcDbEntity
  8
210
  6
CONTINUOUS
 62
     4
100
AcDbLine
 10
458.0988058995388
 20
152.5947340984232
 30
0.0
 11
543.1613968995389
 21
152.5947340984232
 31
0.0
  0
LINE
  5
663A
330
1A
100
AcDbEntity
  8
210
  6
CONTINUOUS
 62
     4
100
AcDbLine
 10
500.0988968995389
 20
202.5947260984232
 30
0.0
 11
543.1173908995389
 21
202.5947260984232
 31
0.0
  0
LINE
  5
663E
330
1A
100
AcDbEntity
  8
230
  6
CONTINUOUS
 62
     6
100
AcDbLine
 10
488.5697860878816
 20
352.3123392576017
 30
0.0
 11
534.6630929592834
 21
352.3123392576017
 31
0.0
  0
LINE
  5
663F
330
1A
100
AcDbEntity
  8
210
  6
CONTINUOUS
 62
     4
100
AcDbLine
 10
500.0988968995389
 20
202.5947260984232
 30
0.0
 11
543.1613968995389
 21
202.5947260984232
 31
0.0
  0
LINE
  5
6640
330
1A
100
AcDbEntity
  8
210
  6
CONTINUOUS
 62
     4
100
AcDbLine
 10
510.5988668995389
 20
327.5947260984231
 30
0.0
 11
543.1613968995389
 21
327.5947260984231
 31
0.0
  0
LINE
  5
6646
330
1A
100
AcDbEntity
  8
230
  6
CONTINUOUS
 62
     6
100
AcDbLine
 10
445.5988668995389
 20
278.6947320984231
 30
0.0
 11
488.5697860878816
 21
352.3123392576017
 31
0.0
  0
LINE
  5
6650
330
1A
100
AcDbEntity
  8
0
  6
CONTINUOUS
 62
     2
100
AcDbLine
 10
254.0988588995389
 20
223.5947300984231
 30
0.0
 11
273.5988588995389
 21
223.5947300984231
 31
0.0
  0
LINE
  5
6651
330
1A
100
AcDbEntity
  8
170
  6
PHANTOM2
100
AcDbLine
 10
224.5988278995389
 20
327.5947300984232
 30
0.0
 11
321.0988588995389
 21
327.5947300984232
 31
0.0
  0
LINE
  5
6653
330
1A
100
AcDbEntity
  8
170
  6
PHANTOM2
100
AcDbLine
 10
224.5988278995389
 20
329.5947300984232
 30
0.0
 11
321.0988588995389
 21
329.5947300984232
 31
0.0
  0
LINE
  5
6654
330
1A
100
AcDbEntity
  8
170
  6
PHANTOM2
100
AcDbLine
 10
244.5988278995389
 20
197.5947300984231
 30
0.0
 11
272.0988278995389
 21
197.5947300984231
 31
0.0
  0
LINE
  5
6656
330
1A
100
AcDbEntity
  8
0
  6
CONTINUOUS
 62
     2
100
AcDbLine
 10
252.0988588995389
 20
202.5947300984231
 30
0.0
 11
482.098858899539
 21
202.5947300984231
 31
0.0
  0
LINE
  5
6657
330
1A
100
AcDbEntity
  8
170
  6
PHANTOM2
100
AcDbLine
 10
235.0988278995389
 20
202.5947300984231
 30
0.0
 11
235.0988278995389
 21
162.5947300984231
 31
0.0
  0
LINE
  5
6658
330
1A
100
AcDbEntity
  8
170
  6
PHANTOM2
100
AcDbLine
 10
240.0988278995389
 20
193.0947300984231
 30
0.0
 11
240.0988278995389
 21
165.5947300984231
 31
0.0
  0
ARC
  5
6659
330
1A
100
AcDbEntity
  8
170
  6
PHANTOM2
100
AcDbCircle
 10
237.0988278995389
 20
165.5947300984231
 30
0.0
 40
3.0
100
AcDbArc
 50
270.0
 51
0.0000090000000101
  0
LINE
  5
665A
330
1A
100
AcDbEntity
  8
170
  6
PHANTOM2
100
AcDbLine
 10
235.0988278995389
 20
162.5947300984231
 30
0.0
 11
237.0988278995389
 21
162.5947300984231
 31
0.0
  0
LINE
  5
666F
330
1A
100
AcDbEntity
  8
170
  6
PHANTOM2
100
AcDbLine
 10
235.0988278995389
 20
202.5947300984231
 30
0.0
 11
275.0988278995389
 21
202.5947300984231
 31
0.0
  0
ARC
  5
6670
330
1A
100
AcDbEntity
  8
170
  6
PHANTOM2
100
AcDbCircle
 10
244.5988278995389
 20
193.0947300984231
 30
0.0
 40
4.5
100
AcDbArc
 50
90.0
 51
180.0000030000001
  0
LINE
  5
667E
330
1A
100
AcDbEntity
  8
0
  6
CONTINUOUS
 62
     2
100
AcDbLine
 10
458.0988588995389
 20
153.5947300984231
 30
0.0
 11
458.0988588995389
 21
202.5947300984231
 31
0.0
  0
LINE
  5
667F
330
1A
100
AcDbEntity
  8
0
  6
CONTINUOUS
 62
     2
100
AcDbLine
 10
276.0988588995389
 20
153.5947300984231
 30
0.0
 11
276.0988588995389
 21
202.5947300984231
 31
0.0
  0
LINE
  5
6680
330
1A
100
AcDbEntity
  8
170
  6
PHANTOM2
100
AcDbLine
 10
499.0988888995389
 20
202.5947300984231
 30
0.0
 11
499.0988888995389
 21
162.5947300984231
 31
0.0
  0
LINE
  5
6681
330
1A
100
AcDbEntity
  8
225
  6
CENTER
 62
     3
100
AcDbLine
 10
367.0988588995389
 20
347.5947300984232
 30
0.0
 11
367.0988588995389
 21
101.0947450984232
 31
0.0
  0
LINE
  5
6682
330
1A
100
AcDbEntity
  8
225
  6
CENTER
 62
     3
100
AcDbLine
 10
297.0988278995389
 20
188.0947300984231
 30
0.0
 11
297.0988278995389
 21
101.0947450984232
 31
0.0
  0
LINE
  5
6683
330
1A
100
AcDbEntity
  8
225
  6
CENTER
 62
     3
100
AcDbLine
 10
437.0988588995389
 20
188.0947300984231
 30
0.0
 11
437.0988588995389
 21
101.0947450984232
 31
0.0
  0
LINE
  5
6684
330
1A
100
AcDbEntity
  8
170
  6
PHANTOM2
100
AcDbLine
 10
494.0988888995389
 20
193.0947300984231
 30
0.0
 11
494.0988888995389
 21
165.5947300984231
 31
0.0
  0
LINE
  5
6687
330
1A
100
AcDbEntity
  8
0
  6
CONTINUOUS
 62
     2
100
AcDbLine
 10
387.0987978995389
 20
152.5947300984231
 30
0.0
 11
375.0988278995389
 21
152.5947300984231
 31
0.0
  0
LINE
  5
668A
330
1A
100
AcDbEntity
  8
0
  6
CONTINUOUS
 62
     2
100
AcDbLine
 10
276.098858899539
 20
177.5947300984231
 30
0.0
 11
416.0988588995389
 21
177.5947300984231
 31
0.0
  0
LINE
  5
6693
330
1A
100
AcDbEntity
  8
170
  6
PHANTOM2
100
AcDbLine
 10
302.0988278995389
 20
170.0947300984231
 30
0.0
 11
302.0988278995389
 21
125.0947450984232
 31
0.0
  0
LINE
  5
6694
330
1A
100
AcDbEntity
  8
170
  6
PHANTOM2
100
AcDbLine
 10
292.0988278995389
 20
170.0947300984231
 30
0.0
 11
292.0988278995389
 21
125.0947450984232
 31
0.0
  0
LINE
  5
6697
330
1A
100
AcDbEntity
  8
0
  6
CONTINUOUS
 62
     2
100
AcDbLine
 10
277.0988588995389
 20
152.5947300984231
 30
0.0
 11
289.0988278995389
 21
152.5947300984231
 31
0.0
  0
ARC
  5
6698
330
1A
100
AcDbEntity
  8
0
  6
CONTINUOUS
 62
     2
100
AcDbCircle
 10
277.0988588995389
 20
153.5947300984231
 30
0.0
 40
1.0
100
AcDbArc
 50
180.0000050000001
 51
270.0000009999997
  0
LINE
  5
6699
330
1A
100
AcDbEntity
  8
0
  6
CONTINUOUS
 62
     2
100
AcDbLine
 10
318.0987978995389
 20
153.5947300984231
 30
0.0
 11
318.0987978995389
 21
177.5947300984231
 31
0.0
  0
LINE
  5
669A
330
1A
100
AcDbEntity
  8
0
  6
CONTINUOUS
 62
     2
100
AcDbLine
 10
302.8953068995389
 20
174.6423370984231
 30
0.0
 11
303.3488278995389
 21
155.5947300984231
 31
0.0
  0
LINE
  5
669B
330
1A
100
AcDbEntity
  8
0
  6
CONTINUOUS
 62
     2
100
AcDbLine
 10
291.3023498995389
 20
174.6423370984231
 30
0.0
 11
290.8488278995389
 21
155.5947300984231
 31
0.0
  0
LINE
  5
669C
330
1A
100
AcDbEntity
  8
0
  6
CONTINUOUS
 62
     2
100
AcDbLine
 10
303.3488278995389
 20
155.5947300984231
 30
0.0
 11
305.0988278995389
 21
152.5947300984231
 31
0.0
  0
LINE
  5
669D
330
1A
100
AcDbEntity
  8
0
  6
CONTINUOUS
 62
     2
100
AcDbLine
 10
290.8488278995389
 20
155.5947300984231
 30
0.0
 11
289.0988278995389
 21
152.5947300984231
 31
0.0
  0
LINE
  5
669E
330
1A
100
AcDbEntity
  8
0
  6
CONTINUOUS
 62
     2
100
AcDbLine
 10
317.0987978995388
 20
152.5947300984231
 30
0.0
 11
305.0988278995389
 21
152.5947300984231
 31
0.0
  0
ARC
  5
669F
330
1A
100
AcDbEntity
  8
0
  6
CONTINUOUS
 62
     2
100
AcDbCircle
 10
317.0987978995388
 20
153.5947300984231
 30
0.0
 40
1.0
100
AcDbArc
 50
270.0
 51
359.999996
  0
ARC
  5
66A0
330
1A
100
AcDbEntity
  8
170
  6
PHANTOM2
100
AcDbCircle
 10
297.0988278995389
 20
170.0947300984231
 30
0.0
 40
5.0
100
AcDbArc
 50
0.0
 51
180.0000050000001
  0
LINE
  5
66A1
330
1A
100
AcDbEntity
  8
0
  6
CONTINUOUS
 62
     2
100
AcDbLine
 10
300.8958868995389
 20
176.5947300984231
 30
0.0
 11
293.3017698995389
 21
176.5947300984231
 31
0.0
  0
ARC
  5
66A2
330
1A
100
AcDbEntity
  8
0
  6
CONTINUOUS
 62
     2
100
AcDbCircle
 10
293.3017698995389
 20
174.5947300984231
 30
0.0
 40
2.0
100
AcDbArc
 50
90.0
 51
178.6360679999999
  0
ARC
  5
66A3
330
1A
100
AcDbEntity
  8
0
  6
CONTINUOUS
 62
     2
100
AcDbCircle
 10
300.8958868995389
 20
174.5947300984231
 30
0.0
 40
2.0
100
AcDbArc
 50
1.363929000000019
 51
89.99999699999904
  0
LINE
  5
66A5
330
1A
100
AcDbEntity
  8
170
  6
PHANTOM2
100
AcDbLine
 10
372.0988588995389
 20
170.0947300984231
 30
0.0
 11
372.0988588995389
 21
125.0947450984232
 31
0.0
  0
LINE
  5
66A6
330
1A
100
AcDbEntity
  8
170
  6
PHANTOM2
100
AcDbLine
 10
362.0988588995389
 20
170.0947300984231
 30
0.0
 11
362.0988588995389
 21
125.0947450984232
 31
0.0
  0
LINE
  5
66B4
330
1A
100
AcDbEntity
  8
0
  6
CONTINUOUS
 62
     2
100
AcDbLine
 10
347.0988588995389
 20
152.5947300984231
 30
0.0
 11
359.0988278995389
 21
152.5947300984231
 31
0.0
  0
LINE
  5
66B5
330
1A
100
AcDbEntity
  8
0
  6
CONTINUOUS
 62
     2
100
AcDbLine
 10
346.0988588995389
 20
153.5947300984231
 30
0.0
 11
346.0988588995389
 21
177.5947300984231
 31
0.0
  0
ARC
  5
66B6
330
1A
100
AcDbEntity
  8
0
  6
CONTINUOUS
 62
     2
100
AcDbCircle
 10
347.0988588995389
 20
153.5947300984231
 30
0.0
 40
1.0
100
AcDbArc
 50
180.0000050000001
 51
270.0000009999997
  0
LINE
  5
66B7
330
1A
100
AcDbEntity
  8
0
  6
CONTINUOUS
 62
     2
100
AcDbLine
 10
372.8953068995389
 20
174.6423370984231
 30
0.0
 11
373.3488278995389
 21
155.5947300984231
 31
0.0
  0
LINE
  5
66B8
330
1A
100
AcDbEntity
  8
0
  6
CONTINUOUS
 62
     2
100
AcDbLine
 10
361.3023498995389
 20
174.6423370984231
 30
0.0
 11
360.8488278995389
 21
155.5947300984231
 31
0.0
  0
LINE
  5
66B9
330
1A
100
AcDbEntity
  8
0
  6
CONTINUOUS
 62
     2
100
AcDbLine
 10
360.8488278995389
 20
155.5947300984231
 30
0.0
 11
359.0988278995389
 21
152.5947300984231
 31
0.0
  0
LINE
  5
66BA
330
1A
100
AcDbEntity
  8
0
  6
CONTINUOUS
 62
     2
100
AcDbLine
 10
373.3488278995389
 20
155.5947300984231
 30
0.0
 11
375.0988278995389
 21
152.5947300984231
 31
0.0
  0
LINE
  5
66BB
330
1A
100
AcDbEntity
  8
0
  6
CONTINUOUS
 62
     2
100
AcDbLine
 10
370.8958868995389
 20
176.5947300984231
 30
0.0
 11
363.3017698995388
 21
176.5947300984231
 31
0.0
  0
ARC
  5
66BC
330
1A
100
AcDbEntity
  8
170
  6
PHANTOM2
100
AcDbCircle
 10
367.0988588995389
 20
170.0947300984231
 30
0.0
 40
5.0
100
AcDbArc
 50
0.0
 51
180.0000050000001
  0
ARC
  5
66BD
330
1A
100
AcDbEntity
  8
0
  6
CONTINUOUS
 62
     2
100
AcDbCircle
 10
363.3017698995388
 20
174.5947300984231
 30
0.0
 40
2.0
100
AcDbArc
 50
90.0
 51
178.6360679999999
  0
ARC
  5
66BE
330
1A
100
AcDbEntity
  8
0
  6
CONTINUOUS
 62
     2
100
AcDbCircle
 10
370.8958868995389
 20
174.5947300984231
 30
0.0
 40
2.0
100
AcDbArc
 50
1.363929000000019
 51
89.99999699999904
  0
LINE
  5
66C2
330
1A
100
AcDbEntity
  8
0
  6
CONTINUOUS
 62
     2
100
AcDbLine
 10
457.0987978995389
 20
152.5947300984231
 30
0.0
 11
445.0988278995389
 21
152.5947300984231
 31
0.0
  0
LINE
  5
66C3
330
1A
100
AcDbEntity
  8
170
  6
PHANTOM2
100
AcDbLine
 10
442.0988588995389
 20
170.0947300984231
 30
0.0
 11
442.0988588995389
 21
125.0947450984232
 31
0.0
  0
LINE
  5
66C4
330
1A
100
AcDbEntity
  8
170
  6
PHANTOM2
100
AcDbLine
 10
432.098858899539
 20
170.0947300984231
 30
0.0
 11
432.098858899539
 21
125.0947450984232
 31
0.0
  0
LINE
  5
66C8
330
1A
100
AcDbEntity
  8
0
  6
CONTINUOUS
 62
     2
100
AcDbLine
 10
417.0988588995389
 20
152.5947300984231
 30
0.0
 11
429.0988278995389
 21
152.5947300984231
 31
0.0
  0
LINE
  5
66C9
330
1A
100
AcDbEntity
  8
0
  6
CONTINUOUS
 62
     2
100
AcDbLine
 10
416.0988588995389
 20
153.5947300984231
 30
0.0
 11
416.0988588995389
 21
177.5947300984231
 31
0.0
  0
LINE
  5
66CA
330
1A
100
AcDbEntity
  8
0
  6
CONTINUOUS
 62
     2
100
AcDbLine
 10
388.0987978995389
 20
153.5947300984231
 30
0.0
 11
388.0987978995389
 21
177.5947300984231
 31
0.0
  0
ARC
  5
66CB
330
1A
100
AcDbEntity
  8
0
  6
CONTINUOUS
 62
     2
100
AcDbCircle
 10
387.0987978995389
 20
153.5947300984231
 30
0.0
 40
1.0
100
AcDbArc
 50
270.0
 51
359.999996
  0
ARC
  5
66CC
330
1A
100
AcDbEntity
  8
0
  6
CONTINUOUS
 62
     2
100
AcDbCircle
 10
417.0988588995389
 20
153.5947300984231
 30
0.0
 40
1.0
100
AcDbArc
 50
180.0000050000001
 51
270.0000009999997
  0
LINE
  5
66CD
330
1A
100
AcDbEntity
  8
0
  6
CONTINUOUS
 62
     2
100
AcDbLine
 10
442.8953068995387
 20
174.6423370984231
 30
0.0
 11
443.3488278995389
 21
155.5947300984231
 31
0.0
  0
LINE
  5
66CE
330
1A
100
AcDbEntity
  8
0
  6
CONTINUOUS
 62
     2
100
AcDbLine
 10
431.302349899539
 20
174.6423370984231
 30
0.0
 11
430.8488278995389
 21
155.5947300984231
 31
0.0
  0
LINE
  5
66CF
330
1A
100
AcDbEntity
  8
0
  6
CONTINUOUS
 62
     2
100
AcDbLine
 10
430.8488278995389
 20
155.5947300984231
 30
0.0
 11
429.0988278995389
 21
152.5947300984231
 31
0.0
  0
LINE
  5
66D0
330
1A
100
AcDbEntity
  8
0
  6
CONTINUOUS
 62
     2
100
AcDbLine
 10
443.3488278995389
 20
155.5947300984231
 30
0.0
 11
445.0988278995389
 21
152.5947300984231
 31
0.0
  0
LINE
  5
66D1
330
1A
100
AcDbEntity
  8
0
  6
CONTINUOUS
 62
     2
100
AcDbLine
 10
440.8958868995389
 20
176.5947300984231
 30
0.0
 11
433.3017698995389
 21
176.5947300984231
 31
0.0
  0
ARC
  5
66D2
330
1A
100
AcDbEntity
  8
170
  6
PHANTOM2
100
AcDbCircle
 10
437.0988588995389
 20
170.0947300984231
 30
0.0
 40
5.0
100
AcDbArc
 50
0.0
 51
180.0000050000001
  0
ARC
  5
66D3
330
1A
100
AcDbEntity
  8
0
  6
CONTINUOUS
 62
     2
100
AcDbCircle
 10
433.3017698995389
 20
174.5947300984231
 30
0.0
 40
2.0
100
AcDbArc
 50
90.0
 51
178.6360679999999
  0
ARC
  5
66D4
330
1A
100
AcDbEntity
  8
0
  6
CONTINUOUS
 62
     2
100
AcDbCircle
 10
440.8958868995389
 20
174.5947300984231
 30
0.0
 40
2.0
100
AcDbArc
 50
1.363929000000019
 51
89.99999699999904
  0
ARC
  5
66D5
330
1A
100
AcDbEntity
  8
0
  6
CONTINUOUS
 62
     2
100
AcDbCircle
 10
457.0987978995389
 20
153.5947300984231
 30
0.0
 40
1.0
100
AcDbArc
 50
270.0
 51
359.999996
  0
ARC
  5
66D6
330
1A
100
AcDbEntity
  8
170
  6
PHANTOM2
100
AcDbCircle
 10
497.0988888995389
 20
165.5947300984231
 30
0.0
 40
3.0
100
AcDbArc
 50
179.9999899999997
 51
269.9999990000002
  0
LINE
  5
66D7
330
1A
100
AcDbEntity
  8
170
  6
PHANTOM2
100
AcDbLine
 10
499.0988888995389
 20
162.5947300984231
 30
0.0
 11
497.0988888995389
 21
162.5947300984231
 31
0.0
  0
LINE
  5
66D9
330
1A
100
AcDbEntity
  8
0
  6
CONTINUOUS
 62
     2
100
AcDbLine
 10
317.0988588995389
 20
323.0947300984232
 30
0.0
 11
342.0988588995388
 21
323.0947300984232
 31
0.0
  0
LINE
  5
66DA
330
1A
100
AcDbEntity
  8
150
  6
CONTINUOUS
100
AcDbLine
 10
279.5988278995389
 20
240.5947300984231
 30
0.0
 11
451.0988588995389
 21
240.5947300984231
 31
0.0
  0
LINE
  5
66DB
330
1A
100
AcDbEntity
  8
150
  6
CONTINUOUS
100
AcDbLine
 10
343.0988588995389
 20
326.5947300984232
 30
0.0
 11
391.0988588995389
 21
326.5947300984232
 31
0.0
  0
LINE
  5
66DC
330
1A
100
AcDbEntity
  8
0
  6
CONTINUOUS
 62
     2
100
AcDbLine
 10
343.0988588995389
 20
330.5947300984232
 30
0.0
 11
391.0988588995389
 21
330.5947300984232
 31
0.0
  0
LINE
  5
66E2
330
1A
100
AcDbEntity
  8
0
  6
CONTINUOUS
 62
     2
100
AcDbLine
 10
279.5988278995389
 20
277.5947300984231
 30
0.0
 11
279.5988278995389
 21
240.5947300984231
 31
0.0
  0
LINE
  5
66E3
330
1A
100
AcDbEntity
  8
150
  6
CONTINUOUS
100
AcDbLine
 10
289.5988278995389
 20
318.5947300984232
 30
0.0
 11
289.5988278995389
 21
240.5947300984231
 31
0.0
  0
LINE
  5
66E4
330
1A
100
AcDbEntity
  8
150
  6
HIDDEN2
100
AcDbLine
 10
284.5988278995389
 20
277.5947300984231
 30
0.0
 11
284.5988278995389
 21
240.5947300984231
 31
0.0
  0
LINE
  5
66E5
330
1A
100
AcDbEntity
  8
225
  6
CENTER
 62
     3
100
AcDbLine
 10
260.0988588995389
 20
228.5947300984231
 30
0.0
 11
260.0988588995389
 21
189.5947150984232
 31
0.0
  0
LINE
  5
66E6
330
1A
100
AcDbEntity
  8
0
  6
CONTINUOUS
 62
     2
100
AcDbLine
 10
273.5988588995389
 20
242.5947300984231
 30
0.0
 11
273.5988588995389
 21
223.5947300984231
 31
0.0
  0
LINE
  5
66E7
330
1A
100
AcDbEntity
  8
150
  6
CONTINUOUS
100
AcDbLine
 10
283.0988588995389
 20
223.5947300984231
 30
0.0
 11
283.0988588995389
 21
240.5947300984231
 31
0.0
  0
LINE
  5
66F0
330
1A
100
AcDbEntity
  8
170
  6
PHANTOM2
100
AcDbLine
 10
275.0988278995389
 20
202.5947300984231
 30
0.0
 11
275.0988278995389
 21
200.5947300984231
 31
0.0
  0
ARC
  5
66F1
330
1A
100
AcDbEntity
  8
170
  6
PHANTOM2
100
AcDbCircle
 10
272.0988278995389
 20
200.5947300984231
 30
0.0
 40
3.0
100
AcDbArc
 50
270.0
 51
0.0000090000000101
  0
ARC
  5
66FF
330
1A
100
AcDbEntity
  8
0
  6
CONTINUOUS
 62
     2
100
AcDbCircle
 10
274.5988588995389
 20
242.5947300984231
 30
0.0
 40
1.0
100
AcDbArc
 50
90.0
 51
180.0000030000001
  0
LINE
  5
6700
330
1A
100
AcDbEntity
  8
0
  6
CONTINUOUS
 62
     2
100
AcDbLine
 10
274.5988588995389
 20
243.5947300984231
 30
0.0
 11
277.5988278995389
 21
243.5947300984231
 31
0.0
  0
LINE
  5
6701
330
1A
100
AcDbEntity
  8
0
  6
CONTINUOUS
 62
     2
100
AcDbLine
 10
277.5988278995389
 20
243.5947300984231
 30
0.0
 11
277.5988278995389
 21
240.5947300984231
 31
0.0
  0
LINE
  5
670D
330
1A
100
AcDbEntity
  8
0
  6
CONTINUOUS
 62
     2
100
AcDbLine
 10
316.0988588995389
 20
318.5947300984232
 30
0.0
 11
316.0988588995389
 21
322.0947300984231
 31
0.0
  0
LINE
  5
670F
330
1A
100
AcDbEntity
  8
0
  6
CONTINUOUS
 62
     2
100
AcDbLine
 10
279.5988278995389
 20
277.5947300984231
 30
0.0
 11
284.5988278995389
 21
277.5947300984231
 31
0.0
  0
LINE
  5
6710
330
1A
100
AcDbEntity
  8
0
  6
CONTINUOUS
 62
     2
100
AcDbLine
 10
285.5988278995389
 20
318.5947300984232
 30
0.0
 11
316.0988588995389
 21
318.5947300984232
 31
0.0
  0
LINE
  5
6711
330
1A
100
AcDbEntity
  8
0
  6
CONTINUOUS
 62
     2
100
AcDbLine
 10
284.5988278995389
 20
317.5947300984232
 30
0.0
 11
284.5988278995389
 21
277.5947300984231
 31
0.0
  0
ARC
  5
6712
330
1A
100
AcDbEntity
  8
0
  6
CONTINUOUS
 62
     2
100
AcDbCircle
 10
285.5988278995389
 20
317.5947300984232
 30
0.0
 40
1.0
100
AcDbArc
 50
90.0
 51
180.0000030000001
  0
ARC
  5
6719
330
1A
100
AcDbEntity
  8
0
  6
CONTINUOUS
 62
     2
100
AcDbCircle
 10
317.0988588995389
 20
322.0947300984231
 30
0.0
 40
1.0
100
AcDbArc
 50
90.0
 51
180.0000030000001
  0
ARC
  5
671C
330
1A
100
AcDbEntity
  8
0
  6
CONTINUOUS
 62
     2
100
AcDbCircle
 10
353.3707398995389
 20
343.2553130984231
 30
0.0
 40
1.0
100
AcDbArc
 50
21.12277000000032
 51
110.4998450000002
  0
LINE
  5
671D
330
1A
100
AcDbEntity
  8
0
  6
CONTINUOUS
 62
     2
100
AcDbLine
 10
353.0205508995389
 20
344.1919890984232
 30
0.0
 11
347.8485538995389
 21
342.2582740984231
 31
0.0
  0
LINE
  5
671E
330
1A
100
AcDbEntity
  8
170
  6
PHANTOM2
100
AcDbLine
 10
321.0988588995389
 20
329.5947300984232
 30
0.0
 11
321.0988588995389
 21
327.5947300984232
 31
0.0
  0
LINE
  5
671F
330
1A
100
AcDbEntity
  8
0
  6
CONTINUOUS
 62
     2
100
AcDbLine
 10
351.0136838995389
 20
330.5947300984232
 30
0.0
 11
347.2583438995389
 21
340.9816010984231
 31
0.0
  0
ARC
  5
6720
330
1A
100
AcDbEntity
  8
150
  6
CONTINUOUS
100
AcDbCircle
 10
343.0988588995389
 20
325.5947300984232
 30
0.0
 40
1.0
100
AcDbArc
 50
90.0
 51
180.0000030000001
  0
LINE
  5
6721
330
1A
100
AcDbEntity
  8
0
  6
CONTINUOUS
 62
     2
100
AcDbLine
 10
342.0988588995389
 20
329.5947300984232
 30
0.0
 11
342.0988588995389
 21
323.0947300984232
 31
0.0
  0
ARC
  5
6722
330
1A
100
AcDbEntity
  8
0
  6
CONTINUOUS
 62
     2
100
AcDbCircle
 10
343.0988588995389
 20
329.5947300984232
 30
0.0
 40
1.0
100
AcDbArc
 50
90.0
 51
180.0000030000001
  0
ARC
  5
6723
330
1A
100
AcDbEntity
  8
0
  6
CONTINUOUS
 62
     2
100
AcDbCircle
 10
348.1987738995389
 20
341.3215980984231
 30
0.0
 40
1.0
100
AcDbArc
 50
110.4999679999991
 51
199.8773439999996
  0
LINE
  5
6724
330
1A
100
AcDbEntity
  8
0
  6
CONTINUOUS
 62
     2
100
AcDbLine
 10
359.3338438995389
 20
330.5947300984232
 30
0.0
 11
354.3035398995389
 21
343.6156650984232
 31
0.0
  0
TEXT
  5
6729
330
1A
100
AcDbEntity
  8
230
 62
     6
100
AcDbText
 10
359.7115988995389
 20
349.8842460984231
 30
0.0
 40
5.0
  1
ASL
100
AcDbText
  0
LINE
  5
672A
330
1A
100
AcDbEntity
  8
150
  6
PHANTOM2
100
AcDbLine
 10
499.5988588995389
 20
319.5947300984232
 30
0.0
 11
499.5988588995389
 21
243.5947300984231
 31
0.0
  0
LINE
  5
672B
330
1A
100
AcDbEntity
  8
0
  6
CONTINUOUS
 62
     2
100
AcDbLine
 10
449.5988588995389
 20
317.5947300984232
 30
0.0
 11
449.5988588995389
 21
240.5947300984231
 31
0.0
  0
LINE
  5
672C
330
1A
100
AcDbEntity
  8
225
  6
CENTER
 62
     3
100
AcDbLine
 10
439.098858899539
 20
283.6947360984231
 30
0.0
 11
439.098858899539
 21
245.6947360984231
 31
0.0
  0
LINE
  5
672D
330
1A
100
AcDbEntity
  8
150
  6
HIDDEN2
 62
     7
100
AcDbLine
 10
432.5988588995389
 20
270.6947360984231
 30
0.0
 11
432.5988588995389
 21
278.6947360984231
 31
0.0
  0
LINE
  5
672E
330
1A
100
AcDbEntity
  8
150
  6
HIDDEN2
 62
     7
100
AcDbLine
 10
445.5988588995389
 20
270.6947360984231
 30
0.0
 11
445.5988588995389
 21
278.6947360984231
 31
0.0
  0
LINE
  5
672F
330
1A
100
AcDbEntity
  8
150
  6
PHANTOM2
100
AcDbLine
 10
444.098858899539
 20
318.5947300984232
 30
0.0
 11
444.098858899539
 21
243.5947300984231
 31
0.0
  0
LINE
  5
6730
330
1A
100
AcDbEntity
  8
150
  6
PHANTOM2
100
AcDbLine
 10
444.098858899539
 20
243.5947300984231
 30
0.0
 11
499.5988588995389
 21
243.5947300984231
 31
0.0
  0
LINE
  5
6731
330
1A
100
AcDbEntity
  8
0
  6
CONTINUOUS
 62
     2
100
AcDbLine
 10
451.0988588995389
 20
223.5947300984231
 30
0.0
 11
451.0988588995389
 21
240.5947300984231
 31
0.0
  0
LINE
  5
6732
330
1A
100
AcDbEntity
  8
150
  6
HIDDEN2
 62
     7
100
AcDbLine
 10
448.598858899539
 20
264.5947300984231
 30
0.0
 11
424.5988588995389
 21
264.5947300984231
 31
0.0
  0
LINE
  5
6733
330
1A
100
AcDbEntity
  8
150
  6
HIDDEN2
 62
     7
100
AcDbLine
 10
448.598858899539
 20
259.5947300984231
 30
0.0
 11
424.5988588995389
 21
259.5947300984231
 31
0.0
  0
LINE
  5
6734
330
1A
100
AcDbEntity
  8
150
  6
HIDDEN2
 62
     7
100
AcDbLine
 10
448.098858899539
 20
267.0947300984231
 30
0.0
 11
430.0988588995389
 21
267.0947300984231
 31
0.0
  0
LINE
  5
6735
330
1A
100
AcDbEntity
  8
150
  6
HIDDEN2
 62
     7
100
AcDbLine
 10
430.0988588995389
 20
268.6947360984231
 30
0.0
 11
448.098858899539
 21
268.6947360984231
 31
0.0
  0
LINE
  5
6736
330
1A
100
AcDbEntity
  8
150
  6
HIDDEN2
 62
     7
100
AcDbLine
 10
431.3988768995389
 20
270.6947360984231
 30
0.0
 11
446.798870899539
 21
270.6947360984231
 31
0.0
  0
LINE
  5
6737
330
1A
100
AcDbEntity
  8
150
  6
HIDDEN2
 62
     7
100
AcDbLine
 10
435.098858899539
 20
251.3712500984232
 30
0.0
 11
443.0988588995389
 21
251.3712500984232
 31
0.0
  0
LINE
  5
6738
330
1A
100
AcDbEntity
  8
150
  6
HIDDEN2
 62
     7
100
AcDbLine
 10
435.098858899539
 20
251.3712500984232
 30
0.0
 11
435.7753418995389
 21
250.6947360984231
 31
0.0
  0
LINE
  5
6739
330
1A
100
AcDbEntity
  8
150
  6
HIDDEN2
 62
     7
100
AcDbLine
 10
435.098858899539
 20
267.0947300984231
 30
0.0
 11
435.098858899539
 21
251.3712500984232
 31
0.0
  0
LINE
  5
673A
330
1A
100
AcDbEntity
  8
150
  6
HIDDEN2
 62
     7
100
AcDbLine
 10
430.0988588995389
 20
267.0947300984231
 30
0.0
 11
430.0988588995389
 21
268.6947360984231
 31
0.0
  0
LINE
  5
673B
330
1A
100
AcDbEntity
  8
150
  6
HIDDEN2
 62
     7
100
AcDbLine
 10
431.3988768995389
 20
268.6947360984231
 30
0.0
 11
431.3988768995389
 21
270.6947360984231
 31
0.0
  0
LINE
  5
673C
330
1A
100
AcDbEntity
  8
150
  6
HIDDEN2
 62
     7
100
AcDbLine
 10
448.598858899539
 20
264.5947300984231
 30
0.0
 11
448.598858899539
 21
259.5947300984231
 31
0.0
  0
LINE
  5
673D
330
1A
100
AcDbEntity
  8
150
  6
HIDDEN2
 62
     7
100
AcDbLine
 10
435.775372899539
 20
267.0947300984231
 30
0.0
 11
435.7753418995389
 21
250.6947360984231
 31
0.0
  0
LINE
  5
673E
330
1A
100
AcDbEntity
  8
150
  6
HIDDEN2
 62
     7
100
AcDbLine
 10
442.4223448995389
 20
267.0947300984231
 30
0.0
 11
442.4223448995389
 21
250.6947360984231
 31
0.0
  0
LINE
  5
673F
330
1A
100
AcDbEntity
  8
150
  6
HIDDEN2
 62
     7
100
AcDbLine
 10
443.0988588995389
 20
267.0947300984231
 30
0.0
 11
443.0988588995389
 21
251.3712500984232
 31
0.0
  0
LINE
  5
6740
330
1A
100
AcDbEntity
  8
150
  6
HIDDEN2
 62
     7
100
AcDbLine
 10
435.7753418995389
 20
250.6947360984231
 30
0.0
 11
442.4223448995389
 21
250.6947360984231
 31
0.0
  0
LINE
  5
6741
330
1A
100
AcDbEntity
  8
150
  6
HIDDEN2
 62
     7
100
AcDbLine
 10
443.0988588995389
 20
251.3712500984232
 30
0.0
 11
442.4223448995389
 21
250.6947360984231
 31
0.0
  0
LINE
  5
6742
330
1A
100
AcDbEntity
  8
150
  6
HIDDEN2
 62
     7
100
AcDbLine
 10
439.098858899539
 20
268.6947360984231
 30
0.0
 11
438.0988588995389
 21
270.6947360984231
 31
0.0
  0
LINE
  5
6743
330
1A
100
AcDbEntity
  8
150
  6
HIDDEN2
 62
     7
100
AcDbLine
 10
440.098858899539
 20
268.6947360984231
 30
0.0
 11
439.098858899539
 21
270.6947360984231
 31
0.0
  0
LINE
  5
6744
330
1A
100
AcDbEntity
  8
150
  6
HIDDEN2
 62
     7
100
AcDbLine
 10
448.098858899539
 20
267.0947300984231
 30
0.0
 11
448.098858899539
 21
268.6947360984231
 31
0.0
  0
LINE
  5
6745
330
1A
100
AcDbEntity
  8
150
  6
HIDDEN2
 62
     7
100
AcDbLine
 10
446.798870899539
 20
268.6947360984231
 30
0.0
 11
446.798870899539
 21
270.6947360984231
 31
0.0
  0
LINE
  5
6747
330
1A
100
AcDbEntity
  8
170
  6
PHANTOM2
100
AcDbLine
 10
499.0988888995389
 20
202.5947300984231
 30
0.0
 11
459.0988888995389
 21
202.5947300984231
 31
0.0
  0
LINE
  5
6748
330
1A
100
AcDbEntity
  8
170
  6
PHANTOM2
100
AcDbLine
 10
489.5988888995389
 20
197.5947300984231
 30
0.0
 11
462.0988888995388
 21
197.5947300984231
 31
0.0
  0
ARC
  5
674E
330
1A
100
AcDbEntity
  8
170
  6
PHANTOM2
100
AcDbCircle
 10
462.0988888995388
 20
200.5947300984231
 30
0.0
 40
3.0
100
AcDbArc
 50
179.9999899999997
 51
269.9999990000002
  0
LINE
  5
674F
330
1A
100
AcDbEntity
  8
170
  6
PHANTOM2
100
AcDbLine
 10
459.0988888995389
 20
202.5947300984231
 30
0.0
 11
459.0988888995389
 21
200.5947300984231
 31
0.0
  0
ARC
  5
6766
330
1A
100
AcDbEntity
  8
170
  6
PHANTOM2
100
AcDbCircle
 10
489.5988888995389
 20
193.0947300984231
 30
0.0
 40
4.5
100
AcDbArc
 50
359.9999949999999
 51
89.99999699999904
  0
TEXT
  5
6767
330
1A
100
AcDbEntity
  8
210
  6
CONTINUOUS
 62
     4
100
AcDbText
 10
515.9738968995388
 20
180.7197340984232
 30
0.0
 40
5.0
  1
27.5
 50
90.00000300000095
100
AcDbText
  0
TEXT
  5
6768
330
1A
100
AcDbEntity
  8
210
  6
CONTINUOUS
 62
     4
100
AcDbText
 10
515.9738968995388
 20
229.0947260984232
 30
0.0
 40
5.0
  1
62
 50
90.00000300000095
100
AcDbText
  0
LINE
  5
676A
330
1A
100
AcDbEntity
  8
150
  6
PHANTOM2
100
AcDbLine
 10
445.048870899539
 20
323.5947300984232
 30
0.0
 11
454.1488468995389
 21
323.5947300984232
 31
0.0
  0
LINE
  5
676B
330
1A
100
AcDbEntity
  8
150
  6
PHANTOM2
100
AcDbLine
 10
418.0988588995389
 20
321.5947300984232
 30
0.0
 11
497.598858899539
 21
321.5947300984232
 31
0.0
  0
LINE
  5
676C
330
1A
100
AcDbEntity
  8
150
  6
PHANTOM2
100
AcDbLine
 10
445.348858899539
 20
322.3947180984231
 30
0.0
 11
453.848858899539
 21
322.3947180984231
 31
0.0
  0
LINE
  5
676D
330
1A
100
AcDbEntity
  8
170
  6
PHANTOM2
100
AcDbLine
 10
413.0988588995389
 20
327.5947300984232
 30
0.0
 11
509.5988588995389
 21
327.5947300984232
 31
0.0
  0
LINE
  5
676E
330
1A
100
AcDbEntity
  8
170
  6
PHANTOM2
100
AcDbLine
 10
413.0988588995389
 20
329.5947300984232
 30
0.0
 11
509.5988588995389
 21
329.5947300984232
 31
0.0
  0
LINE
  5
6771
330
1A
100
AcDbEntity
  8
0
  6
CONTINUOUS
 62
     2
100
AcDbLine
 10
418.0988588995389
 20
318.5947300984232
 30
0.0
 11
418.0988588995389
 21
322.0947300984231
 31
0.0
  0
LINE
  5
6772
330
1A
100
AcDbEntity
  8
0
  6
CONTINUOUS
 62
     2
100
AcDbLine
 10
418.0988588995389
 20
318.5947300984232
 30
0.0
 11
448.598858899539
 21
318.5947300984232
 31
0.0
  0
LINE
  5
6773
330
1A
100
AcDbEntity
  8
150
  6
HIDDEN2
 62
     7
100
AcDbLine
 10
432.5988588995389
 20
278.6947360984231
 30
0.0
 11
445.5988588995389
 21
278.6947360984231
 31
0.0
  0
LINE
  5
6776
330
1A
100
AcDbEntity
  8
230
  6
CONTINUOUS
 62
     6
100
AcDbLine
 10
445.5988668995389
 20
278.6947320984231
 30
0.0
 11
446.8808648995389
 21
280.2298150984231
 31
0.0
  0
LINE
  5
6777
330
1A
100
AcDbEntity
  8
230
  6
CONTINUOUS
 62
     6
100
AcDbLine
 10
445.5988668995389
 20
278.6947320984231
 30
0.0
 11
446.3051048995389
 21
280.5658890984232
 31
0.0
  0
ARC
  5
6778
330
1A
100
AcDbEntity
  8
0
  6
CONTINUOUS
 62
     2
100
AcDbCircle
 10
448.598858899539
 20
317.5947300984232
 30
0.0
 40
1.0
100
AcDbArc
 50
0.0
 51
90.00000300000095
  0
ARC
  5
6779
330
1A
100
AcDbEntity
  8
150
  6
CONTINUOUS
100
AcDbCircle
 10
391.0988588995389
 20
325.5947300984232
 30
0.0
 40
1.0
100
AcDbArc
 50
0.0
 51
90.00000300000095
  0
LINE
  5
677A
330
1A
100
AcDbEntity
  8
0
  6
CONTINUOUS
 62
     2
100
AcDbLine
 10
392.0988588995389
 20
329.5947300984232
 30
0.0
 11
392.0988588995389
 21
323.0947300984232
 31
0.0
  0
ARC
  5
677B
330
1A
100
AcDbEntity
  8
0
  6
CONTINUOUS
 62
     2
100
AcDbCircle
 10
391.0988588995389
 20
329.5947300984232
 30
0.0
 40
1.0
100
AcDbArc
 50
0.0
 51
90.00000300000095
  0
LINE
  5
677C
330
1A
100
AcDbEntity
  8
170
  6
PHANTOM2
100
AcDbLine
 10
413.0988588995389
 20
329.5947300984232
 30
0.0
 11
413.0988588995389
 21
327.5947300984232
 31
0.0
  0
ARC
  5
677D
330
1A
100
AcDbEntity
  8
0
  6
CONTINUOUS
 62
     2
100
AcDbCircle
 10
417.0988588995389
 20
322.0947300984231
 30
0.0
 40
1.0
100
AcDbArc
 50
0.0
 51
90.00000300000095
  0
ARC
  5
677E
330
1A
100
AcDbEntity
  8
150
  6
PHANTOM2
100
AcDbCircle
 10
445.048870899539
 20
322.3947180984231
 30
0.0
 40
1.199999999999999
100
AcDbArc
 50
90.0
 51
180.0000030000001
  0
LINE
  5
677F
330
1A
100
AcDbEntity
  8
150
  6
PHANTOM2
100
AcDbLine
 10
443.8488588995389
 20
321.5947300984232
 30
0.0
 11
443.8488588995389
 21
322.3947180984231
 31
0.0
  0
LINE
  5
6780
330
1A
100
AcDbEntity
  8
150
  6
PHANTOM2
100
AcDbLine
 10
445.348858899539
 20
321.5947300984232
 30
0.0
 11
445.348858899539
 21
322.3947180984231
 31
0.0
  0
ARC
  5
6784
330
1A
100
AcDbEntity
  8
150
  6
PHANTOM2
100
AcDbCircle
 10
454.1488468995389
 20
322.3947180984231
 30
0.0
 40
1.199999999999999
100
AcDbArc
 50
0.0
 51
90.00000300000095
  0
LINE
  5
6785
330
1A
100
AcDbEntity
  8
150
  6
PHANTOM2
100
AcDbLine
 10
455.3488588995389
 20
321.5947300984232
 30
0.0
 11
455.3488588995389
 21
322.3947180984231
 31
0.0
  0
LINE
  5
6786
330
1A
100
AcDbEntity
  8
150
  6
PHANTOM2
100
AcDbLine
 10
453.848858899539
 20
321.5947300984232
 30
0.0
 11
453.848858899539
 21
322.3947180984231
 31
0.0
  0
ARC
  5
6788
330
1A
100
AcDbEntity
  8
150
  6
PHANTOM2
100
AcDbCircle
 10
497.598858899539
 20
319.5947300984232
 30
0.0
 40
2.0
100
AcDbArc
 50
0.0
 51
90.00000300000095
  0
LINE
  5
678B
330
1A
100
AcDbEntity
  8
210
  6
CONTINUOUS
 62
     4
100
AcDbLine
 10
464.9117018995389
 20
451.5383910984232
 30
0.0
 11
229.0363358995389
 21
451.5383910984232
 31
0.0
  0
LINE
  5
678C
330
1A
100
AcDbEntity
  8
210
  6
CONTINUOUS
 62
     4
100
AcDbLine
 10
252.0988358995389
 20
574.0384520984231
 30
0.0
 11
482.0988668995389
 21
574.0384520984231
 31
0.0
  0
LINE
  5
678D
330
1A
100
AcDbEntity
  8
210
  6
CONTINUOUS
 62
     4
100
AcDbLine
 10
255.0988358995389
 20
414.0383910984231
 30
0.0
 11
209.0363358995389
 21
414.0383910984231
 31
0.0
  0
LINE
  5
678E
330
1A
100
AcDbEntity
  8
210
  6
CONTINUOUS
 62
     4
100
AcDbLine
 10
255.0988358995389
 20
534.0384210984232
 30
0.0
 11
209.0363358995389
 21
534.0384210984232
 31
0.0
  0
ARC
  5
678F
330
1A
100
AcDbEntity
  8
0
  6
CONTINUOUS
 62
     2
100
AcDbCircle
 10
256.0988278995389
 20
530.0384250984231
 30
0.0
 40
4.0
100
AcDbArc
 50
90.0
 51
180.0000030000001
  0
ARC
  5
6790
330
1A
100
AcDbEntity
  8
0
  6
CONTINUOUS
 62
     2
100
AcDbCircle
 10
256.0988278995389
 20
418.0383940984232
 30
0.0
 40
4.0
100
AcDbArc
 50
180.0000050000001
 51
270.0000009999997
  0
LINE
  5
6791
330
1A
100
AcDbEntity
  8
0
  6
CONTINUOUS
 62
     2
100
AcDbLine
 10
260.0988278995389
 20
503.5383940984231
 30
0.0
 11
253.0988278995389
 21
503.5383940984231
 31
0.0
  0
LINE
  5
6792
330
1A
100
AcDbEntity
  8
0
  6
CONTINUOUS
 62
     2
100
AcDbLine
 10
260.0988278995389
 20
489.5383940984231
 30
0.0
 11
253.0988278995389
 21
489.5383940984231
 31
0.0
  0
LINE
  5
6793
330
1A
100
AcDbEntity
  8
225
  6
CENTER
 62
     3
100
AcDbLine
 10
269.0988278995389
 20
496.5383940984231
 30
0.0
 11
251.0988278995389
 21
496.5383940984231
 31
0.0
  0
LINE
  5
6794
330
1A
100
AcDbEntity
  8
225
  6
CENTER
 62
     3
100
AcDbLine
 10
248.0988278995389
 20
474.0383940984231
 30
0.0
 11
486.098858899539
 21
474.0383940984231
 31
0.0
  0
CIRCLE
  5
6795
330
1A
100
AcDbEntity
  8
150
  6
CENTER
100
AcDbCircle
 10
260.0988368995389
 20
496.5384030984232
 30
0.0
 40
6.5
  0
LINE
  5
6796
330
1A
100
AcDbEntity
  8
210
  6
CONTINUOUS
 62
     4
100
AcDbLine
 10
252.0988358995389
 20
531.0384210984231
 30
0.0
 11
252.0988358995389
 21
578.1009520984231
 31
0.0
  0
LINE
  5
6797
330
1A
100
AcDbEntity
  8
210
  6
CONTINUOUS
 62
     4
100
AcDbLine
 10
233.0988358995389
 20
496.5383910984232
 30
0.0
 11
233.0988358995389
 21
451.5383910984232
 31
0.0
  0
LINE
  5
6798
330
1A
100
AcDbEntity
  8
210
  6
CONTINUOUS
 62
     4
100
AcDbLine
 10
213.0988358995389
 20
534.0384210984232
 30
0.0
 11
213.0988358995389
 21
414.0383910984231
 31
0.0
  0
LINE
  5
6799
330
1A
100
AcDbEntity
  8
0
  6
CONTINUOUS
 62
     2
100
AcDbLine
 10
252.0988278995389
 20
418.0383940984232
 30
0.0
 11
252.0988278995389
 21
530.0384250984231
 31
0.0
  0
LINE
  5
679A
330
1A
100
AcDbEntity
  8
210
  6
CONTINUOUS
 62
     4
100
AcDbLine
 10
213.0988358995389
 20
414.0383910984231
 30
0.0
 11
212.7655028995389
 21
416.0104170984231
 31
0.0
  0
LINE
  5
679B
330
1A
100
AcDbEntity
  8
210
  6
CONTINUOUS
 62
     4
100
AcDbLine
 10
213.0988358995389
 20
414.0383910984231
 30
0.0
 11
213.4321688995389
 21
416.0104170984231
 31
0.0
  0
LINE
  5
679C
330
1A
100
AcDbEntity
  8
210
  6
CONTINUOUS
 62
     4
100
AcDbLine
 10
233.0988358995389
 20
451.5383910984232
 30
0.0
 11
232.7655028995389
 21
453.5104170984232
 31
0.0
  0
LINE
  5
679D
330
1A
100
AcDbEntity
  8
210
  6
CONTINUOUS
 62
     4
100
AcDbLine
 10
233.0988358995389
 20
451.5383910984232
 30
0.0
 11
233.4321688995389
 21
453.5104170984232
 31
0.0
  0
TEXT
  5
679E
330
1A
100
AcDbEntity
  8
210
  6
CONTINUOUS
 62
     4
100
AcDbText
 10
209.9738358995389
 20
468.4550870984232
 30
0.0
 40
5.0
  1
120
 50
90.00000300000095
100
AcDbText
  0
TEXT
  5
679F
330
1A
100
AcDbEntity
  8
210
  6
CONTINUOUS
 62
     4
100
AcDbText
 10
229.9738358995389
 20
469.4133900984232
 30
0.0
 40
5.0
  1
45
 50
90.00000300000095
100
AcDbText
  0
TEXT
  5
67A0
330
1A
100
AcDbEntity
  8
230
  6
CONTINUOUS
 62
     6
100
AcDbText
 10
244.0996298995389
 20
471.2435300984232
 30
0.0
 40
5.0
  1
L
100
AcDbText
  0
TEXT
  5
67A1
330
1A
100
AcDbEntity
  8
230
  6
CONTINUOUS
 62
     6
100
AcDbText
 10
242.3493238995389
 20
472.9938040984231
 30
0.0
 40
5.0
  1
H
100
AcDbText
  0
LINE
  5
67A2
330
1A
100
AcDbEntity
  8
210
  6
CONTINUOUS
 62
     4
100
AcDbLine
 10
250.9116258995389
 20
496.5383910984232
 30
0.0
 11
229.0363358995389
 21
496.5383910984232
 31
0.0
  0
LINE
  5
67A3
330
1A
100
AcDbEntity
  8
210
  6
CONTINUOUS
 62
     4
100
AcDbLine
 10
233.0988358995389
 20
496.5383910984232
 30
0.0
 11
232.7655028995389
 21
494.5663640984231
 31
0.0
  0
LINE
  5
67A4
330
1A
100
AcDbEntity
  8
210
  6
CONTINUOUS
 62
     4
100
AcDbLine
 10
233.0988358995389
 20
496.5383910984232
 30
0.0
 11
233.4321688995389
 21
494.5663640984231
 31
0.0
  0
ARC
  5
67A5
330
1A
100
AcDbEntity
  8
0
  6
CONTINUOUS
 62
     2
100
AcDbCircle
 10
253.0988278995389
 20
488.5383940984231
 30
0.0
 40
1.0
100
AcDbArc
 50
90.0
 51
180.0000030000001
  0
ARC
  5
67A6
330
1A
100
AcDbEntity
  8
0
  6
CONTINUOUS
 62
     2
100
AcDbCircle
 10
253.0988278995389
 20
504.5383940984232
 30
0.0
 40
1.0
100
AcDbArc
 50
180.0000050000001
 51
270.0000009999997
  0
LINE
  5
67A7
330
1A
100
AcDbEntity
  8
210
  6
CONTINUOUS
 62
     4
100
AcDbLine
 10
213.0988358995389
 20
534.0384210984232
 30
0.0
 11
212.7655028995389
 21
532.0663950984233
 31
0.0
  0
LINE
  5
67A8
330
1A
100
AcDbEntity
  8
210
  6
CONTINUOUS
 62
     4
100
AcDbLine
 10
213.0988358995389
 20
534.0384210984232
 30
0.0
 11
213.4321688995389
 21
532.0663950984233
 31
0.0
  0
LINE
  5
67AA
330
1A
100
AcDbEntity
  8
210
  6
CONTINUOUS
 62
     4
100
AcDbLine
 10
252.0988358995389
 20
574.0384520984231
 30
0.0
 11
254.0708628995389
 21
573.7051180984232
 31
0.0
  0
LINE
  5
67AB
330
1A
100
AcDbEntity
  8
210
  6
CONTINUOUS
 62
     4
100
AcDbLine
 10
252.0988358995389
 20
574.0384520984231
 30
0.0
 11
254.0708628995389
 21
574.3717850984231
 31
0.0
  0
LINE
  5
67AC
330
1A
100
AcDbEntity
  8
210
  6
CONTINUOUS
 62
     4
100
AcDbLine
 10
474.0988968995388
 20
460.7255850984231
 30
0.0
 11
474.0988968995388
 21
557.8695060984231
 31
0.0
  0
LINE
  5
67AD
330
1A
100
AcDbEntity
  8
210
  6
CONTINUOUS
 62
     4
100
AcDbLine
 10
260.0988358995389
 20
505.7255550984232
 30
0.0
 11
260.0988358995389
 21
557.8695060984231
 31
0.0
  0
LINE
  5
67AE
330
1A
100
AcDbEntity
  8
210
  6
CONTINUOUS
 62
     4
100
AcDbLine
 10
482.0988668995389
 20
531.0384210984231
 30
0.0
 11
482.0988668995389
 21
578.1009520984231
 31
0.0
  0
LINE
  5
67AF
330
1A
100
AcDbEntity
  8
210
  6
CONTINUOUS
 62
     4
100
AcDbLine
 10
367.0988668995389
 20
399.0482780984231
 30
0.0
 11
439.0988668995389
 21
399.0482780984231
 31
0.0
  0
LINE
  5
67B0
330
1A
100
AcDbEntity
  8
0
  6
CONTINUOUS
 62
     2
100
AcDbLine
 10
343.0988588995389
 20
524.0383940984231
 30
0.0
 11
391.0988588995389
 21
524.0383940984231
 31
0.0
  0
LINE
  5
67B1
330
1A
100
AcDbEntity
  8
0
  6
CONTINUOUS
 62
     2
100
AcDbLine
 10
343.0988588995389
 20
424.0383940984232
 30
0.0
 11
391.0988588995389
 21
424.0383940984232
 31
0.0
  0
LINE
  5
67B2
330
1A
100
AcDbEntity
  8
0
  6
CONTINUOUS
 62
     2
100
AcDbLine
 10
391.0988588995389
 20
463.0383940984232
 30
0.0
 11
343.0988588995389
 21
463.0383940984232
 31
0.0
  0
LINE
  5
67B3
330
1A
100
AcDbEntity
  8
0
  6
CONTINUOUS
 62
     2
100
AcDbLine
 10
256.0988278995389
 20
414.0383940984232
 30
0.0
 11
478.098858899539
 21
414.0383940984232
 31
0.0
  0
LINE
  5
67B4
330
1A
100
AcDbEntity
  8
0
  6
CONTINUOUS
 62
     2
100
AcDbLine
 10
256.0988278995389
 20
534.0384250984231
 30
0.0
 11
478.098858899539
 21
534.0384250984231
 31
0.0
  0
LINE
  5
67B5
330
1A
100
AcDbEntity
  8
0
  6
CONTINUOUS
 62
     2
100
AcDbLine
 10
343.0988588995389
 20
485.0383940984231
 30
0.0
 11
391.0988588995389
 21
485.0383940984231
 31
0.0
  0
LINE
  5
67B6
330
1A
100
AcDbEntity
  8
0
  6
CONTINUOUS
 62
     2
100
AcDbLine
 10
289.5988588995389
 20
421.5383940984231
 30
0.0
 11
444.598858899539
 21
421.5383940984231
 31
0.0
  0
LINE
  5
67B7
330
1A
100
AcDbEntity
  8
0
  6
CONTINUOUS
 62
     2
100
AcDbLine
 10
289.5988588995389
 20
526.5384250984232
 30
0.0
 11
444.598858899539
 21
526.5384250984232
 31
0.0
  0
LINE
  5
67B8
330
1A
100
AcDbEntity
  8
0
  6
CONTINUOUS
 62
     2
100
AcDbLine
 10
279.5988588995389
 20
526.0384250984231
 30
0.0
 11
279.5988588995389
 21
422.0383940984232
 31
0.0
  0
LINE
  5
67B9
330
1A
100
AcDbEntity
  8
225
  6
CENTER
 62
     3
100
AcDbLine
 10
304.0988588995389
 20
450.0383940984232
 30
0.0
 11
304.0988588995389
 21
463.0383940984232
 31
0.0
  0
LINE
  5
67BA
330
1A
100
AcDbEntity
  8
225
  6
CENTER
 62
     3
100
AcDbLine
 10
367.0988588995389
 20
544.0384250984232
 30
0.0
 11
367.0988588995389
 21
414.0383940984232
 31
0.0
  0
LINE
  5
67BB
330
1A
100
AcDbEntity
  8
0
  6
CONTINUOUS
 62
     2
100
AcDbLine
 10
342.0988588995389
 20
523.0383940984231
 30
0.0
 11
342.0988588995389
 21
425.0383940984232
 31
0.0
  0
CIRCLE
  5
67BC
330
1A
100
AcDbEntity
  8
150
  6
CONTINUOUS
100
AcDbCircle
 10
304.0988888995389
 20
456.5383940984231
 30
0.0
 40
4.5
  0
LINE
  5
67BD
330
1A
100
AcDbEntity
  8
0
  6
CONTINUOUS
 62
     2
100
AcDbLine
 10
316.0988588995389
 20
421.5383940984231
 30
0.0
 11
316.0988588995389
 21
526.5384250984233
 31
0.0
  0
LINE
  5
67BE
330
1A
100
AcDbEntity
  8
150
  6
CONTINUOUS
100
AcDbLine
 10
284.5988588995389
 20
462.2883940984231
 30
0.0
 11
284.5988588995389
 21
450.7883940984232
 31
0.0
  0
LINE
  5
67BF
330
1A
100
AcDbEntity
  8
150
  6
CONTINUOUS
100
AcDbLine
 10
285.5988588995389
 20
423.0383640984232
 30
0.0
 11
289.5988588995389
 21
423.0383640984232
 31
0.0
  0
LINE
  5
67C0
330
1A
100
AcDbEntity
  8
150
  6
CONTINUOUS
100
AcDbLine
 10
284.5988588995389
 20
427.2883940984232
 30
0.0
 11
305.0988588995389
 21
427.2883940984232
 31
0.0
  0
LINE
  5
67C1
330
1A
100
AcDbEntity
  8
150
  6
CONTINUOUS
100
AcDbLine
 10
284.5988588995389
 20
450.7883940984232
 30
0.0
 11
305.0988588995389
 21
450.7883940984232
 31
0.0
  0
LINE
  5
67C2
330
1A
100
AcDbEntity
  8
0
  6
CONTINUOUS
 62
     2
100
AcDbLine
 10
279.5988588995389
 20
422.0383940984232
 30
0.0
 11
289.5988588995388
 21
422.0383940984231
 31
0.0
  0
LINE
  5
67C3
330
1A
100
AcDbEntity
  8
225
  6
CENTER
 62
     3
100
AcDbLine
 10
285.5988888995389
 20
439.0383940984232
 30
0.0
 11
304.5988588995389
 21
439.0383940984232
 31
0.0
  0
LINE
  5
67C4
330
1A
100
AcDbEntity
  8
150
  6
HIDDEN2
 62
     7
100
AcDbLine
 10
284.5988588995389
 20
450.7883940984232
 30
0.0
 11
284.5988588995389
 21
427.2883940984232
 31
0.0
  0
ARC
  5
67C5
330
1A
100
AcDbEntity
  8
150
  6
CONTINUOUS
100
AcDbCircle
 10
285.5988588995389
 20
424.0383640984232
 30
0.0
 40
1.0
100
AcDbArc
 50
179.9999949999999
 51
269.999996999999
  0
LINE
  5
67C6
330
1A
100
AcDbEntity
  8
0
  6
CONTINUOUS
 62
     2
100
AcDbLine
 10
273.5988588995389
 20
427.0383940984232
 30
0.0
 11
279.5988588995389
 21
427.0383940984232
 31
0.0
  0
LINE
  5
67C7
330
1A
100
AcDbEntity
  8
0
  6
CONTINUOUS
 62
     2
100
AcDbLine
 10
273.5988588995389
 20
430.0383940984231
 30
0.0
 11
279.5988588995389
 21
430.0383940984231
 31
0.0
  0
LINE
  5
67C8
330
1A
100
AcDbEntity
  8
0
  6
CONTINUOUS
 62
     2
100
AcDbLine
 10
273.5988588995389
 20
427.0383940984232
 30
0.0
 11
273.5988588995389
 21
430.0383940984231
 31
0.0
  0
LINE
  5
67C9
330
1A
100
AcDbEntity
  8
150
  6
CONTINUOUS
100
AcDbLine
 10
284.5988588995389
 20
427.2883940984232
 30
0.0
 11
284.5988588995389
 21
424.0383640984232
 31
0.0
  0
LINE
  5
67CA
330
1A
100
AcDbEntity
  8
150
  6
CONTINUOUS
100
AcDbLine
 10
306.0988588995389
 20
428.2883940984232
 30
0.0
 11
306.0988588995389
 21
449.7883940984232
 31
0.0
  0
LINE
  5
67CB
330
1A
100
AcDbEntity
  8
225
  6
CENTER
 62
     3
100
AcDbLine
 10
295.0988588995389
 20
429.5383940984232
 30
0.0
 11
295.0988588995389
 21
448.5383940984232
 31
0.0
  0
CIRCLE
  5
67CC
330
1A
100
AcDbEntity
  8
150
  6
CONTINUOUS
 62
     7
100
AcDbCircle
 10
295.0988588995389
 20
439.0383940984232
 30
0.0
 40
6.5
  0
CIRCLE
  5
67CD
330
1A
100
AcDbEntity
  8
150
  6
CONTINUOUS
 62
     7
100
AcDbCircle
 10
295.0988588995389
 20
439.0383940984232
 30
0.0
 40
5.0
  0
LINE
  5
67CE
330
1A
100
AcDbEntity
  8
150
  6
CONTINUOUS
100
AcDbLine
 10
289.5988588995388
 20
422.0383940984231
 30
0.0
 11
289.5988588995389
 21
423.0383640984232
 31
0.0
  0
ARC
  5
67CF
330
1A
100
AcDbEntity
  8
150
  6
CONTINUOUS
100
AcDbCircle
 10
305.0988588995389
 20
428.2883940984232
 30
0.0
 40
1.0
100
AcDbArc
 50
270.0
 51
0.0000090000000101
  0
LINE
  5
67D0
330
1A
100
AcDbEntity
  8
225
  6
CENTER
 62
     3
100
AcDbLine
 10
297.5988888995388
 20
456.5383940984231
 30
0.0
 11
310.5988888995389
 21
456.5383940984231
 31
0.0
  0
LINE
  5
67D1
330
1A
100
AcDbEntity
  8
150
  6
CONTINUOUS
 62
     7
100
AcDbLine
 10
295.0988588995389
 20
436.1516450984232
 30
0.0
 11
297.5988588995389
 21
437.5950040984232
 31
0.0
  0
LINE
  5
67D2
330
1A
100
AcDbEntity
  8
150
  6
CONTINUOUS
 62
     7
100
AcDbLine
 10
297.5988588995389
 20
440.4817840984232
 30
0.0
 11
295.0988588995389
 21
441.9251440984232
 31
0.0
  0
LINE
  5
67D3
330
1A
100
AcDbEntity
  8
150
  6
CONTINUOUS
 62
     7
100
AcDbLine
 10
292.5988588995389
 20
440.4817840984232
 30
0.0
 11
292.5988588995389
 21
437.5950040984232
 31
0.0
  0
LINE
  5
67D4
330
1A
100
AcDbEntity
  8
150
  6
CONTINUOUS
 62
     7
100
AcDbLine
 10
292.5988588995389
 20
437.5950040984232
 30
0.0
 11
295.0988588995389
 21
436.1516450984232
 31
0.0
  0
LINE
  5
67D5
330
1A
100
AcDbEntity
  8
150
  6
CONTINUOUS
 62
     7
100
AcDbLine
 10
295.0988588995389
 20
441.9251440984232
 30
0.0
 11
292.5988588995389
 21
440.4817840984232
 31
0.0
  0
LINE
  5
67D6
330
1A
100
AcDbEntity
  8
150
  6
CONTINUOUS
 62
     7
100
AcDbLine
 10
297.5988588995389
 20
437.5950040984232
 30
0.0
 11
297.5988588995389
 21
440.4817840984232
 31
0.0
  0
ARC
  5
67D7
330
1A
100
AcDbEntity
  8
150
  6
CONTINUOUS
100
AcDbCircle
 10
305.0988588995389
 20
449.7883940984232
 30
0.0
 40
1.0
100
AcDbArc
 50
0.0
 51
90.00000300000095
  0
LINE
  5
67D8
330
1A
100
AcDbEntity
  8
210
  6
CONTINUOUS
 62
     4
100
AcDbLine
 10
367.0988668995389
 20
413.8511960984232
 30
0.0
 11
367.0988668995389
 21
394.9857780984231
 31
0.0
  0
LINE
  5
67D9
330
1A
100
AcDbEntity
  8
210
  6
CONTINUOUS
 62
     4
100
AcDbLine
 10
367.0988668995389
 20
399.0482780984231
 30
0.0
 11
369.0708928995389
 21
398.7149450984231
 31
0.0
  0
LINE
  5
67DA
330
1A
100
AcDbEntity
  8
210
  6
CONTINUOUS
 62
     4
100
AcDbLine
 10
367.0988668995389
 20
399.0482780984231
 30
0.0
 11
369.0708928995389
 21
399.3816120984232
 31
0.0
  0
ARC
  5
67DB
330
1A
100
AcDbEntity
  8
0
  6
CONTINUOUS
 62
     2
100
AcDbCircle
 10
343.0988588995389
 20
425.0383940984232
 30
0.0
 40
1.0
100
AcDbArc
 50
180.0000050000001
 51
270.0000009999997
  0
LINE
  5
67DC
330
1A
100
AcDbEntity
  8
150
  6
CONTINUOUS
100
AcDbLine
 10
306.0988588995389
 20
498.2883940984232
 30
0.0
 11
306.0988588995389
 21
519.7883940984231
 31
0.0
  0
LINE
  5
67DD
330
1A
100
AcDbEntity
  8
225
  6
CENTER
 62
     3
100
AcDbLine
 10
260.0988278995389
 20
505.5383640984231
 30
0.0
 11
260.0988278995389
 21
487.5383640984232
 31
0.0
  0
LINE
  5
67DE
330
1A
100
AcDbEntity
  8
225
  6
CENTER
 62
     3
100
AcDbLine
 10
295.0988588995389
 20
499.5383940984232
 30
0.0
 11
295.0988588995389
 21
518.5384250984232
 31
0.0
  0
CIRCLE
  5
67DF
330
1A
100
AcDbEntity
  8
150
  6
CONTINUOUS
 62
     7
100
AcDbCircle
 10
295.0988588995389
 20
509.0383940984231
 30
0.0
 40
6.5
  0
CIRCLE
  5
67E0
330
1A
100
AcDbEntity
  8
150
  6
CONTINUOUS
 62
     7
100
AcDbCircle
 10
295.0988588995389
 20
509.0383940984231
 30
0.0
 40
5.0
  0
LINE
  5
67E1
330
1A
100
AcDbEntity
  8
150
  6
HIDDEN2
 62
     7
100
AcDbLine
 10
284.5988588995389
 20
520.7883940984231
 30
0.0
 11
284.5988588995389
 21
497.2883940984231
 31
0.0
  0
LINE
  5
67E2
330
1A
100
AcDbEntity
  8
150
  6
CONTINUOUS
100
AcDbLine
 10
284.5988588995389
 20
497.2883940984231
 30
0.0
 11
305.0988588995389
 21
497.2883940984231
 31
0.0
  0
LINE
  5
67E3
330
1A
100
AcDbEntity
  8
150
  6
CONTINUOUS
100
AcDbLine
 10
284.5988588995389
 20
485.7883940984232
 30
0.0
 11
305.0988588995389
 21
485.7883940984232
 31
0.0
  0
LINE
  5
67E4
330
1A
100
AcDbEntity
  8
150
  6
CONTINUOUS
100
AcDbLine
 10
284.5988588995389
 20
462.2883940984231
 30
0.0
 11
305.0988588995389
 21
462.2883940984231
 31
0.0
  0
LINE
  5
67E5
330
1A
100
AcDbEntity
  8
225
  6
CENTER
 62
     3
100
AcDbLine
 10
285.5988888995389
 20
474.0383940984231
 30
0.0
 11
304.5988588995389
 21
474.0383940984231
 31
0.0
  0
LINE
  5
67E6
330
1A
100
AcDbEntity
  8
150
  6
HIDDEN2
 62
     7
100
AcDbLine
 10
284.5988588995389
 20
485.7883940984232
 30
0.0
 11
284.5988588995389
 21
462.2883940984231
 31
0.0
  0
ARC
  5
67E7
330
1A
100
AcDbEntity
  8
0
  6
CONTINUOUS
 62
     2
100
AcDbCircle
 10
260.0988278995389
 20
496.5383940984231
 30
0.0
 40
7.0
100
AcDbArc
 50
270.0
 51
89.99999100000039
  0
CIRCLE
  5
67E8
330
1A
100
AcDbEntity
  8
150
  6
CENTER
100
AcDbCircle
 10
260.0988368995389
 20
496.5384030984232
 30
0.0
 40
5.25
  0
LINE
  5
67E9
330
1A
100
AcDbEntity
  8
150
  6
CONTINUOUS
100
AcDbLine
 10
257.3411228995388
 20
494.8413420984231
 30
0.0
 11
258.4017758995389
 21
493.7806730984231
 31
0.0
  0
LINE
  5
67EA
330
1A
100
AcDbEntity
  8
150
  6
CONTINUOUS
100
AcDbLine
 10
258.5078398995388
 20
496.0080600984231
 30
0.0
 11
257.3411228995388
 21
494.8413420984231
 31
0.0
  0
LINE
  5
67EB
330
1A
100
AcDbEntity
  8
150
  6
CONTINUOUS
100
AcDbLine
 10
257.3411228995388
 20
498.2354460984232
 30
0.0
 11
258.5078398995388
 21
497.0687290984232
 31
0.0
  0
LINE
  5
67EC
330
1A
100
AcDbEntity
  8
150
  6
CONTINUOUS
100
AcDbLine
 10
258.4017758995389
 20
499.2961150984232
 30
0.0
 11
257.3411228995388
 21
498.2354460984232
 31
0.0
  0
LINE
  5
67ED
330
1A
100
AcDbEntity
  8
150
  6
CONTINUOUS
100
AcDbLine
 10
259.5684938995389
 20
498.1293980984231
 30
0.0
 11
258.4017758995389
 21
499.2961150984232
 31
0.0
  0
LINE
  5
67EE
330
1A
100
AcDbEntity
  8
150
  6
CONTINUOUS
100
AcDbLine
 10
261.7958798995389
 20
499.2961150984232
 30
0.0
 11
260.6291628995389
 21
498.1293980984231
 31
0.0
  0
LINE
  5
67EF
330
1A
100
AcDbEntity
  8
150
  6
CONTINUOUS
100
AcDbLine
 10
262.8565488995389
 20
498.2354460984232
 30
0.0
 11
261.7958798995389
 21
499.2961150984232
 31
0.0
  0
ARC
  5
67F0
330
1A
100
AcDbEntity
  8
150
  6
CONTINUOUS
100
AcDbCircle
 10
262.2201578995388
 20
496.5384020984231
 30
0.0
 40
0.75
100
AcDbArc
 50
134.9999859999998
 51
224.9999879999993
  0
ARC
  5
67F1
330
1A
100
AcDbEntity
  8
150
  6
CONTINUOUS
100
AcDbCircle
 10
260.0988368995389
 20
494.4170820984232
 30
0.0
 40
0.75
100
AcDbArc
 50
44.99998299999965
 51
134.9999859999998
  0
ARC
  5
67F2
330
1A
100
AcDbEntity
  8
150
  6
CONTINUOUS
100
AcDbCircle
 10
257.9775168995389
 20
496.5384030984232
 30
0.0
 40
0.75
100
AcDbArc
 50
314.9999839999996
 51
44.99999300000019
  0
ARC
  5
67F3
330
1A
100
AcDbEntity
  8
150
  6
CONTINUOUS
100
AcDbCircle
 10
260.0988378995389
 20
498.6597230984231
 30
0.0
 40
0.75
100
AcDbArc
 50
224.9999879999993
 51
314.9999839999996
  0
LINE
  5
67F4
330
1A
100
AcDbEntity
  8
150
  6
CONTINUOUS
100
AcDbLine
 10
261.6898318995389
 20
497.0687290984232
 30
0.0
 11
262.8565488995389
 21
498.2354460984232
 31
0.0
  0
LINE
  5
67F5
330
1A
100
AcDbEntity
  8
150
  6
CONTINUOUS
100
AcDbLine
 10
262.8565488995389
 20
494.8413420984231
 30
0.0
 11
261.6898318995389
 21
496.0080600984231
 31
0.0
  0
LINE
  5
67F6
330
1A
100
AcDbEntity
  8
150
  6
CONTINUOUS
100
AcDbLine
 10
261.7958798995389
 20
493.7806730984231
 30
0.0
 11
262.8565488995389
 21
494.8413420984231
 31
0.0
  0
LINE
  5
67F7
330
1A
100
AcDbEntity
  8
150
  6
CONTINUOUS
100
AcDbLine
 10
260.6291628995389
 20
494.9473910984232
 30
0.0
 11
261.7958798995389
 21
493.7806730984231
 31
0.0
  0
LINE
  5
67F8
330
1A
100
AcDbEntity
  8
150
  6
CONTINUOUS
100
AcDbLine
 10
258.4017758995389
 20
493.7806730984231
 30
0.0
 11
259.5684938995389
 21
494.9473910984232
 31
0.0
  0
LINE
  5
67F9
330
1A
100
AcDbEntity
  8
150
  6
CONTINUOUS
100
AcDbLine
 10
284.5988588995389
 20
497.2883940984231
 30
0.0
 11
284.5988588995389
 21
485.7883940984232
 31
0.0
  0
LINE
  5
67FA
330
1A
100
AcDbEntity
  8
150
  6
CONTINUOUS
100
AcDbLine
 10
306.0988588995389
 20
484.7883940984231
 30
0.0
 11
306.0988588995389
 21
463.2883940984231
 31
0.0
  0
LINE
  5
67FB
330
1A
100
AcDbEntity
  8
225
  6
CENTER
 62
     3
100
AcDbLine
 10
295.0988588995389
 20
464.5383940984231
 30
0.0
 11
295.0988588995389
 21
483.5383940984232
 31
0.0
  0
CIRCLE
  5
67FC
330
1A
100
AcDbEntity
  8
150
  6
CONTINUOUS
 62
     7
100
AcDbCircle
 10
295.0988588995389
 20
474.0383940984231
 30
0.0
 40
5.0
  0
CIRCLE
  5
67FD
330
1A
100
AcDbEntity
  8
150
  6
CONTINUOUS
 62
     7
100
AcDbCircle
 10
295.0988588995389
 20
474.0383940984231
 30
0.0
 40
6.5
  0
LINE
  5
67FE
330
1A
100
AcDbEntity
  8
150
  6
CONTINUOUS
 62
     7
100
AcDbLine
 10
297.5988588995389
 20
475.4817840984231
 30
0.0
 11
295.0988588995389
 21
476.9251440984231
 31
0.0
  0
LINE
  5
67FF
330
1A
100
AcDbEntity
  8
150
  6
CONTINUOUS
 62
     7
100
AcDbLine
 10
295.0988588995389
 20
471.1516450984232
 30
0.0
 11
297.5988588995389
 21
472.5950040984232
 31
0.0
  0
LINE
  5
6800
330
1A
100
AcDbEntity
  8
150
  6
CONTINUOUS
 62
     7
100
AcDbLine
 10
295.0988588995389
 20
476.9251440984231
 30
0.0
 11
292.5988588995389
 21
475.4817840984231
 31
0.0
  0
LINE
  5
6801
330
1A
100
AcDbEntity
  8
150
  6
CONTINUOUS
 62
     7
100
AcDbLine
 10
292.5988588995389
 20
472.5950040984232
 30
0.0
 11
295.0988588995389
 21
471.1516450984232
 31
0.0
  0
LINE
  5
6802
330
1A
100
AcDbEntity
  8
150
  6
CONTINUOUS
 62
     7
100
AcDbLine
 10
292.5988588995389
 20
475.4817840984231
 30
0.0
 11
292.5988588995389
 21
472.5950040984232
 31
0.0
  0
LINE
  5
6803
330
1A
100
AcDbEntity
  8
150
  6
CONTINUOUS
 62
     7
100
AcDbLine
 10
297.5988588995389
 20
472.5950040984232
 30
0.0
 11
297.5988588995389
 21
475.4817840984231
 31
0.0
  0
ARC
  5
6804
330
1A
100
AcDbEntity
  8
150
  6
CONTINUOUS
100
AcDbCircle
 10
305.0988588995389
 20
463.2883940984231
 30
0.0
 40
1.0
100
AcDbArc
 50
270.0
 51
0.0000030000001391
  0
LINE
  5
6805
330
1A
100
AcDbEntity
  8
225
  6
CENTER
 62
     3
100
AcDbLine
 10
297.5988888995388
 20
491.5383940984232
 30
0.0
 11
310.5988888995389
 21
491.5383940984232
 31
0.0
  0
CIRCLE
  5
6806
330
1A
100
AcDbEntity
  8
150
  6
CONTINUOUS
100
AcDbCircle
 10
304.0988888995389
 20
491.5383940984232
 30
0.0
 40
4.5
  0
LINE
  5
6807
330
1A
100
AcDbEntity
  8
225
  6
CENTER
 62
     3
100
AcDbLine
 10
304.0988588995389
 20
498.0383940984231
 30
0.0
 11
304.0988588995389
 21
485.0383940984231
 31
0.0
  0
ARC
  5
6808
330
1A
100
AcDbEntity
  8
150
  6
CONTINUOUS
100
AcDbCircle
 10
305.0988588995389
 20
484.7883940984231
 30
0.0
 40
1.0
100
AcDbArc
 50
359.9999899999998
 51
89.99999900000023
  0
ARC
  5
6809
330
1A
100
AcDbEntity
  8
150
  6
CONTINUOUS
100
AcDbCircle
 10
305.0988588995389
 20
498.2883940984232
 30
0.0
 40
1.0
100
AcDbArc
 50
270.0
 51
0.0000090000000101
  0
LINE
  5
680A
330
1A
100
AcDbEntity
  8
150
  6
CONTINUOUS
100
AcDbLine
 10
284.5988588995389
 20
520.7883940984231
 30
0.0
 11
305.0988588995389
 21
520.7883940984231
 31
0.0
  0
LINE
  5
680B
330
1A
100
AcDbEntity
  8
0
  6
CONTINUOUS
 62
     2
100
AcDbLine
 10
279.5988588995389
 20
526.0384250984231
 30
0.0
 11
289.5988588995388
 21
526.0384250984231
 31
0.0
  0
LINE
  5
680C
330
1A
100
AcDbEntity
  8
225
  6
CENTER
 62
     3
100
AcDbLine
 10
285.5988888995389
 20
509.0383940984231
 30
0.0
 11
304.5988588995389
 21
509.0383940984231
 31
0.0
  0
LINE
  5
680D
330
1A
100
AcDbEntity
  8
150
  6
CONTINUOUS
100
AcDbLine
 10
285.5988588995389
 20
525.0384250984232
 30
0.0
 11
289.5988588995389
 21
525.0384250984232
 31
0.0
  0
LINE
  5
680E
330
1A
100
AcDbEntity
  8
0
  6
CONTINUOUS
 62
     2
100
AcDbLine
 10
273.5988588995389
 20
518.0383940984231
 30
0.0
 11
279.5988588995389
 21
518.0383940984231
 31
0.0
  0
LINE
  5
680F
330
1A
100
AcDbEntity
  8
0
  6
CONTINUOUS
 62
     2
100
AcDbLine
 10
273.5988588995389
 20
521.0383940984232
 30
0.0
 11
279.5988588995389
 21
521.0383940984232
 31
0.0
  0
LINE
  5
6810
330
1A
100
AcDbEntity
  8
0
  6
CONTINUOUS
 62
     2
100
AcDbLine
 10
273.5988588995389
 20
518.0383940984231
 30
0.0
 11
273.5988588995389
 21
521.0383940984232
 31
0.0
  0
LINE
  5
6811
330
1A
100
AcDbEntity
  8
150
  6
CONTINUOUS
100
AcDbLine
 10
284.5988588995389
 20
524.0384250984232
 30
0.0
 11
284.5988588995389
 21
520.7883940984231
 31
0.0
  0
ARC
  5
6812
330
1A
100
AcDbEntity
  8
150
  6
CONTINUOUS
100
AcDbCircle
 10
285.5988588995389
 20
524.0384250984232
 30
0.0
 40
1.0
100
AcDbArc
 50
90.0
 51
180.0000030000001
  0
LINE
  5
6813
330
1A
100
AcDbEntity
  8
150
  6
CONTINUOUS
 62
     7
100
AcDbLine
 10
297.5988588995389
 20
510.4817840984232
 30
0.0
 11
295.0988588995389
 21
511.9251440984231
 31
0.0
  0
LINE
  5
6814
330
1A
100
AcDbEntity
  8
150
  6
CONTINUOUS
 62
     7
100
AcDbLine
 10
295.0988588995389
 20
506.1516450984232
 30
0.0
 11
297.5988588995389
 21
507.5950040984231
 31
0.0
  0
LINE
  5
6815
330
1A
100
AcDbEntity
  8
150
  6
CONTINUOUS
 62
     7
100
AcDbLine
 10
295.0988588995389
 20
511.9251440984231
 30
0.0
 11
292.5988588995389
 21
510.4817840984232
 31
0.0
  0
LINE
  5
6816
330
1A
100
AcDbEntity
  8
150
  6
CONTINUOUS
 62
     7
100
AcDbLine
 10
292.5988588995389
 20
507.5950040984231
 30
0.0
 11
295.0988588995389
 21
506.1516450984232
 31
0.0
  0
LINE
  5
6817
330
1A
100
AcDbEntity
  8
150
  6
CONTINUOUS
 62
     7
100
AcDbLine
 10
292.5988588995389
 20
510.4817840984232
 30
0.0
 11
292.5988588995389
 21
507.5950040984231
 31
0.0
  0
LINE
  5
6818
330
1A
100
AcDbEntity
  8
150
  6
CONTINUOUS
 62
     7
100
AcDbLine
 10
297.5988588995389
 20
507.5950040984231
 30
0.0
 11
297.5988588995389
 21
510.4817840984232
 31
0.0
  0
LINE
  5
6819
330
1A
100
AcDbEntity
  8
150
  6
CONTINUOUS
100
AcDbLine
 10
289.5988588995388
 20
526.0384250984231
 30
0.0
 11
289.5988588995389
 21
525.0384250984232
 31
0.0
  0
ARC
  5
681A
330
1A
100
AcDbEntity
  8
150
  6
CONTINUOUS
100
AcDbCircle
 10
305.0988588995389
 20
519.7883940984231
 30
0.0
 40
1.0
100
AcDbArc
 50
0.0
 51
90.00000300000095
  0
LINE
  5
681B
330
1A
100
AcDbEntity
  8
0
  6
CONTINUOUS
 62
     2
100
AcDbLine
 10
347.9220098995389
 20
467.0383940984232
 30
0.0
 11
362.2360048995389
 21
467.0383940984232
 31
0.0
  0
LINE
  5
681C
330
1A
100
AcDbEntity
  8
0
  6
CONTINUOUS
 62
     2
100
AcDbLine
 10
347.9220098995389
 20
481.0383940984231
 30
0.0
 11
362.2360048995389
 21
481.0383940984231
 31
0.0
  0
ARC
  5
681D
330
1A
100
AcDbEntity
  8
0
  6
CONTINUOUS
 62
     2
100
AcDbCircle
 10
352.9470648995389
 20
480.0383940984231
 30
0.0
 40
1.0
100
AcDbArc
 50
0.0
 51
90.00000300000095
  0
ARC
  5
681E
330
1A
100
AcDbEntity
  8
0
  6
CONTINUOUS
 62
     2
100
AcDbCircle
 10
352.9470648995389
 20
468.0383940984231
 30
0.0
 40
1.0
100
AcDbArc
 50
270.0
 51
0.0000090000000101
  0
LINE
  5
681F
330
1A
100
AcDbEntity
  8
150
  6
CONTINUOUS
100
AcDbLine
 10
349.5988588995389
 20
466.2883940984231
 30
0.0
 11
384.0988588995389
 21
466.2883940984231
 31
0.0
  0
LINE
  5
6820
330
1A
100
AcDbEntity
  8
150
  6
CONTINUOUS
100
AcDbLine
 10
349.5988588995389
 20
481.7883940984232
 30
0.0
 11
384.0988588995389
 21
481.7883940984232
 31
0.0
  0
LINE
  5
6821
330
1A
100
AcDbEntity
  8
150
  6
CONTINUOUS
100
AcDbLine
 10
349.5988588995389
 20
481.7883940984232
 30
0.0
 11
349.5988588995389
 21
481.0383940984231
 31
0.0
  0
LINE
  5
6822
330
1A
100
AcDbEntity
  8
0
  6
CONTINUOUS
 62
     2
100
AcDbLine
 10
346.9220098995389
 20
468.0383940984231
 30
0.0
 11
346.9220098995389
 21
480.0383940984231
 31
0.0
  0
ARC
  5
6823
330
1A
100
AcDbEntity
  8
0
  6
CONTINUOUS
 62
     2
100
AcDbCircle
 10
343.0988588995389
 20
464.0383940984231
 30
0.0
 40
1.0
100
AcDbArc
 50
180.0000050000001
 51
270.0000009999997
  0
ARC
  5
6824
330
1A
100
AcDbEntity
  8
0
  6
CONTINUOUS
 62
     2
100
AcDbCircle
 10
347.9220098995389
 20
468.0383940984231
 30
0.0
 40
1.0
100
AcDbArc
 50
180.0000050000001
 51
270.0000009999997
  0
LINE
  5
6825
330
1A
100
AcDbEntity
  8
150
  6
CONTINUOUS
100
AcDbLine
 10
349.5988588995389
 20
467.0383940984232
 30
0.0
 11
349.5988588995389
 21
466.2883940984231
 31
0.0
  0
ARC
  5
6826
330
1A
100
AcDbEntity
  8
0
  6
CONTINUOUS
 62
     2
100
AcDbCircle
 10
347.9220098995389
 20
480.0383940984231
 30
0.0
 40
1.0
100
AcDbArc
 50
90.0
 51
180.0000030000001
  0
ARC
  5
6827
330
1A
100
AcDbEntity
  8
0
  6
CONTINUOUS
 62
     2
100
AcDbCircle
 10
343.0988588995389
 20
484.0383940984231
 30
0.0
 40
1.0
100
AcDbArc
 50
90.0
 51
180.0000030000001
  0
LINE
  5
6828
330
1A
100
AcDbEntity
  8
150
  6
CONTINUOUS
100
AcDbLine
 10
384.0988588995389
 20
481.7883940984232
 30
0.0
 11
384.0988588995389
 21
466.2883940984231
 31
0.0
  0
LINE
  5
6829
330
1A
100
AcDbEntity
  8
0
  6
CONTINUOUS
 62
     2
100
AcDbLine
 10
362.2360048995389
 20
467.0383940984232
 30
0.0
 11
362.2360048995389
 21
481.0383940984231
 31
0.0
  0
LINE
  5
682A
330
1A
100
AcDbEntity
  8
0
  6
CONTINUOUS
 62
     2
100
AcDbLine
 10
353.9470648995389
 20
480.0383940984231
 30
0.0
 11
353.9470648995389
 21
468.0383940984231
 31
0.0
  0
ARC
  5
682B
330
1A
100
AcDbEntity
  8
0
  6
CONTINUOUS
 62
     2
100
AcDbCircle
 10
343.0988588995389
 20
523.0383940984231
 30
0.0
 40
1.0
100
AcDbArc
 50
90.0
 51
180.0000030000001
  0
TEXT
  5
682C
330
1A
100
AcDbEntity
  8
230
 62
     6
100
AcDbText
 10
359.7621968995389
 20
546.3358450984231
 30
0.0
 40
5.0
  1
ASL
100
AcDbText
  0
TEXT
  5
682D
330
1A
100
AcDbEntity
  8
210
  6
CONTINUOUS
 62
     4
100
AcDbText
 10
515.9738968995388
 20
451.9967240984231
 30
0.0
 40
5.0
  1
35
 50
90.00000300000095
100
AcDbText
  0
ARC
  5
682E
330
1A
100
AcDbEntity
  8
0
  6
CONTINUOUS
 62
     2
100
AcDbCircle
 10
481.098858899539
 20
459.5383940984231
 30
0.0
 40
1.0
100
AcDbArc
 50
270.0
 51
0.0000090000000101
  0
LINE
  5
682F
330
1A
100
AcDbEntity
  8
150
  6
CONTINUOUS
100
AcDbLine
 10
418.0988588995389
 20
422.0383940984232
 30
0.0
 11
418.0988588995389
 21
526.0384250984231
 31
0.0
  0
LINE
  5
6830
330
1A
100
AcDbEntity
  8
225
  6
CENTER
 62
     3
100
AcDbLine
 10
474.0988888995389
 20
460.5383940984231
 30
0.0
 11
474.0988888995389
 21
442.5383940984231
 31
0.0
  0
LINE
  5
6831
330
1A
100
AcDbEntity
  8
0
  6
CONTINUOUS
 62
     2
100
AcDbLine
 10
451.0988588995389
 20
525.5384250984231
 30
0.0
 11
451.0988588995389
 21
422.5383940984232
 31
0.0
  0
LINE
  5
6832
330
1A
100
AcDbEntity
  8
150
  6
CONTINUOUS
 62
     7
100
AcDbLine
 10
499.5988588995389
 20
524.0384250984232
 30
0.0
 11
499.5988588995389
 21
424.0383940984232
 31
0.0
  0
LINE
  5
6833
330
1A
100
AcDbEntity
  8
225
  6
CENTER
 62
     3
100
AcDbLine
 10
430.0988588995389
 20
450.0383940984232
 30
0.0
 11
430.0988588995389
 21
463.0383940984232
 31
0.0
  0
LINE
  5
6834
330
1A
100
AcDbEntity
  8
150
  6
CONTINUOUS
100
AcDbLine
 10
449.5988588995389
 20
524.0384250984232
 30
0.0
 11
449.5988588995389
 21
424.0383640984232
 31
0.0
  0
LINE
  5
6835
330
1A
100
AcDbEntity
  8
0
  6
CONTINUOUS
 62
     2
100
AcDbLine
 10
392.0988588995389
 20
523.0383940984231
 30
0.0
 11
392.0988588995389
 21
425.0383940984232
 31
0.0
  0
LINE
  5
6836
330
1A
100
AcDbEntity
  8
0
  6
CONTINUOUS
 62
     2
100
AcDbLine
 10
482.098858899539
 20
418.0383940984232
 30
0.0
 11
482.098858899539
 21
530.0384250984231
 31
0.0
  0
CIRCLE
  5
6837
330
1A
100
AcDbEntity
  8
150
  6
CONTINUOUS
100
AcDbCircle
 10
430.0988588995389
 20
456.5383940984231
 30
0.0
 40
4.5
  0
LINE
  5
6838
330
1A
100
AcDbEntity
  8
150
  6
CONTINUOUS
 62
     7
100
AcDbLine
 10
418.0988588995389
 20
422.0383940984232
 30
0.0
 11
497.598858899539
 21
422.0383940984232
 31
0.0
  0
LINE
  5
6839
330
1A
100
AcDbEntity
  8
210
  6
CONTINUOUS
 62
     4
100
AcDbLine
 10
439.0988668995389
 20
429.3511960984232
 30
0.0
 11
439.0988668995389
 21
394.9857780984231
 31
0.0
  0
TEXT
  5
683A
330
1A
100
AcDbEntity
  8
210
  6
CONTINUOUS
 62
     4
100
AcDbText
 10
398.8905328995389
 20
402.1732780984232
 30
0.0
 40
5.0
  1
72
100
AcDbText
  0
LINE
  5
683B
330
1A
100
AcDbEntity
  8
210
  6
CONTINUOUS
 62
     4
100
AcDbLine
 10
439.0988668995389
 20
399.0482780984231
 30
0.0
 11
437.1268398995389
 21
398.7149450984231
 31
0.0
  0
LINE
  5
683C
330
1A
100
AcDbEntity
  8
210
  6
CONTINUOUS
 62
     4
100
AcDbLine
 10
439.0988668995389
 20
399.0482780984231
 30
0.0
 11
437.1268398995389
 21
399.3816120984232
 31
0.0
  0
ARC
  5
683D
330
1A
100
AcDbEntity
  8
0
  6
CONTINUOUS
 62
     2
100
AcDbCircle
 10
391.0988588995389
 20
425.0383940984232
 30
0.0
 40
1.0
100
AcDbArc
 50
270.0
 51
0.0000090000000101
  0
LINE
  5
683E
330
1A
100
AcDbEntity
  8
150
  6
CONTINUOUS
100
AcDbLine
 10
428.098858899539
 20
428.2883940984232
 30
0.0
 11
428.098858899539
 21
449.7883940984232
 31
0.0
  0
LINE
  5
683F
330
1A
100
AcDbEntity
  8
225
  6
CENTER
 62
     3
100
AcDbLine
 10
439.098858899539
 20
429.5383940984232
 30
0.0
 11
439.098858899539
 21
448.5383940984232
 31
0.0
  0
CIRCLE
  5
6840
330
1A
100
AcDbEntity
  8
150
  6
CONTINUOUS
100
AcDbCircle
 10
439.098858899539
 20
439.0383940984232
 30
0.0
 40
6.5
  0
LINE
  5
6841
330
1A
100
AcDbEntity
  8
150
  6
CONTINUOUS
100
AcDbLine
 10
449.5988588995389
 20
427.2883940984232
 30
0.0
 11
429.0988588995389
 21
427.2883940984232
 31
0.0
  0
ARC
  5
6842
330
1A
100
AcDbEntity
  8
150
  6
CONTINUOUS
100
AcDbCircle
 10
429.0988588995389
 20
428.2883940984232
 30
0.0
 40
1.0
100
AcDbArc
 50
179.9999899999997
 51
269.9999990000002
  0
ARC
  5
6843
330
1A
100
AcDbEntity
  8
150
  6
CONTINUOUS
100
AcDbCircle
 10
448.598858899539
 20
424.0383640984232
 30
0.0
 40
1.0
100
AcDbArc
 50
270.0
 51
0.0000030000001391
  0
LINE
  5
6844
330
1A
100
AcDbEntity
  8
150
  6
CONTINUOUS
100
AcDbLine
 10
448.598858899539
 20
423.0383640984232
 30
0.0
 11
444.598858899539
 21
423.0383640984232
 31
0.0
  0
LINE
  5
6845
330
1A
100
AcDbEntity
  8
150
  6
CONTINUOUS
100
AcDbLine
 10
444.598858899539
 20
422.0383940984232
 30
0.0
 11
444.598858899539
 21
423.0383640984232
 31
0.0
  0
LINE
  5
6846
330
1A
100
AcDbEntity
  8
150
  6
CONTINUOUS
100
AcDbLine
 10
449.5988588995389
 20
450.7883940984232
 30
0.0
 11
429.0988588995389
 21
450.7883940984232
 31
0.0
  0
LINE
  5
6847
330
1A
100
AcDbEntity
  8
225
  6
CENTER
 62
     3
100
AcDbLine
 10
436.5988588995389
 20
456.5383940984231
 30
0.0
 11
423.598858899539
 21
456.5383940984231
 31
0.0
  0
LINE
  5
6848
330
1A
100
AcDbEntity
  8
225
  6
CENTER
 62
     3
100
AcDbLine
 10
448.598858899539
 20
439.0383940984232
 30
0.0
 11
429.5988588995389
 21
439.0383940984232
 31
0.0
  0
ARC
  5
6849
330
1A
100
AcDbEntity
  8
150
  6
CONTINUOUS
100
AcDbCircle
 10
429.0988588995389
 20
449.7883940984232
 30
0.0
 40
1.0
100
AcDbArc
 50
90.0
 51
180.0000030000001
  0
LINE
  5
684A
330
1A
100
AcDbEntity
  8
150
  6
CONTINUOUS
100
AcDbLine
 10
436.098858899539
 20
437.3063390984232
 30
0.0
 11
439.098858899539
 21
435.5742830984232
 31
0.0
  0
LINE
  5
684B
330
1A
100
AcDbEntity
  8
150
  6
CONTINUOUS
100
AcDbLine
 10
436.098858899539
 20
440.7704500984232
 30
0.0
 11
436.098858899539
 21
437.3063390984232
 31
0.0
  0
LINE
  5
684C
330
1A
100
AcDbEntity
  8
150
  6
CONTINUOUS
100
AcDbLine
 10
439.098858899539
 20
442.5025060984232
 30
0.0
 11
436.098858899539
 21
440.7704500984232
 31
0.0
  0
LINE
  5
684D
330
1A
100
AcDbEntity
  8
150
  6
CONTINUOUS
100
AcDbLine
 10
442.0988588995389
 20
440.7704500984232
 30
0.0
 11
439.098858899539
 21
442.5025060984232
 31
0.0
  0
LINE
  5
684E
330
1A
100
AcDbEntity
  8
150
  6
CONTINUOUS
100
AcDbLine
 10
442.0988588995389
 20
437.3063390984232
 30
0.0
 11
442.0988588995389
 21
440.7704500984232
 31
0.0
  0
LINE
  5
684F
330
1A
100
AcDbEntity
  8
150
  6
CONTINUOUS
100
AcDbLine
 10
439.098858899539
 20
435.5742830984232
 30
0.0
 11
442.0988588995389
 21
437.3063390984232
 31
0.0
  0
ARC
  5
6850
330
1A
100
AcDbEntity
  8
0
  6
CONTINUOUS
 62
     2
100
AcDbCircle
 10
478.098858899539
 20
418.0383940984232
 30
0.0
 40
4.0
100
AcDbArc
 50
270.0
 51
0.0000090000000101
  0
LINE
  5
6851
330
1A
100
AcDbEntity
  8
225
  6
CENTER
 62
     3
100
AcDbLine
 10
483.0988888995388
 20
451.5383940984232
 30
0.0
 11
465.0988888995389
 21
451.5383940984232
 31
0.0
  0
ARC
  5
6852
330
1A
100
AcDbEntity
  8
0
  6
CONTINUOUS
 62
     2
100
AcDbCircle
 10
474.0988888995389
 20
451.5383940984232
 30
0.0
 40
7.0
100
AcDbArc
 50
90.0
 51
269.9999979999988
  0
CIRCLE
  5
6853
330
1A
100
AcDbEntity
  8
150
  6
CENTER
100
AcDbCircle
 10
474.0988978995388
 20
451.5383870984232
 30
0.0
 40
6.5
  0
CIRCLE
  5
6854
330
1A
100
AcDbEntity
  8
150
  6
CENTER
100
AcDbCircle
 10
474.0988978995388
 20
451.5383870984232
 30
0.0
 40
5.25
  0
LINE
  5
6855
330
1A
100
AcDbEntity
  8
0
  6
CONTINUOUS
 62
     2
100
AcDbLine
 10
474.0988888995389
 20
444.5383940984232
 30
0.0
 11
481.098858899539
 21
444.5383940984232
 31
0.0
  0
ARC
  5
6856
330
1A
100
AcDbEntity
  8
0
  6
CONTINUOUS
 62
     2
100
AcDbCircle
 10
481.098858899539
 20
443.5383940984232
 30
0.0
 40
1.0
100
AcDbArc
 50
0.0
 51
90.00000300000095
  0
LINE
  5
6857
330
1A
100
AcDbEntity
  8
0
  6
CONTINUOUS
 62
     2
100
AcDbLine
 10
474.0988888995389
 20
458.5383940984232
 30
0.0
 11
481.098858899539
 21
458.5383940984232
 31
0.0
  0
LINE
  5
6858
330
1A
100
AcDbEntity
  8
150
  6
CONTINUOUS
100
AcDbLine
 10
475.6898928995389
 20
452.0687290984231
 30
0.0
 11
476.8566098995388
 21
453.2354460984231
 31
0.0
  0
LINE
  5
6859
330
1A
100
AcDbEntity
  8
150
  6
CONTINUOUS
100
AcDbLine
 10
476.8566098995388
 20
449.8413420984231
 30
0.0
 11
475.6898928995389
 21
451.0080600984232
 31
0.0
  0
LINE
  5
685A
330
1A
100
AcDbEntity
  8
150
  6
CONTINUOUS
100
AcDbLine
 10
475.7959408995389
 20
448.7806730984232
 30
0.0
 11
476.8566098995388
 21
449.8413420984231
 31
0.0
  0
LINE
  5
685B
330
1A
100
AcDbEntity
  8
150
  6
CONTINUOUS
100
AcDbLine
 10
476.8566098995388
 20
453.2354460984231
 30
0.0
 11
475.7959408995389
 21
454.2961150984232
 31
0.0
  0
ARC
  5
685C
330
1A
100
AcDbEntity
  8
150
  6
CONTINUOUS
100
AcDbCircle
 10
476.2202188995388
 20
451.5383870984232
 30
0.0
 40
0.75
100
AcDbArc
 50
134.9999859999998
 51
224.9999879999993
  0
ARC
  5
685D
330
1A
100
AcDbEntity
  8
150
  6
CONTINUOUS
100
AcDbCircle
 10
474.0988978995388
 20
449.4170670984232
 30
0.0
 40
0.75
100
AcDbArc
 50
44.99998299999965
 51
134.9999859999998
  0
ARC
  5
685E
330
1A
100
AcDbEntity
  8
150
  6
CONTINUOUS
100
AcDbCircle
 10
471.9775778995388
 20
451.5383880984232
 30
0.0
 40
0.75
100
AcDbArc
 50
314.9999839999996
 51
44.99999300000019
  0
ARC
  5
685F
330
1A
100
AcDbEntity
  8
150
  6
CONTINUOUS
100
AcDbCircle
 10
474.0988988995389
 20
453.6597080984232
 30
0.0
 40
0.75
100
AcDbArc
 50
224.9999879999993
 51
314.9999839999996
  0
LINE
  5
6860
330
1A
100
AcDbEntity
  8
150
  6
CONTINUOUS
100
AcDbLine
 10
474.6292238995388
 20
449.9473910984232
 30
0.0
 11
475.7959408995389
 21
448.7806730984232
 31
0.0
  0
LINE
  5
6861
330
1A
100
AcDbEntity
  8
150
  6
CONTINUOUS
100
AcDbLine
 10
472.4018368995388
 20
448.7806730984232
 30
0.0
 11
473.5685548995388
 21
449.9473910984232
 31
0.0
  0
LINE
  5
6862
330
1A
100
AcDbEntity
  8
150
  6
CONTINUOUS
100
AcDbLine
 10
471.3411688995388
 20
449.8413420984231
 30
0.0
 11
472.4018368995388
 21
448.7806730984232
 31
0.0
  0
LINE
  5
6863
330
1A
100
AcDbEntity
  8
150
  6
CONTINUOUS
100
AcDbLine
 10
472.5078858995389
 20
451.0080600984232
 30
0.0
 11
471.3411688995388
 21
449.8413420984231
 31
0.0
  0
LINE
  5
6864
330
1A
100
AcDbEntity
  8
150
  6
CONTINUOUS
100
AcDbLine
 10
471.3411688995388
 20
453.2354460984231
 30
0.0
 11
472.5078858995389
 21
452.0687290984231
 31
0.0
  0
LINE
  5
6865
330
1A
100
AcDbEntity
  8
150
  6
CONTINUOUS
100
AcDbLine
 10
472.4018368995388
 20
454.2961150984232
 30
0.0
 11
471.3411688995388
 21
453.2354460984231
 31
0.0
  0
LINE
  5
6866
330
1A
100
AcDbEntity
  8
150
  6
CONTINUOUS
100
AcDbLine
 10
473.5685548995388
 20
453.1293980984232
 30
0.0
 11
472.4018368995388
 21
454.2961150984232
 31
0.0
  0
LINE
  5
6867
330
1A
100
AcDbEntity
  8
150
  6
CONTINUOUS
100
AcDbLine
 10
475.7959408995389
 20
454.2961150984232
 30
0.0
 11
474.6292238995388
 21
453.1293980984232
 31
0.0
  0
ARC
  5
6868
330
1A
100
AcDbEntity
  8
150
  6
CONTINUOUS
 62
     7
100
AcDbCircle
 10
497.598858899539
 20
424.0383940984232
 30
0.0
 40
2.0
100
AcDbArc
 50
270.0
 51
0.0000090000000101
  0
LINE
  5
6869
330
1A
100
AcDbEntity
  8
150
  6
CONTINUOUS
 62
     7
100
AcDbLine
 10
418.0988588995389
 20
526.0384250984231
 30
0.0
 11
497.598858899539
 21
526.0384250984231
 31
0.0
  0
LINE
  5
686A
330
1A
100
AcDbEntity
  8
150
  6
CONTINUOUS
100
AcDbLine
 10
428.098858899539
 20
498.2883940984232
 30
0.0
 11
428.098858899539
 21
519.7883940984231
 31
0.0
  0
LINE
  5
686B
330
1A
100
AcDbEntity
  8
225
  6
CENTER
 62
     3
100
AcDbLine
 10
439.098858899539
 20
499.5383940984232
 30
0.0
 11
439.098858899539
 21
518.5384250984232
 31
0.0
  0
CIRCLE
  5
686C
330
1A
100
AcDbEntity
  8
150
  6
CONTINUOUS
100
AcDbCircle
 10
439.098858899539
 20
509.0383940984231
 30
0.0
 40
6.5
  0
ARC
  5
686D
330
1A
100
AcDbEntity
  8
0
  6
CONTINUOUS
 62
     2
100
AcDbCircle
 10
391.0988588995389
 20
464.0383940984231
 30
0.0
 40
1.0
100
AcDbArc
 50
270.0
 51
0.0000090000000101
  0
ARC
  5
686E
330
1A
100
AcDbEntity
  8
0
  6
CONTINUOUS
 62
     2
100
AcDbCircle
 10
391.0988588995389
 20
484.0383940984231
 30
0.0
 40
1.0
100
AcDbArc
 50
0.0
 51
90.00000300000095
  0
LINE
  5
686F
330
1A
100
AcDbEntity
  8
150
  6
CONTINUOUS
100
AcDbLine
 10
428.098858899539
 20
484.7883940984231
 30
0.0
 11
428.098858899539
 21
463.2883940984231
 31
0.0
  0
LINE
  5
6870
330
1A
100
AcDbEntity
  8
225
  6
CENTER
 62
     3
100
AcDbLine
 10
439.098858899539
 20
464.5383940984231
 30
0.0
 11
439.098858899539
 21
483.5383940984232
 31
0.0
  0
LINE
  5
6871
330
1A
100
AcDbEntity
  8
150
  6
CONTINUOUS
100
AcDbLine
 10
449.5988588995389
 20
462.2883940984231
 30
0.0
 11
429.0988588995389
 21
462.2883940984231
 31
0.0
  0
LINE
  5
6872
330
1A
100
AcDbEntity
  8
225
  6
CENTER
 62
     3
100
AcDbLine
 10
448.598858899539
 20
474.0383940984231
 30
0.0
 11
429.5988588995389
 21
474.0383940984231
 31
0.0
  0
CIRCLE
  5
6873
330
1A
100
AcDbEntity
  8
150
  6
CONTINUOUS
100
AcDbCircle
 10
439.098858899539
 20
474.0383940984231
 30
0.0
 40
6.5
  0
ARC
  5
6874
330
1A
100
AcDbEntity
  8
150
  6
CONTINUOUS
100
AcDbCircle
 10
429.0988588995389
 20
463.2883940984231
 30
0.0
 40
1.0
100
AcDbArc
 50
180.0
 51
270.0000029999993
  0
LINE
  5
6875
330
1A
100
AcDbEntity
  8
150
  6
CONTINUOUS
100
AcDbLine
 10
439.098858899539
 20
477.5025060984232
 30
0.0
 11
436.098858899539
 21
475.7704500984232
 31
0.0
  0
LINE
  5
6876
330
1A
100
AcDbEntity
  8
150
  6
CONTINUOUS
100
AcDbLine
 10
436.098858899539
 20
475.7704500984232
 30
0.0
 11
436.098858899539
 21
472.3063390984231
 31
0.0
  0
LINE
  5
6877
330
1A
100
AcDbEntity
  8
150
  6
CONTINUOUS
100
AcDbLine
 10
436.098858899539
 20
472.3063390984231
 30
0.0
 11
439.098858899539
 21
470.5742830984232
 31
0.0
  0
LINE
  5
6878
330
1A
100
AcDbEntity
  8
150
  6
CONTINUOUS
100
AcDbLine
 10
439.098858899539
 20
470.5742830984232
 30
0.0
 11
442.0988588995389
 21
472.3063390984231
 31
0.0
  0
LINE
  5
6879
330
1A
100
AcDbEntity
  8
150
  6
CONTINUOUS
100
AcDbLine
 10
442.0988588995389
 20
472.3063390984231
 30
0.0
 11
442.0988588995389
 21
475.7704500984232
 31
0.0
  0
LINE
  5
687A
330
1A
100
AcDbEntity
  8
150
  6
CONTINUOUS
100
AcDbLine
 10
442.0988588995389
 20
475.7704500984232
 30
0.0
 11
439.098858899539
 21
477.5025060984232
 31
0.0
  0
LINE
  5
687B
330
1A
100
AcDbEntity
  8
150
  6
CONTINUOUS
100
AcDbLine
 10
449.5988588995389
 20
485.7883940984232
 30
0.0
 11
429.0988588995389
 21
485.7883940984232
 31
0.0
  0
LINE
  5
687C
330
1A
100
AcDbEntity
  8
150
  6
CONTINUOUS
100
AcDbLine
 10
449.5988588995389
 20
497.2883940984231
 30
0.0
 11
429.0988588995389
 21
497.2883940984231
 31
0.0
  0
LINE
  5
687D
330
1A
100
AcDbEntity
  8
225
  6
CENTER
 62
     3
100
AcDbLine
 10
436.5988588995389
 20
491.5383940984232
 30
0.0
 11
423.598858899539
 21
491.5383940984232
 31
0.0
  0
LINE
  5
687E
330
1A
100
AcDbEntity
  8
225
  6
CENTER
 62
     3
100
AcDbLine
 10
430.0988588995389
 20
498.0383940984231
 30
0.0
 11
430.0988588995389
 21
485.0383940984231
 31
0.0
  0
CIRCLE
  5
687F
330
1A
100
AcDbEntity
  8
150
  6
CONTINUOUS
100
AcDbCircle
 10
430.0988588995389
 20
491.5383940984232
 30
0.0
 40
4.5
  0
ARC
  5
6880
330
1A
100
AcDbEntity
  8
150
  6
CONTINUOUS
100
AcDbCircle
 10
429.0988588995389
 20
484.7883940984231
 30
0.0
 40
1.0
100
AcDbArc
 50
90.0
 51
180.000009
  0
ARC
  5
6881
330
1A
100
AcDbEntity
  8
150
  6
CONTINUOUS
100
AcDbCircle
 10
429.0988588995389
 20
498.2883940984232
 30
0.0
 40
1.0
100
AcDbArc
 50
179.9999899999997
 51
269.9999990000002
  0
ARC
  5
6882
330
1A
100
AcDbEntity
  8
0
  6
CONTINUOUS
 62
     2
100
AcDbCircle
 10
391.0988588995389
 20
523.0383940984231
 30
0.0
 40
1.0
100
AcDbArc
 50
0.0
 51
90.00000300000095
  0
LINE
  5
6883
330
1A
100
AcDbEntity
  8
150
  6
CONTINUOUS
100
AcDbLine
 10
449.5988588995389
 20
520.7883940984231
 30
0.0
 11
429.0988588995389
 21
520.7883940984231
 31
0.0
  0
LINE
  5
6884
330
1A
100
AcDbEntity
  8
225
  6
CENTER
 62
     3
100
AcDbLine
 10
448.598858899539
 20
509.0383940984231
 30
0.0
 11
429.5988588995389
 21
509.0383940984231
 31
0.0
  0
ARC
  5
6885
330
1A
100
AcDbEntity
  8
150
  6
CONTINUOUS
100
AcDbCircle
 10
429.0988588995389
 20
519.7883940984231
 30
0.0
 40
1.0
100
AcDbArc
 50
90.0
 51
180.0000030000001
  0
LINE
  5
6886
330
1A
100
AcDbEntity
  8
150
  6
CONTINUOUS
100
AcDbLine
 10
436.098858899539
 20
510.7704500984232
 30
0.0
 11
436.098858899539
 21
507.3063390984231
 31
0.0
  0
LINE
  5
6887
330
1A
100
AcDbEntity
  8
150
  6
CONTINUOUS
100
AcDbLine
 10
436.098858899539
 20
507.3063390984231
 30
0.0
 11
439.098858899539
 21
505.5742830984232
 31
0.0
  0
LINE
  5
6888
330
1A
100
AcDbEntity
  8
150
  6
CONTINUOUS
100
AcDbLine
 10
439.098858899539
 20
505.5742830984232
 30
0.0
 11
442.0988588995389
 21
507.3063390984231
 31
0.0
  0
LINE
  5
6889
330
1A
100
AcDbEntity
  8
150
  6
CONTINUOUS
100
AcDbLine
 10
442.0988588995389
 20
507.3063390984231
 30
0.0
 11
442.0988588995389
 21
510.7704500984232
 31
0.0
  0
LINE
  5
688A
330
1A
100
AcDbEntity
  8
150
  6
CONTINUOUS
100
AcDbLine
 10
439.098858899539
 20
512.5025060984231
 30
0.0
 11
436.098858899539
 21
510.7704500984232
 31
0.0
  0
LINE
  5
688B
330
1A
100
AcDbEntity
  8
150
  6
CONTINUOUS
100
AcDbLine
 10
442.0988588995389
 20
510.7704500984232
 30
0.0
 11
439.098858899539
 21
512.5025060984231
 31
0.0
  0
LINE
  5
688C
330
1A
100
AcDbEntity
  8
150
  6
CONTINUOUS
100
AcDbLine
 10
448.598858899539
 20
525.0384250984232
 30
0.0
 11
444.598858899539
 21
525.0384250984232
 31
0.0
  0
ARC
  5
688D
330
1A
100
AcDbEntity
  8
150
  6
CONTINUOUS
100
AcDbCircle
 10
448.598858899539
 20
524.0384250984232
 30
0.0
 40
1.0
100
AcDbArc
 50
359.9999949999999
 51
89.99999699999904
  0
LINE
  5
688E
330
1A
100
AcDbEntity
  8
150
  6
CONTINUOUS
100
AcDbLine
 10
444.598858899539
 20
526.0384250984231
 30
0.0
 11
444.598858899539
 21
525.0384250984232
 31
0.0
  0
TEXT
  5
688F
330
1A
100
AcDbEntity
  8
210
  6
CONTINUOUS
 62
     4
100
AcDbText
 10
515.9738968995388
 20
486.9967240984232
 30
0.0
 40
5.0
  1
35
 50
90.00000300000095
100
AcDbText
  0
ARC
  5
6890
330
1A
100
AcDbEntity
  8
0
  6
CONTINUOUS
 62
     2
100
AcDbCircle
 10
478.098858899539
 20
530.0384250984231
 30
0.0
 40
4.0
100
AcDbArc
 50
0.0
 51
90.00000300000095
  0
ARC
  5
6891
330
1A
100
AcDbEntity
  8
150
  6
CONTINUOUS
 62
     7
100
AcDbCircle
 10
497.598858899539
 20
524.0384250984232
 30
0.0
 40
2.0
100
AcDbArc
 50
0.0
 51
90.00000300000095
  0
LINE
  5
6892
330
1A
100
AcDbEntity
  8
210
  6
CONTINUOUS
 62
     4
100
AcDbLine
 10
260.0988358995389
 20
553.8070060984231
 30
0.0
 11
474.0988968995388
 21
553.8070060984231
 31
0.0
  0
LINE
  5
6893
330
1A
100
AcDbEntity
  8
210
  6
CONTINUOUS
 62
     4
100
AcDbLine
 10
260.0988358995389
 20
553.8070060984231
 30
0.0
 11
262.0708628995389
 21
553.4736730984231
 31
0.0
  0
LINE
  5
6894
330
1A
100
AcDbEntity
  8
210
  6
CONTINUOUS
 62
     4
100
AcDbLine
 10
260.0988358995389
 20
553.8070060984231
 30
0.0
 11
262.0708628995389
 21
554.1403400984233
 31
0.0
  0
TEXT
  5
6895
330
1A
100
AcDbEntity
  8
210
  6
CONTINUOUS
 62
     4
100
AcDbText
 10
361.4738668995389
 20
556.9320060984231
 30
0.0
 40
5.0
  1
214
100
AcDbText
  0
TEXT
  5
6896
330
1A
100
AcDbEntity
  8
210
  6
CONTINUOUS
 62
     4
100
AcDbText
 10
359.8488358995389
 20
577.1634520984231
 30
0.0
 40
5.0
  1
230
100
AcDbText
  0
LINE
  5
6897
330
1A
100
AcDbEntity
  8
210
  6
CONTINUOUS
 62
     4
100
AcDbLine
 10
474.0988968995388
 20
553.8070060984231
 30
0.0
 11
472.1268708995389
 21
553.4736730984231
 31
0.0
  0
LINE
  5
6898
330
1A
100
AcDbEntity
  8
210
  6
CONTINUOUS
 62
     4
100
AcDbLine
 10
474.0988968995388
 20
553.8070060984231
 30
0.0
 11
472.1268708995389
 21
554.1403400984233
 31
0.0
  0
LINE
  5
6899
330
1A
100
AcDbEntity
  8
210
  6
CONTINUOUS
 62
     4
100
AcDbLine
 10
482.0988668995389
 20
574.0384520984231
 30
0.0
 11
480.1268398995389
 21
573.7051180984232
 31
0.0
  0
LINE
  5
689A
330
1A
100
AcDbEntity
  8
210
  6
CONTINUOUS
 62
     4
100
AcDbLine
 10
482.0988668995389
 20
574.0384520984231
 30
0.0
 11
480.1268398995389
 21
574.3717850984231
 31
0.0
  0
LINE
  5
689C
330
1A
100
AcDbEntity
  8
210
  6
CONTINUOUS
 62
     4
100
AcDbLine
 10
519.0988968995388
 20
202.5947260984232
 30
0.0
 11
519.0988968995388
 21
175.0947340984231
 31
0.0
  0
LINE
  5
689D
330
1A
100
AcDbEntity
  8
210
  6
CONTINUOUS
 62
     4
100
AcDbLine
 10
539.0988968995388
 20
152.5947340984232
 30
0.0
 11
539.0988968995388
 21
202.5947260984232
 31
0.0
  0
TEXT
  5
689E
330
1A
100
AcDbEntity
  8
210
  6
CONTINUOUS
 62
     4
100
AcDbText
 10
535.9738968995388
 20
173.0114000984232
 30
0.0
 40
5.0
  1
50
 50
90.00000300000095
100
AcDbText
  0
LINE
  5
68A3
330
1A
100
AcDbEntity
  8
210
  6
CONTINUOUS
 62
     4
100
AcDbLine
 10
519.0988968995388
 20
175.0947340984231
 30
0.0
 11
518.7655638995389
 21
177.0667600984231
 31
0.0
  0
LINE
  5
68A4
330
1A
100
AcDbEntity
  8
210
  6
CONTINUOUS
 62
     4
100
AcDbLine
 10
519.0988968995388
 20
175.0947340984231
 30
0.0
 11
519.4322298995388
 21
177.0667600984231
 31
0.0
  0
LINE
  5
68A5
330
1A
100
AcDbEntity
  8
210
  6
CONTINUOUS
 62
     4
100
AcDbLine
 10
539.0988968995388
 20
152.5947340984232
 30
0.0
 11
538.7655638995389
 21
154.5667600984231
 31
0.0
  0
LINE
  5
68A6
330
1A
100
AcDbEntity
  8
210
  6
CONTINUOUS
 62
     4
100
AcDbLine
 10
539.0988968995388
 20
152.5947340984232
 30
0.0
 11
539.4322298995389
 21
154.5667600984231
 31
0.0
  0
LINE
  5
68A8
330
1A
100
AcDbEntity
  8
210
  6
CONTINUOUS
 62
     4
100
AcDbLine
 10
539.0988968995388
 20
327.5947260984231
 30
0.0
 11
539.0988968995388
 21
202.5947260984232
 31
0.0
  0
LINE
  5
68A9
330
1A
100
AcDbEntity
  8
210
  6
CONTINUOUS
 62
     4
100
AcDbLine
 10
519.0988968995388
 20
264.5947260984231
 30
0.0
 11
519.0988968995388
 21
202.5947260984232
 31
0.0
  0
LINE
  5
68AA
330
1A
100
AcDbEntity
  8
210
  6
CONTINUOUS
 62
     4
100
AcDbLine
 10
519.0988968995388
 20
202.5947260984232
 30
0.0
 11
518.7655638995389
 21
204.5667530984232
 31
0.0
  0
LINE
  5
68AB
330
1A
100
AcDbEntity
  8
210
  6
CONTINUOUS
 62
     4
100
AcDbLine
 10
519.0988968995388
 20
202.5947260984232
 30
0.0
 11
519.4322298995388
 21
204.5667530984232
 31
0.0
  0
LINE
  5
68AC
330
1A
100
AcDbEntity
  8
210
  6
CONTINUOUS
 62
     4
100
AcDbLine
 10
519.0988968995388
 20
202.5947260984232
 30
0.0
 11
518.7655638995389
 21
200.6226990984231
 31
0.0
  0
LINE
  5
68AD
330
1A
100
AcDbEntity
  8
210
  6
CONTINUOUS
 62
     4
100
AcDbLine
 10
519.0988968995388
 20
202.5947260984232
 30
0.0
 11
519.4322298995388
 21
200.6226990984231
 31
0.0
  0
LINE
  5
68B1
330
1A
100
AcDbEntity
  8
210
  6
CONTINUOUS
 62
     4
100
AcDbLine
 10
539.0988968995388
 20
202.5947260984232
 30
0.0
 11
538.7655638995389
 21
204.5667530984232
 31
0.0
  0
LINE
  5
68B2
330
1A
100
AcDbEntity
  8
210
  6
CONTINUOUS
 62
     4
100
AcDbLine
 10
539.0988968995388
 20
202.5947260984232
 30
0.0
 11
539.4322298995389
 21
204.5667530984232
 31
0.0
  0
LINE
  5
68B3
330
1A
100
AcDbEntity
  8
210
  6
CONTINUOUS
 62
     4
100
AcDbLine
 10
539.0988968995388
 20
202.5947260984232
 30
0.0
 11
538.7655638995389
 21
200.6226990984231
 31
0.0
  0
LINE
  5
68B4
330
1A
100
AcDbEntity
  8
210
  6
CONTINUOUS
 62
     4
100
AcDbLine
 10
539.0988968995388
 20
202.5947260984232
 30
0.0
 11
539.4322298995389
 21
200.6226990984231
 31
0.0
  0
LINE
  5
68B6
330
1A
100
AcDbEntity
  8
210
  6
CONTINUOUS
 62
     4
100
AcDbLine
 10
519.0988968995388
 20
264.5947260984231
 30
0.0
 11
518.7655638995389
 21
262.6226990984231
 31
0.0
  0
LINE
  5
68B7
330
1A
100
AcDbEntity
  8
210
  6
CONTINUOUS
 62
     4
100
AcDbLine
 10
519.0988968995388
 20
264.5947260984231
 30
0.0
 11
519.4322298995388
 21
262.6226990984231
 31
0.0
  0
TEXT
  5
68B8
330
1A
100
AcDbEntity
  8
210
  6
CONTINUOUS
 62
     4
100
AcDbText
 10
535.9738968995388
 20
259.7197260984231
 30
0.0
 40
5.0
  1
125
 50
90.00000300000095
100
AcDbText
  0
LINE
  5
68C4
330
1A
100
AcDbEntity
  8
210
  6
CONTINUOUS
 62
     4
100
AcDbLine
 10
539.0988968995388
 20
327.5947260984231
 30
0.0
 11
538.7655638995389
 21
325.6226990984231
 31
0.0
  0
LINE
  5
68C5
330
1A
100
AcDbEntity
  8
210
  6
CONTINUOUS
 62
     4
100
AcDbLine
 10
539.0988968995388
 20
327.5947260984231
 30
0.0
 11
539.4322298995389
 21
325.6226990984231
 31
0.0
  0
LINE
  5
68C6
330
1A
100
AcDbEntity
  8
210
  6
CONTINUOUS
 62
     4
100
AcDbLine
 10
539.0548908995389
 20
421.5383910984232
 30
0.0
 11
539.0548908995389
 21
526.5384210984231
 31
0.0
  0
LINE
  5
68C7
330
1A
100
AcDbEntity
  8
210
  6
CONTINUOUS
 62
     4
100
AcDbLine
 10
519.0988968995388
 20
439.0383910984232
 30
0.0
 11
519.0988968995388
 21
474.0383910984232
 31
0.0
  0
LINE
  5
68C9
330
1A
100
AcDbEntity
  8
210
  6
CONTINUOUS
 62
     4
100
AcDbLine
 10
539.0548908995389
 20
421.5383910984232
 30
0.0
 11
538.7215568995388
 21
423.5104170984231
 31
0.0
  0
LINE
  5
68CA
330
1A
100
AcDbEntity
  8
210
  6
CONTINUOUS
 62
     4
100
AcDbLine
 10
539.0548908995389
 20
421.5383910984232
 30
0.0
 11
539.3882238995388
 21
423.5104170984231
 31
0.0
  0
LINE
  5
68CB
330
1A
100
AcDbEntity
  8
210
  6
CONTINUOUS
 62
     4
100
AcDbLine
 10
519.0988968995388
 20
439.0383910984232
 30
0.0
 11
518.7655638995389
 21
441.0104170984232
 31
0.0
  0
LINE
  5
68CC
330
1A
100
AcDbEntity
  8
210
  6
CONTINUOUS
 62
     4
100
AcDbLine
 10
519.0988968995388
 20
439.0383910984232
 30
0.0
 11
519.4322298995388
 21
441.0104170984232
 31
0.0
  0
LINE
  5
68CD
330
1A
100
AcDbEntity
  8
210
  6
CONTINUOUS
 62
     4
100
AcDbLine
 10
519.0988968995388
 20
474.0383910984232
 30
0.0
 11
519.0988968995388
 21
509.0383910984232
 31
0.0
  0
TEXT
  5
68CE
330
1A
100
AcDbEntity
  8
210
  6
CONTINUOUS
 62
     4
100
AcDbText
 10
535.9298908995389
 20
468.2050870984232
 30
0.0
 40
5.0
  1
105
 50
90.00000300000095
100
AcDbText
  0
LINE
  5
68CF
330
1A
100
AcDbEntity
  8
210
  6
CONTINUOUS
 62
     4
100
AcDbLine
 10
519.0988968995388
 20
474.0383910984232
 30
0.0
 11
518.7655638995389
 21
472.0663640984231
 31
0.0
  0
LINE
  5
68D0
330
1A
100
AcDbEntity
  8
210
  6
CONTINUOUS
 62
     4
100
AcDbLine
 10
519.0988968995388
 20
474.0383910984232
 30
0.0
 11
519.4322298995388
 21
472.0663640984231
 31
0.0
  0
LINE
  5
68D1
330
1A
100
AcDbEntity
  8
210
  6
CONTINUOUS
 62
     4
100
AcDbLine
 10
519.0988968995388
 20
474.0383910984232
 30
0.0
 11
518.7655638995389
 21
476.0104170984232
 31
0.0
  0
LINE
  5
68D2
330
1A
100
AcDbEntity
  8
210
  6
CONTINUOUS
 62
     4
100
AcDbLine
 10
519.0988968995388
 20
474.0383910984232
 30
0.0
 11
519.4322298995388
 21
476.0104170984232
 31
0.0
  0
LINE
  5
68D3
330
1A
100
AcDbEntity
  8
210
  6
CONTINUOUS
 62
     4
100
AcDbLine
 10
519.0988968995388
 20
509.0383910984232
 30
0.0
 11
518.7655638995389
 21
507.0663640984231
 31
0.0
  0
LINE
  5
68D4
330
1A
100
AcDbEntity
  8
210
  6
CONTINUOUS
 62
     4
100
AcDbLine
 10
519.0988968995388
 20
509.0383910984232
 30
0.0
 11
519.4322298995388
 21
507.0663640984231
 31
0.0
  0
LINE
  5
68D5
330
1A
100
AcDbEntity
  8
210
  6
CONTINUOUS
 62
     4
100
AcDbLine
 10
539.0548908995389
 20
526.5384210984231
 30
0.0
 11
538.7215568995388
 21
524.5663950984233
 31
0.0
  0
LINE
  5
68D6
330
1A
100
AcDbEntity
  8
210
  6
CONTINUOUS
 62
     4
100
AcDbLine
 10
539.0548908995389
 20
526.5384210984231
 30
0.0
 11
539.3882238995388
 21
524.5663950984233
 31
0.0
  0
LINE
  5
6D0D
330
1A
100
AcDbEntity
  8
225
  6
CENTER
 62
     3
100
AcDbLine
 10
650.2343487923049
 20
225.3966598301627
 30
0.0
 11
958.2343487923049
 21
225.3966598301627
 31
0.0
  0
LINE
  5
6D0E
330
1A
100
AcDbEntity
  8
170
  6
PHANTOM2
 62
     1
100
AcDbLine
 10
696.2343487923049
 20
285.3966598301626
 30
0.0
 11
912.2343487923048
 21
285.3966598301626
 31
0.0
  0
LINE
  5
6D0F
330
1A
100
AcDbEntity
  8
170
  6
PHANTOM2
 62
     1
100
AcDbLine
 10
696.2343487923049
 20
165.3966288301626
 30
0.0
 11
912.2343487923048
 21
165.3966288301626
 31
0.0
  0
LINE
  5
6D10
330
1A
100
AcDbEntity
  8
230
  6
CONTINUOUS
 62
     6
100
AcDbLine
 10
758.6692445041704
 20
365.3286666356032
 30
0.0
 11
849.7994530804394
 21
365.3286666356032
 31
0.0
  0
LINE
  5
6D11
330
1A
100
AcDbEntity
  8
210
 62
     4
100
AcDbLine
 10
760.4343487923049
 20
319.4689175091503
 30
0.0
 11
848.034348792305
 21
319.4689175091503
 31
0.0
  0
TEXT
  5
6D12
330
1A
100
AcDbEntity
  8
230
 62
     6
100
AcDbText
 10
753.2778655523611
 20
132.6021429026484
 30
0.0
 40
10.0
  1
パネルカット寸法図
100
AcDbText
  0
LINE
  5
6D13
330
1A
100
AcDbEntity
  8
230
  6
CONTINUOUS
 62
     6
100
AcDbLine
 10
747.4226203269313
 20
128.7530229026486
 30
0.0
 11
865.1898423706775
 21
128.7530229026486
 31
0.0
  0
LINE
  5
6D14
330
1A
100
AcDbEntity
  8
170
  6
PHANTOM2
 62
     1
100
AcDbLine
 10
696.2343484257859
 20
414.0383630984231
 30
0.0
 11
912.2343487923048
 21
414.0383630984231
 31
0.0
  0
LINE
  5
6D15
330
1A
100
AcDbEntity
  8
170
  6
PHANTOM2
 62
     1
100
AcDbLine
 10
696.234348425786
 20
534.0383940984231
 30
0.0
 11
912.2343487923048
 21
534.0383940984231
 31
0.0
  0
LINE
  5
6D16
330
1A
100
AcDbEntity
  8
210
 62
     4
100
AcDbLine
 10
714.4343487923049
 20
571.3210020984231
 30
0.0
 11
894.0343487923051
 21
571.3210020984231
 31
0.0
  0
LINE
  5
6D17
330
1A
100
AcDbEntity
  8
210
 62
     4
100
AcDbLine
 10
699.4344097923047
 20
591.3210020984234
 30
0.0
 11
909.034348792305
 21
591.3210020984234
 31
0.0
  0
LINE
  5
6D18
330
1A
100
AcDbEntity
  8
210
  6
CONTINUOUS
 62
     4
100
AcDbLine
 10
900.3599597923049
 20
451.5383940984231
 30
0.0
 11
609.2343487923049
 21
451.5383940984231
 31
0.0
  0
LINE
  5
6D19
330
1A
100
AcDbEntity
  8
225
  6
CENTER
 62
     3
100
AcDbLine
 10
632.2343487923049
 20
474.0383940984231
 30
0.0
 11
976.2343487923049
 21
474.0383940984231
 31
0.0
  0
HATCH
  5
6D1A
330
1A
100
AcDbEntity
  8
170
100
AcDbHatch
 10
0.0
 20
0.0
 30
0.0
210
0.0
220
0.0
230
1.0
  2
ANSI31
 70
     0
 71
     0
 91
        8
 92
        7
 72
     1
 73
     1
 93
        7
 10
758.2343487923049
 20
277.8966598301626
 42
0.0
 10
758.2343487923049
 20
290.3966598301628
 42
0.0
 10
673.1130283932087
 20
290.3966598301627
 42
0.0
 10
673.1130283932087
 20
225.3966598301627
 42
0.0
 10
690.2343487923048
 20
225.3966598301628
 42
0.0
 10
690.2343487923048
 20
270.8966598301626
 42
-0.4142135623730946
 10
697.2343487923049
 20
277.8966598301626
 42
0.0
 97
        0
 92
       22
 72
     1
 73
     1
 93
        5
 10
697.2343487923049
 20
277.8966598301626
 42
0.4142135623730946
 10
690.2343487923048
 20
270.8966598301626
 42
0.0
 10
690.2343487923048
 20
225.3966598301627
 42
0.0
 10
758.2343487923049
 20
225.3966598301627
 42
0.0
 10
758.2343487923046
 20
277.8966598301626
 42
0.0
 97
        0
 92
       22
 72
     1
 73
     1
 93
        5
 10
690.2343487923048
 20
179.8966288301626
 42
0.4142135623730944
 10
697.2343487923049
 20
172.8966288301626
 42
0.0
 10
758.2343487923049
 20
172.8966288301626
 42
0.0
 10
758.2343487923049
 20
225.3966598301627
 42
0.0
 10
690.2343487923048
 20
225.3966598301627
 42
0.0
 97
        0
 92
        7
 72
     1
 73
     1
 93
        7
 10
690.2343487923048
 20
225.3966598301627
 42
0.0
 10
673.1130283932088
 20
225.3966598301627
 42
0.0
 10
673.1130283932088
 20
160.3966598301625
 42
0.0
 10
758.2343487923051
 20
160.3966598301625
 42
0.0
 10
758.2343487923051
 20
172.8966288301626
 42
0.0
 10
697.2343487923049
 20
172.8966288301626
 42
-0.4142135623730944
 10
690.2343487923048
 20
179.8966288301626
 42
0.0
 97
        0
 92
        7
 72
     1
 73
     1
 93
        5
 10
850.2343487923049
 20
277.8966598301626
 42
0.0
 10
850.2343487923049
 20
225.3966598301627
 42
0.0
 10
918.234348792305
 20
225.3966598301627
 42
0.0
 10
918.2343487923048
 20
270.8966598301626
 42
0.4142135623731029
 10
911.2343487923046
 20
277.8966598301626
 42
0.0
 97
        0
 92
        7
 72
     1
 73
     1
 93
        7
 10
935.3556691914006
 20
290.3966598301627
 42
0.0
 10
850.2343487923051
 20
290.3966598301628
 42
0.0
 10
850.2343487923051
 20
277.8966598301626
 42
0.0
 10
911.2343487923046
 20
277.8966598301626
 42
-0.4142135623731042
 10
918.2343487923048
 20
270.8966598301626
 42
0.0
 10
918.234348792305
 20
225.3966598301627
 42
0.0
 10
935.3556691914004
 20
225.3966598301627
 42
0.0
 97
        0
 92
        7
 72
     1
 73
     1
 93
        7
 10
918.2343487923048
 20
179.8966288301627
 42
-0.4142135623730931
 10
911.2343487923048
 20
172.8966288301626
 42
0.0
 10
850.2343487923049
 20
172.8966288301626
 42
0.0
 10
850.2343487923047
 20
160.3966598301625
 42
0.0
 10
935.3556691914004
 20
160.3966598301625
 42
0.0
 10
935.3556691914006
 20
225.3966598301627
 42
0.0
 10
918.2343487923048
 20
225.3966598301627
 42
0.0
 97
        0
 92
        7
 72
     1
 73
     1
 93
        5
 10
918.2343487923047
 20
225.3966598301627
 42
0.0
 10
850.2343487923049
 20
225.3966598301627
 42
0.0
 10
850.2343487923049
 20
172.8966288301626
 42
0.0
 10
911.2343487923048
 20
172.8966288301626
 42
0.4142135623730931
 10
918.2343487923048
 20
179.8966288301627
 42
0.0
 97
        0
 75
     0
 76
     1
 52
0.0
 41
50.0
 77
     0
 78
     1
 53
45.0
 43
-551.0844717044083
 44
53.81419028379031
 45
-4.419417382415921
 46
4.419417382415922
 79
     0
 47
0.46198299867456
 98
        8
 10
719.4429183277816
 20
282.3756605354253
 10
717.5934720218147
 20
258.352543986654
 10
712.0451598506306
 20
201.0666518518134
 10
684.303572247999
 20
188.1311271650653
 10
884.0430154687483
 20
254.6566783372051
 10
926.5801200256783
 20
276.8318620612514
 10
922.8812363293172
 20
184.4352615156164
 10
898.8385324230467
 20
195.5228533776395
  0
LINE
  5
6D22
330
1A
100
AcDbEntity
  8
210
  6
CONTINUOUS
 62
     4
100
AcDbLine
 10
276.0988668995389
 20
85.08474709842323
 30
0.0
 11
458.098850899539
 21
85.08474709842323
 31
0.0
  0
LINE
  5
6D23
330
1A
100
AcDbEntity
  8
210
  6
CONTINUOUS
 62
     4
100
AcDbLine
 10
297.0988668995389
 20
109.0947370984231
 30
0.0
 11
367.098850899539
 21
109.0947370984231
 31
0.0
  0
TEXT
  5
6D24
330
1A
100
AcDbEntity
  8
230
  6
CONTINUOUS
 62
     6
100
AcDbText
 10
308.040030305191
 20
101.8731380984231
 30
0.0
 40
5.0
  1
ブスバーピッチ
100
AcDbText
  0
LINE
  5
6D2D
330
1A
100
AcDbEntity
  8
210
  6
CONTINUOUS
 62
     4
100
AcDbLine
 10
276.0988668995389
 20
156.5947340984232
 30
0.0
 11
276.0988668995389
 21
81.02224709842323
 31
0.0
  0
LINE
  5
6D2E
330
1A
100
AcDbEntity
  8
210
  6
CONTINUOUS
 62
     4
100
AcDbLine
 10
276.0988668995389
 20
85.08474709842323
 30
0.0
 11
278.0708928995388
 21
84.75141309842319
 31
0.0
  0
LINE
  5
6D2F
330
1A
100
AcDbEntity
  8
210
  6
CONTINUOUS
 62
     4
100
AcDbLine
 10
276.0988668995389
 20
85.08474709842323
 30
0.0
 11
278.0708928995388
 21
85.41808009842316
 31
0.0
  0
LINE
  5
6D34
330
1A
100
AcDbEntity
  8
210
  6
CONTINUOUS
 62
     4
100
AcDbLine
 10
297.0988668995389
 20
109.0947370984231
 30
0.0
 11
299.0708928995388
 21
108.7614040984232
 31
0.0
  0
LINE
  5
6D35
330
1A
100
AcDbEntity
  8
210
  6
CONTINUOUS
 62
     4
100
AcDbLine
 10
297.0988668995389
 20
109.0947370984231
 30
0.0
 11
299.0708928995388
 21
109.4280710984231
 31
0.0
  0
LINE
  5
6DB5
330
1A
100
AcDbEntity
  8
210
  6
CONTINUOUS
 62
     4
100
AcDbLine
 10
367.098850899539
 20
109.0947370984231
 30
0.0
 11
437.098850899539
 21
109.0947370984231
 31
0.0
  0
TEXT
  5
6DB6
330
1A
100
AcDbEntity
  8
230
  6
CONTINUOUS
 62
     6
100
AcDbText
 10
373.4283333733169
 20
121.5783690984231
 30
0.0
 40
5.0
  1
適用ブスバー厚さ
100
AcDbText
  0
TEXT
  5
6DB7
330
1A
100
AcDbEntity
  8
230
  6
CONTINUOUS
 62
     6
100
AcDbText
 10
378.1699714494964
 20
101.8731380984231
 30
0.0
 40
5.0
  1
ブスバーピッチ
100
AcDbText
  0
TEXT
  5
6DB8
330
1A
100
AcDbEntity
  8
210
  6
CONTINUOUS
 62
     4
100
AcDbText
 10
361.3905178995389
 20
88.20974709842323
 30
0.0
 40
5.0
  1
182
100
AcDbText
  0
TEXT
  5
6DBA
330
1A
100
AcDbEntity
  8
210
  6
CONTINUOUS
 62
     4
100
AcDbText
 10
327.640532899539
 20
112.2197370984231
 30
0.0
 40
5.0
  1
70
100
AcDbText
  0
LINE
  5
6DBF
330
1A
100
AcDbEntity
  8
210
  6
CONTINUOUS
 62
     4
100
AcDbLine
 10
362.0988508995389
 20
129.0947490984232
 30
0.0
 11
372.098850899539
 21
129.0947490984232
 31
0.0
  0
LINE
  5
6DC0
330
1A
100
AcDbEntity
  8
210
  6
CONTINUOUS
 62
     4
100
AcDbLine
 10
367.098850899539
 20
109.0947370984231
 30
0.0
 11
369.0708778995388
 21
108.7614040984232
 31
0.0
  0
LINE
  5
6DC1
330
1A
100
AcDbEntity
  8
210
  6
CONTINUOUS
 62
     4
100
AcDbLine
 10
367.098850899539
 20
109.0947370984231
 30
0.0
 11
369.0708778995388
 21
109.4280710984231
 31
0.0
  0
LINE
  5
6DC2
330
1A
100
AcDbEntity
  8
210
  6
CONTINUOUS
 62
     4
100
AcDbLine
 10
367.098850899539
 20
109.0947370984231
 30
0.0
 11
365.1268248995388
 21
108.7614040984232
 31
0.0
  0
LINE
  5
6DC3
330
1A
100
AcDbEntity
  8
210
  6
CONTINUOUS
 62
     4
100
AcDbLine
 10
367.098850899539
 20
109.0947370984231
 30
0.0
 11
365.1268248995388
 21
109.4280710984231
 31
0.0
  0
LINE
  5
6DC4
330
1A
100
AcDbEntity
  8
210
  6
CONTINUOUS
 62
     4
100
AcDbLine
 10
362.0988508995389
 20
129.0947490984232
 30
0.0
 11
360.1268248995388
 21
128.7614160984231
 31
0.0
  0
LINE
  5
6DC5
330
1A
100
AcDbEntity
  8
210
  6
CONTINUOUS
 62
     4
100
AcDbLine
 10
362.0988508995389
 20
129.0947490984232
 30
0.0
 11
356.7668508995389
 21
129.0947490984232
 31
0.0
  0
LINE
  5
6DC6
330
1A
100
AcDbEntity
  8
210
  6
CONTINUOUS
 62
     4
100
AcDbLine
 10
362.0988508995389
 20
129.0947490984232
 30
0.0
 11
360.1268248995388
 21
129.4280820984231
 31
0.0
  0
TEXT
  5
6DC7
330
1A
100
AcDbEntity
  8
210
  6
CONTINUOUS
 62
     4
100
AcDbText
 10
374.0348352148107
 20
132.2197490984232
 30
0.0
 40
5.0
  1
10
100
AcDbText
  0
LINE
  5
6DC8
330
1A
100
AcDbEntity
  8
210
  6
CONTINUOUS
 62
     4
100
AcDbLine
 10
372.098850899539
 20
129.0947490984232
 30
0.0
 11
374.0708778995387
 21
128.7614160984231
 31
0.0
  0
LINE
  5
6DC9
330
1A
100
AcDbEntity
  8
210
  6
CONTINUOUS
 62
     4
100
AcDbLine
 10
372.098850899539
 20
129.0947490984232
 30
0.0
 11
374.0708778995387
 21
129.4280820984231
 31
0.0
  0
LINE
  5
6DCA
330
1A
100
AcDbEntity
  8
210
  6
CONTINUOUS
 62
     4
100
AcDbLine
 10
372.098850899539
 20
129.0947490984232
 30
0.0
 11
383.3265222148106
 21
129.0947490984232
 31
0.0
  0
TEXT
  5
6DD4
330
1A
100
AcDbEntity
  8
210
  6
CONTINUOUS
 62
     4
100
AcDbText
 10
397.6405178995389
 20
112.2197370984231
 30
0.0
 40
5.0
  1
70
100
AcDbText
  0
LINE
  5
6DDB
330
1A
100
AcDbEntity
  8
210
  6
CONTINUOUS
 62
     4
100
AcDbLine
 10
437.098850899539
 20
109.0947370984231
 30
0.0
 11
435.126824899539
 21
108.7614040984232
 31
0.0
  0
LINE
  5
6DDC
330
1A
100
AcDbEntity
  8
210
  6
CONTINUOUS
 62
     4
100
AcDbLine
 10
437.098850899539
 20
109.0947370984231
 30
0.0
 11
435.126824899539
 21
109.4280710984231
 31
0.0
  0
LINE
  5
6E1F
330
1A
100
AcDbEntity
  8
210
  6
CONTINUOUS
 62
     4
100
AcDbLine
 10
458.098850899539
 20
156.5947340984232
 30
0.0
 11
458.098850899539
 21
81.02224709842323
 31
0.0
  0
LINE
  5
6E20
330
1A
100
AcDbEntity
  8
210
  6
CONTINUOUS
 62
     4
100
AcDbLine
 10
458.098850899539
 20
85.08474709842323
 30
0.0
 11
456.126824899539
 21
84.75141309842319
 31
0.0
  0
LINE
  5
6E21
330
1A
100
AcDbEntity
  8
210
  6
CONTINUOUS
 62
     4
100
AcDbLine
 10
458.098850899539
 20
85.08474709842323
 30
0.0
 11
456.126824899539
 21
85.41808009842316
 31
0.0
  0
LINE
  5
6E6D
330
1A
100
AcDbEntity
  8
170
  6
PHANTOM2
 62
     1
100
AcDbLine
 10
689.2343487923048
 20
172.3966288301626
 30
0.0
 11
689.2343487923048
 21
278.3966598301625
 31
0.0
  0
ARC
  5
6E6E
330
1A
100
AcDbEntity
  8
170
  6
PHANTOM2
 62
     1
100
AcDbCircle
 10
696.2343487923049
 20
172.3966288301626
 30
0.0
 40
7.0
100
AcDbArc
 50
180.0000050000005
 51
270.0000009999949
  0
TEXT
  5
6E6F
330
1A
100
AcDbEntity
  8
230
 62
     6
100
AcDbText
 10
642.467577107931
 20
223.9084623745434
 30
0.0
 40
5.0
  1
H
100
AcDbText
  0
TEXT
  5
6E70
330
1A
100
AcDbEntity
  8
230
 62
     6
100
AcDbText
 10
644.0644964278696
 20
221.9296291613025
 30
0.0
 40
5.0
  1
L
100
AcDbText
  0
ARC
  5
6E71
330
1A
100
AcDbEntity
  8
170
  6
PHANTOM2
 62
     1
100
AcDbCircle
 10
696.2343487923049
 20
278.3966598301625
 30
0.0
 40
7.0
100
AcDbArc
 50
90.0
 51
180.0000029999976
  0
LINE
  5
6E72
330
1A
100
AcDbEntity
  8
10
  6
CONTINUOUS
100
AcDbLine
 10
758.2343487923049
 20
290.3966598301627
 30
0.0
 11
758.2343487923049
 21
160.3966288301627
 31
0.0
  0
LINE
  5
6E73
330
1A
100
AcDbEntity
  8
225
  6
CENTER
 62
     3
100
AcDbLine
 10
804.2343487923048
 20
300.3966598301627
 30
0.0
 11
804.2343487923048
 21
152.8966748301628
 31
0.0
  0
LINE
  5
6E74
330
1A
100
AcDbEntity
  8
210
 62
     4
100
AcDbLine
 10
758.2343487923049
 20
293.7091598301627
 30
0.0
 11
758.2343487923049
 21
321.9689175091503
 31
0.0
  0
INSERT
  5
6E75
330
1A
100
AcDbEntity
  8
210
 62
     4
100
AcDbBlockReference
  2
_OPEN30
 10
758.2343487923049
 20
319.4689175091503
 30
0.0
 41
2.200000000000045
 42
2.200000000000045
 43
2.2
 50
180.0
  0
TEXT
  5
6E76
330
1A
100
AcDbEntity
  8
230
 62
     6
100
AcDbText
 10
782.7574029270158
 20
311.2020266884599
 30
0.0
 40
5.0
  1
パネルカット幅
100
AcDbText
  0
TEXT
  5
6E77
330
1A
100
AcDbEntity
  8
230
 62
     6
100
AcDbText
 10
796.907594854259
 20
303.1595518301626
 30
0.0
 40
5.0
  1
ASL
100
AcDbText
  0
MTEXT
  5
6E78
330
1A
100
AcDbEntity
  8
210
 62
     4
100
AcDbMText
 10
804.2343487923048
 20
323.9689175091503
 30
0.0
 40
5.0
 41
0.0
 71
     5
 72
     1
  1
\A1;92
1001
ACAD
1000
MTEXTBEGIN
1070
    73
1070
     1
1070
    44
1040
1.0
1070
    74
1070
     0
1000
MTEXTEND
1000
MTEXTBEGIN
1070
    73
1070
     1
1070
    44
1040
1.0
1070
    74
1070
     0
1000
MTEXTEND
1000
MTEXTBEGIN
1070
    73
1070
     1
1070
    44
1040
1.0
1070
    74
1070
     0
1000
MTEXTEND
  0
LINE
  5
6FBF
330
1A
100
AcDbEntity
  8
225
  6
CONTINUOUS
 62
     3
100
AcDbLine
 10
707.734470792305
 20
496.5383940984231
 30
0.0
 11
686.734470792305
 21
496.5383940984231
 31
0.0
  0
LINE
  5
6FC0
330
1A
100
AcDbEntity
  8
170
  6
CONTINUOUS
100
AcDbLine
 10
702.234470792305
 20
541.5383940984232
 30
0.0
 11
708.901096792305
 21
546.5383940984231
 31
0.0
  0
TEXT
  5
6FC1
330
1A
100
AcDbEntity
  8
210
100
AcDbText
 10
699.615331673257
 20
573.3210020984231
 30
0.0
 40
5.0
  1
15
100
AcDbText
1001
ACAD
1000
MTEXTBEGIN
1070
    73
1070
     1
1070
    44
1040
1.0
1070
    74
1070
     0
1000
MTEXTEND
  0
MTEXT
  5
6FC2
330
1A
100
AcDbEntity
  8
210
 62
     4
100
AcDbMText
 10
704.7343791078258
 20
575.8211465353119
 30
0.0
 40
5.0
 41
0.0
 71
     5
 72
     1
  1
\A1;15
 11
0.9999999999989464
 21
-0.0000014516272459
 31
0.0
1001
ACAD
1000
MTEXTBEGIN
1070
    73
1070
     1
1070
    44
1040
1.0
1070
    74
1070
     0
1000
MTEXTEND
1000
MTEXTBEGIN
1070
    73
1070
     1
1070
    44
1040
1.0
1070
    74
1070
     0
1000
MTEXTEND
1000
MTEXTBEGIN
1070
    73
1070
     1
1070
    44
1040
1.0
1070
    74
1070
     0
1000
MTEXTEND
1000
MTEXTBEGIN
1070
    73
1070
     1
1070
    44
1040
1.0
1070
    74
1070
     0
1000
MTEXTEND
  0
LINE
  5
6FC3
330
1A
100
AcDbEntity
  8
210
 62
     4
100
AcDbLine
 10
699.4344097923049
 20
571.3210020984231
 30
0.0
 11
710.0343487923048
 21
571.3210020984231
 31
0.0
  0
LINE
  5
6FC4
330
1A
100
AcDbEntity
  8
170
  6
CONTINUOUS
100
AcDbLine
 10
702.234470792305
 20
391.538363098423
 30
0.0
 11
708.901096792305
 21
396.538363098423
 31
0.0
  0
LINE
  5
6FC6
330
1A
100
AcDbEntity
  8
230
  6
CONTINUOUS
 62
     6
100
AcDbLine
 10
695.4708367923046
 20
499.1973440984232
 30
0.0
 11
667.6568011081676
 21
552.4290327221963
 31
0.0
  0
LINE
  5
6FC7
330
1A
100
AcDbEntity
  8
170
  6
CONTINUOUS
100
AcDbLine
 10
672.2343487923049
 20
549.0383940984231
 30
0.0
 11
672.2343487923049
 21
399.0383630984231
 31
0.0
  0
LINE
  5
6FC8
330
1A
100
AcDbEntity
  8
170
  6
DASHED
100
AcDbLine
 10
677.234470792305
 20
552.7884398478652
 30
0.0
 11
677.234470792305
 21
402.4759240984228
 31
0.0
  0
LINE
  5
6FC9
330
1A
100
AcDbEntity
  8
210
  6
CONTINUOUS
 62
     4
100
AcDbLine
 10
686.360081792305
 20
496.5383940984231
 30
0.0
 11
609.2343487923049
 21
496.5383940984231
 31
0.0
  0
TEXT
  5
6FCA
330
1A
100
AcDbEntity
  8
210
  6
CONTINUOUS
 62
     4
100
AcDbText
 10
608.9950100006046
 20
469.3523800757845
 30
0.0
 40
5.0
  1
45
 50
90.00000299999769
100
AcDbText
  0
TEXT
  5
6FCB
330
1A
100
AcDbEntity
  8
230
 62
     6
100
AcDbText
 10
625.81173557699
 20
471.5381386969263
 30
0.0
 40
5.0
  1
H
100
AcDbText
  0
LINE
  5
6FCC
330
1A
100
AcDbEntity
  8
210
  6
CONTINUOUS
 62
     4
100
AcDbLine
 10
612.2343487923049
 20
496.5383940984231
 30
0.0
 11
612.2343487923049
 21
451.5383940984231
 31
0.0
  0
LINE
  5
6FCD
330
1A
100
AcDbEntity
  8
210
  6
CONTINUOUS
 62
     4
100
AcDbLine
 10
612.2343487923049
 20
451.5383940984231
 30
0.0
 11
612.5676827923048
 21
453.5104210984234
 31
0.0
  0
LINE
  5
6FCE
330
1A
100
AcDbEntity
  8
210
  6
CONTINUOUS
 62
     4
100
AcDbLine
 10
612.2343487923049
 20
451.5383940984231
 30
0.0
 11
611.9010157923049
 21
453.5104210984234
 31
0.0
  0
TEXT
  5
6FCF
330
1A
100
AcDbEntity
  8
230
 62
     6
100
AcDbText
 10
627.4086548969287
 20
469.5593054836852
 30
0.0
 40
5.0
  1
L
100
AcDbText
  0
LINE
  5
6FD0
330
1A
100
AcDbEntity
  8
210
  6
CONTINUOUS
 62
     4
100
AcDbLine
 10
612.2343487923049
 20
496.5383940984231
 30
0.0
 11
612.5676827923048
 21
494.5663670984234
 31
0.0
  0
LINE
  5
6FD1
330
1A
100
AcDbEntity
  8
210
  6
CONTINUOUS
 62
     4
100
AcDbLine
 10
612.2343487923049
 20
496.5383940984231
 30
0.0
 11
611.9010157923049
 21
494.5663670984234
 31
0.0
  0
LINE
  5
6FD3
330
1A
100
AcDbEntity
  8
170
  6
CONTINUOUS
100
AcDbLine
 10
672.2343487923049
 20
399.0383630984231
 30
0.0
 11
675.5677227923049
 21
401.5383630984231
 31
0.0
  0
LINE
  5
6FD4
330
1A
100
AcDbEntity
  8
170
  6
CONTINUOUS
100
AcDbLine
 10
682.2344707923051
 20
406.5383630984231
 30
0.0
 11
692.234470792305
 21
399.0383630984231
 31
0.0
  0
LINE
  5
6FD5
330
1A
100
AcDbEntity
  8
170
  6
CONTINUOUS
100
AcDbLine
 10
675.5677227923049
 20
401.5383630984231
 30
0.0
 11
682.2344707923051
 21
406.5383630984231
 31
0.0
  0
LINE
  5
6FD6
330
1A
100
AcDbEntity
  8
170
  6
CONTINUOUS
100
AcDbLine
 10
692.234470792305
 20
399.0383630984231
 30
0.0
 11
702.234470792305
 21
391.538363098423
 31
0.0
  0
LINE
  5
6FD7
330
1A
100
AcDbEntity
  8
170
  6
PHANTOM2
 62
     1
100
AcDbLine
 10
689.2343487923048
 20
421.0361291319854
 30
0.0
 11
689.2343487923048
 21
527.0406593275965
 31
0.0
  0
CIRCLE
  5
6FD8
330
1A
100
AcDbEntity
  8
10
  6
CONTINUOUS
100
AcDbCircle
 10
697.234470792305
 20
496.5383940984231
 30
0.0
 40
3.0
  0
LINE
  5
6FD9
330
1A
100
AcDbEntity
  8
230
  6
CONTINUOUS
 62
     6
100
AcDbLine
 10
695.4708367923046
 20
499.1973440984232
 30
0.0
 11
694.2621517923051
 21
500.7907940984234
 31
0.0
  0
CIRCLE
  5
6FDA
330
1A
100
AcDbEntity
  8
10
  6
CONTINUOUS
100
AcDbCircle
 10
697.234470792305
 20
496.5383940984231
 30
0.0
 40
2.458499999999999
  0
LINE
  5
6FDB
330
1A
100
AcDbEntity
  8
230
  6
CONTINUOUS
 62
     6
100
AcDbLine
 10
695.4708367923046
 20
499.1973440984232
 30
0.0
 11
694.8530217923051
 21
501.0995280984231
 31
0.0
  0
LINE
  5
6FDC
330
1A
100
AcDbEntity
  8
225
  6
CONTINUOUS
 62
     3
100
AcDbLine
 10
697.234470792305
 20
507.0383940984231
 30
0.0
 11
697.234470792305
 21
486.0383940984231
 31
0.0
  0
LINE
  5
6FDD
330
1A
100
AcDbEntity
  8
230
  6
CONTINUOUS
 62
     6
100
AcDbLine
 10
667.6568011081676
 20
552.4290327221963
 30
0.0
 11
638.0577880886906
 21
552.4290327221963
 31
0.0
  0
LINE
  5
6FDE
330
1A
100
AcDbEntity
  8
170
  6
CONTINUOUS
100
AcDbLine
 10
672.2343487923049
 20
549.0383940984231
 30
0.0
 11
675.5677227923049
 21
551.5383940984231
 31
0.0
  0
TEXT
  5
6FDF
330
1A
100
AcDbEntity
  8
230
  6
CONTINUOUS
 62
     6
100
AcDbText
 10
640.1097850887959
 20
555.2242986375256
 30
0.0
 40
5.0
  1
2-M6
100
AcDbText
  0
LINE
  5
6FE0
330
1A
100
AcDbEntity
  8
210
 62
     4
100
AcDbLine
 10
697.2344097923049
 20
507.0383940984231
 30
0.0
 11
697.2344097923048
 21
573.8210020984231
 31
0.0
  0
LINE
  5
6FE1
330
1A
100
AcDbEntity
  8
210
 62
     4
100
AcDbLine
 10
697.2344097923048
 20
558.594641319926
 30
0.0
 11
697.2344097923048
 21
593.8210020984233
 31
0.0
  0
LINE
  5
6FE2
330
1A
100
AcDbEntity
  8
170
  6
CONTINUOUS
100
AcDbLine
 10
682.2344707923051
 20
556.5383940984231
 30
0.0
 11
692.234470792305
 21
549.0383940984231
 31
0.0
  0
LINE
  5
6FE3
330
1A
100
AcDbEntity
  8
170
  6
CONTINUOUS
100
AcDbLine
 10
675.5677227923049
 20
551.5383940984231
 30
0.0
 11
682.2344707923051
 21
556.5383940984231
 31
0.0
  0
LINE
  5
6FE4
330
1A
100
AcDbEntity
  8
170
  6
CONTINUOUS
100
AcDbLine
 10
692.234470792305
 20
549.0383940984231
 30
0.0
 11
702.234470792305
 21
541.5383940984232
 31
0.0
  0
INSERT
  5
6FE5
330
1A
100
AcDbEntity
  8
210
 62
     4
100
AcDbBlockReference
  2
_OPEN30
 10
697.2344097923048
 20
591.3210020984234
 30
0.0
 41
2.200000000000045
 42
2.200000000000045
 43
2.2
 50
180.0
  0
INSERT
  5
6FE6
330
1A
100
AcDbEntity
  8
210
 62
     4
100
AcDbBlockReference
  2
_OPEN30
 10
697.2344097923048
 20
571.3210020984231
 30
0.0
 41
2.200000000000045
 42
2.200000000000045
 43
2.2
 50
180.0
  0
LINE
  5
6FE7
330
1A
100
AcDbEntity
  8
170
  6
CONTINUOUS
100
AcDbLine
 10
712.2343487923046
 20
549.0383940984231
 30
0.0
 11
712.2343487923049
 21
399.0383630984231
 31
0.0
  0
LINE
  5
6FE8
330
1A
100
AcDbEntity
  8
225
  6
CENTER
 62
     3
100
AcDbLine
 10
804.2343487923048
 20
549.8861826573991
 30
0.0
 11
804.2343487923048
 21
389.0383630984231
 31
0.0
  0
TEXT
  5
6FE9
330
1A
100
AcDbEntity
  8
230
 62
     6
100
AcDbText
 10
771.9069083374347
 20
369.1777866356031
 30
0.0
 40
10.0
  1
取付寸法図
100
AcDbText
  0
LINE
  5
6FEA
330
1A
100
AcDbEntity
  8
170
  6
CONTINUOUS
100
AcDbLine
 10
708.901096792305
 20
396.538363098423
 30
0.0
 11
712.2343487923049
 21
399.0383630984231
 31
0.0
  0
LINE
  5
6FEB
330
1A
100
AcDbEntity
  8
210
 62
     4
100
AcDbLine
 10
712.2343487923049
 20
549.1008940984231
 30
0.0
 11
712.2343487923049
 21
573.8210020984231
 31
0.0
  0
LINE
  5
6FEC
330
1A
100
AcDbEntity
  8
170
  6
CONTINUOUS
100
AcDbLine
 10
708.901096792305
 20
546.5383940984231
 30
0.0
 11
712.2343487923049
 21
549.0383940984231
 31
0.0
  0
LINE
  5
6FED
330
1A
100
AcDbEntity
  8
210
 62
     4
100
AcDbLine
 10
710.0343487923048
 20
571.9104903164232
 30
0.0
 11
712.2343487923049
 21
571.3210020984231
 31
0.0
  0
LINE
  5
6FEE
330
1A
100
AcDbEntity
  8
210
 62
     4
100
AcDbLine
 10
712.2343487923049
 20
571.3210020984231
 30
0.0
 11
710.0343487923048
 21
570.7315138804231
 31
0.0
  0
LINE
  5
6FEF
330
1A
100
AcDbEntity
  8
210
 62
     4
100
AcDbLine
 10
712.2343487923049
 20
571.3210020984231
 30
0.0
 11
710.0343487923048
 21
571.3210020984231
 31
0.0
  0
LINE
  5
6FF0
330
1A
100
AcDbEntity
  8
210
 62
     4
100
AcDbLine
 10
712.2343487923049
 20
567.7667125677987
 30
0.0
 11
712.2343487923049
 21
573.8210020984231
 31
0.0
  0
INSERT
  5
6FF1
330
1A
100
AcDbEntity
  8
210
 62
     4
100
AcDbBlockReference
  2
_OPEN30
 10
712.2343487923049
 20
571.3210020984231
 30
0.0
 41
2.200000000000045
 42
2.200000000000045
 43
2.2
 50
180.0
  0
MTEXT
  5
6FF2
330
1A
100
AcDbEntity
  8
210
 62
     4
100
AcDbMText
 10
804.2343792923047
 20
595.8210020984234
 30
0.0
 40
5.0
 41
0.0
 71
     5
 72
     1
  1
\A1;214
1001
ACAD
1000
MTEXTBEGIN
1070
    73
1070
     1
1070
    44
1040
1.0
1070
    74
1070
     0
1000
MTEXTEND
1000
MTEXTBEGIN
1070
    73
1070
     1
1070
    44
1040
1.0
1070
    74
1070
     0
1000
MTEXTEND
1000
MTEXTBEGIN
1070
    73
1070
     1
1070
    44
1040
1.0
1070
    74
1070
     0
1000
MTEXTEND
1000
MTEXTBEGIN
1070
    73
1070
     1
1070
    44
1040
1.0
1070
    74
1070
     0
1000
MTEXTEND
  0
TEXT
  5
6FF3
330
1A
100
AcDbEntity
  8
230
 62
     6
100
AcDbText
 10
797.2820539341815
 20
552.8447085008393
 30
0.0
 40
5.0
  1
ASL
100
AcDbText
  0
MTEXT
  5
6FF4
330
1A
100
AcDbEntity
  8
210
 62
     4
100
AcDbMText
 10
804.2343487923048
 20
575.8210020984231
 30
0.0
 40
5.0
 41
0.0
 71
     5
 72
     1
  1
\A1;184
1001
ACAD
1000
MTEXTBEGIN
1070
    73
1070
     1
1070
    44
1040
1.0
1070
    74
1070
     0
1000
MTEXTEND
1000
MTEXTBEGIN
1070
    73
1070
     1
1070
    44
1040
1.0
1070
    74
1070
     0
1000
MTEXTEND
1000
MTEXTBEGIN
1070
    73
1070
     1
1070
    44
1040
1.0
1070
    74
1070
     0
1000
MTEXTEND
  0
LINE
  5
6FF5
330
1A
100
AcDbEntity
  8
10
  6
CONTINUOUS
100
AcDbLine
 10
850.2343487923049
 20
290.3966598301627
 30
0.0
 11
850.2343487923049
 21
160.3966288301627
 31
0.0
  0
LINE
  5
6FF6
330
1A
100
AcDbEntity
  8
170
  6
PHANTOM2
 62
     1
100
AcDbLine
 10
919.2343487923048
 20
172.3966288301626
 30
0.0
 11
919.2343487923048
 21
278.3966598301625
 31
0.0
  0
ARC
  5
6FF7
330
1A
100
AcDbEntity
  8
170
  6
PHANTOM2
 62
     1
100
AcDbCircle
 10
912.2343487923048
 20
172.3966288301626
 30
0.0
 40
7.0
100
AcDbArc
 50
270.0
 51
0.000008999999603
  0
LINE
  5
6FF8
330
1A
100
AcDbEntity
  8
210
 62
     4
100
AcDbLine
 10
850.2343487923049
 20
293.7091598301627
 30
0.0
 11
850.2343487923049
 21
321.9689175091503
 31
0.0
  0
INSERT
  5
6FF9
330
1A
100
AcDbEntity
  8
210
 62
     4
100
AcDbBlockReference
  2
_OPEN30
 10
850.2343487923049
 20
319.4689175091503
 30
0.0
 41
2.200000000000045
 42
2.200000000000045
 43
2.2
  0
ARC
  5
6FFA
330
1A
100
AcDbEntity
  8
170
  6
PHANTOM2
 62
     1
100
AcDbCircle
 10
912.2343487923048
 20
278.3966598301625
 30
0.0
 40
7.0
100
AcDbArc
 50
0.0
 51
90.00000299999769
  0
TEXT
  5
6FFB
330
1A
100
AcDbEntity
  8
230
  6
CONTINUOUS
 62
     6
100
AcDbText
 10
968.5826824063815
 20
583.0280584676861
 30
0.0
 40
5.0
  1
取付アングル
100
AcDbText
  0
LINE
  5
6FFC
330
1A
100
AcDbEntity
  8
230
  6
CONTINUOUS
 62
     6
100
AcDbLine
 10
958.5824355318345
 20
581.1587746085167
 30
0.0
 11
1006.460990808772
 21
581.1587746085167
 31
0.0
  0
LINE
  5
6FFE
330
1A
100
AcDbEntity
  8
170
  6
CONTINUOUS
100
AcDbLine
 10
936.2343487923048
 20
549.0383940984231
 30
0.0
 11
936.2343487923048
 21
399.0383630984231
 31
0.0
  0
LINE
  5
6FFF
330
1A
100
AcDbEntity
  8
170
  6
CONTINUOUS
100
AcDbLine
 10
896.2343487923048
 20
549.0383940984231
 30
0.0
 11
896.2343487923048
 21
399.0383630984231
 31
0.0
  0
LINE
  5
7000
330
1A
100
AcDbEntity
  8
170
  6
DASHED
100
AcDbLine
 10
931.2343487923049
 20
545.2883483489811
 30
0.0
 11
931.2343487923049
 21
395.600863098423
 31
0.0
  0
LINE
  5
7001
330
1A
100
AcDbEntity
  8
170
  6
CONTINUOUS
100
AcDbLine
 10
906.2343487923049
 20
406.5383630984231
 30
0.0
 11
916.2343487923049
 21
399.0383630984231
 31
0.0
  0
LINE
  5
7002
330
1A
100
AcDbEntity
  8
225
  6
CONTINUOUS
 62
     3
100
AcDbLine
 10
900.734348792305
 20
451.5383940984231
 30
0.0
 11
921.7343487923049
 21
451.5383940984231
 31
0.0
  0
LINE
  5
7003
330
1A
100
AcDbEntity
  8
170
  6
CONTINUOUS
100
AcDbLine
 10
899.5677227923048
 20
401.5383630984231
 30
0.0
 11
906.2343487923049
 21
406.5383630984231
 31
0.0
  0
LINE
  5
7004
330
1A
100
AcDbEntity
  8
170
  6
CONTINUOUS
100
AcDbLine
 10
896.2343487923048
 20
399.0383630984231
 30
0.0
 11
899.5677227923048
 21
401.5383630984231
 31
0.0
  0
LINE
  5
7006
330
1A
100
AcDbEntity
  8
170
  6
CONTINUOUS
100
AcDbLine
 10
916.2343487923049
 20
399.0383630984231
 30
0.0
 11
926.2343487923049
 21
391.538363098423
 31
0.0
  0
LINE
  5
7007
330
1A
100
AcDbEntity
  8
170
  6
CONTINUOUS
100
AcDbLine
 10
926.2343487923049
 20
391.538363098423
 30
0.0
 11
932.901096792305
 21
396.538363098423
 31
0.0
  0
LINE
  5
7008
330
1A
100
AcDbEntity
  8
170
  6
CONTINUOUS
100
AcDbLine
 10
932.901096792305
 20
396.538363098423
 30
0.0
 11
936.2343487923048
 21
399.0383630984231
 31
0.0
  0
LINE
  5
7009
330
1A
100
AcDbEntity
  8
170
  6
PHANTOM2
 62
     1
100
AcDbLine
 10
919.2343487923048
 20
421.0361291319854
 30
0.0
 11
919.2343487923048
 21
527.0406590646618
 31
0.0
  0
CIRCLE
  5
700A
330
1A
100
AcDbEntity
  8
10
  6
CONTINUOUS
100
AcDbCircle
 10
911.2343487923048
 20
451.5383940984231
 30
0.0
 40
3.0
  0
CIRCLE
  5
700B
330
1A
100
AcDbEntity
  8
10
  6
CONTINUOUS
100
AcDbCircle
 10
911.2343487923048
 20
451.5383940984231
 30
0.0
 40
2.458499999999999
  0
LINE
  5
700C
330
1A
100
AcDbEntity
  8
225
  6
CONTINUOUS
 62
     3
100
AcDbLine
 10
911.2343487923048
 20
462.0383940984232
 30
0.0
 11
911.2343487923048
 21
441.0383940984231
 31
0.0
  0
LINE
  5
700D
330
1A
100
AcDbEntity
  8
170
  6
CONTINUOUS
100
AcDbLine
 10
906.2343487923049
 20
556.5383940984231
 30
0.0
 11
916.2343487923049
 21
549.0383940984231
 31
0.0
  0
MTEXT
  5
700E
330
1A
100
AcDbEntity
  8
210
 62
     4
100
AcDbMText
 10
903.7343487923049
 20
575.8210020984231
 30
0.0
 40
5.0
 41
0.0
 71
     5
 72
     1
  1
\A1;15
1001
ACAD
1000
MTEXTBEGIN
1070
    73
1070
     1
1070
    44
1040
1.0
1070
    74
1070
     0
1000
MTEXTEND
1000
MTEXTBEGIN
1070
    73
1070
     1
1070
    44
1040
1.0
1070
    74
1070
     0
1000
MTEXTEND
1000
MTEXTBEGIN
1070
    73
1070
     1
1070
    44
1040
1.0
1070
    74
1070
     0
1000
MTEXTEND
1000
MTEXTBEGIN
1070
    73
1070
     1
1070
    44
1040
1.0
1070
    74
1070
     0
1000
MTEXTEND
  0
LINE
  5
700F
330
1A
100
AcDbEntity
  8
210
 62
     4
100
AcDbLine
 10
898.4343487923046
 20
571.3210020984231
 30
0.0
 11
909.034348792305
 21
571.3210020984231
 31
0.0
  0
LINE
  5
7010
330
1A
100
AcDbEntity
  8
210
 62
     4
100
AcDbLine
 10
896.2343487923048
 20
549.1008940984231
 30
0.0
 11
896.2343487923048
 21
573.8210020984231
 31
0.0
  0
LINE
  5
7011
330
1A
100
AcDbEntity
  8
170
  6
CONTINUOUS
100
AcDbLine
 10
899.5677227923048
 20
551.5383940984231
 30
0.0
 11
906.2343487923049
 21
556.5383940984231
 31
0.0
  0
LINE
  5
7012
330
1A
100
AcDbEntity
  8
170
  6
CONTINUOUS
100
AcDbLine
 10
896.2343487923048
 20
549.0383940984231
 30
0.0
 11
899.5677227923048
 21
551.5383940984231
 31
0.0
  0
INSERT
  5
7013
330
1A
100
AcDbEntity
  8
210
 62
     4
100
AcDbBlockReference
  2
_OPEN30
 10
896.2343487923048
 20
571.3210020984231
 30
0.0
 41
2.200000000000045
 42
2.200000000000045
 43
2.2
  0
LINE
  5
7014
330
1A
100
AcDbEntity
  8
210
 62
     4
100
AcDbLine
 10
896.2343487923048
 20
567.7667125677987
 30
0.0
 11
896.2343487923048
 21
573.8210020984231
 31
0.0
  0
INSERT
  5
7015
330
1A
100
AcDbEntity
  8
210
 62
     4
100
AcDbBlockReference
  2
_OPEN30
 10
896.2343487923048
 20
571.3210020984231
 30
0.0
 41
2.200000000000045
 42
2.200000000000045
 43
2.2
 50
180.0
  0
LINE
  5
7016
330
1A
100
AcDbEntity
  8
230
  6
CONTINUOUS
 62
     6
100
AcDbLine
 10
921.7581857923047
 20
533.2230700984232
 30
0.0
 11
958.5824355318345
 21
581.1587746085167
 31
0.0
  0
LINE
  5
7017
330
1A
100
AcDbEntity
  8
210
 62
     4
100
AcDbLine
 10
911.2343487923052
 20
462.0383940984232
 30
0.0
 11
911.2343487923048
 21
573.8210020984231
 31
0.0
  0
LINE
  5
7018
330
1A
100
AcDbEntity
  8
210
 62
     4
100
AcDbLine
 10
911.2343487923048
 20
558.594641319926
 30
0.0
 11
911.2343487923048
 21
593.8210020984233
 31
0.0
  0
LINE
  5
7019
330
1A
100
AcDbEntity
  8
230
  6
CONTINUOUS
 62
     6
100
AcDbLine
 10
921.7581857923047
 20
533.2230700984232
 30
0.0
 11
923.2238787923048
 21
534.5838580984231
 31
0.0
  0
LINE
  5
701A
330
1A
100
AcDbEntity
  8
170
  6
CONTINUOUS
100
AcDbLine
 10
916.2343487923049
 20
549.0383940984231
 30
0.0
 11
926.2343487923049
 21
541.5383940984232
 31
0.0
  0
LINE
  5
701B
330
1A
100
AcDbEntity
  8
230
  6
CONTINUOUS
 62
     6
100
AcDbLine
 10
921.7581857923047
 20
533.2230700984232
 30
0.0
 11
922.6951997923046
 21
534.989990098423
 31
0.0
  0
LINE
  5
701C
330
1A
100
AcDbEntity
  8
170
  6
CONTINUOUS
100
AcDbLine
 10
926.2343487923049
 20
541.5383940984232
 30
0.0
 11
932.901096792305
 21
546.5383940984231
 31
0.0
  0
LINE
  5
701D
330
1A
100
AcDbEntity
  8
170
  6
CONTINUOUS
100
AcDbLine
 10
932.901096792305
 20
546.5383940984231
 30
0.0
 11
936.2343487923048
 21
549.0383940984231
 31
0.0
  0
INSERT
  5
701E
330
1A
100
AcDbEntity
  8
210
 62
     4
100
AcDbBlockReference
  2
_OPEN30
 10
911.2343487923048
 20
591.3210020984234
 30
0.0
 41
2.200000000000045
 42
2.200000000000045
 43
2.2
  0
INSERT
  5
701F
330
1A
100
AcDbEntity
  8
210
 62
     4
100
AcDbBlockReference
  2
_OPEN30
 10
911.2343487923048
 20
571.3210020984231
 30
0.0
 41
2.200000000000045
 42
2.200000000000045
 43
2.2
  0
LINE
  5
7020
330
1A
100
AcDbEntity
  8
0
  6
CONTINUOUS
 62
     2
100
AcDbLine
 10
289.5988588995388
 20
526.0384250984231
 30
0.0
 11
289.5988588995388
 21
526.5384250984232
 31
0.0
  0
LINE
  5
7021
330
1A
100
AcDbEntity
  8
150
  6
HIDDEN2
 62
     7
100
AcDbLine
 10
349.5988588995389
 20
481.0383940984231
 30
0.0
 11
349.5988588995389
 21
467.0383940984232
 31
0.0
  0
LINE
  5
7022
330
1A
100
AcDbEntity
  8
0
  6
CONTINUOUS
 62
     2
100
AcDbLine
 10
289.5988588995388
 20
422.0383940984231
 30
0.0
 11
289.5988588995388
 21
421.5383940984231
 31
0.0
  0
CIRCLE
  5
7023
330
1A
100
AcDbEntity
  8
10
100
AcDbCircle
 10
260.0988368995389
 20
496.5384030984232
 30
0.0
 40
3.0
  0
CIRCLE
  5
7024
330
1A
100
AcDbEntity
  8
10
100
AcDbCircle
 10
474.0988888995389
 20
451.5383940984232
 30
0.0
 40
3.0
  0
LINE
  5
7026
330
1A
100
AcDbEntity
  8
210
  6
CONTINUOUS
 62
     4
100
AcDbLine
 10
234.0988278995389
 20
202.594731098423
 30
0.0
 11
212.0988278995389
 21
202.594731098423
 31
0.0
  0
LINE
  5
7027
330
1A
100
AcDbEntity
  8
210
  6
CONTINUOUS
 62
     4
100
AcDbLine
 10
253.098858899539
 20
223.594731098423
 30
0.0
 11
212.0988278995389
 21
223.594731098423
 31
0.0
  0
LINE
  5
7028
330
1A
100
AcDbEntity
  8
210
  6
CONTINUOUS
 62
     4
100
AcDbLine
 10
215.0988278995389
 20
202.594731098423
 30
0.0
 11
215.0988278995389
 21
223.594731098423
 31
0.0
  0
LINE
  5
7029
330
1A
100
AcDbEntity
  8
210
  6
CONTINUOUS
 62
     4
100
AcDbLine
 10
215.0988278995389
 20
202.594731098423
 30
0.0
 11
215.4321618995388
 21
204.5667570984231
 31
0.0
  0
TEXT
  5
702A
330
1A
100
AcDbEntity
  8
210
  6
CONTINUOUS
 62
     4
100
AcDbText
 10
212.2001001703281
 20
209.0309450129676
 30
0.0
 40
5.0
  1
21
 50
90.00000299999769
100
AcDbText
  0
LINE
  5
702B
330
1A
100
AcDbEntity
  8
210
  6
CONTINUOUS
 62
     4
100
AcDbLine
 10
215.0988278995389
 20
202.594731098423
 30
0.0
 11
214.7654948995389
 21
204.5667570984231
 31
0.0
  0
LINE
  5
702C
330
1A
100
AcDbEntity
  8
210
  6
CONTINUOUS
 62
     4
100
AcDbLine
 10
215.0988278995389
 20
223.594731098423
 30
0.0
 11
215.4321618995388
 21
221.622704098423
 31
0.0
  0
LINE
  5
702D
330
1A
100
AcDbEntity
  8
210
  6
CONTINUOUS
 62
     4
100
AcDbLine
 10
215.0988278995389
 20
223.594731098423
 30
0.0
 11
214.7654948995389
 21
221.622704098423
 31
0.0
  0
ARC
  5
702E
330
1A
100
AcDbEntity
  8
0
  6
CONTINUOUS
 62
     2
100
AcDbCircle
 10
254.0988588995389
 20
221.5947300984231
 30
0.0
 40
2.0
100
AcDbArc
 50
90.0
 51
180.0000029999976
  0
ARC
  5
702F
330
1A
100
AcDbEntity
  8
150
  6
HIDDEN2
100
AcDbCircle
 10
253.0988588995389
 20
215.5947299937033
 30
0.0
 40
1.0
100
AcDbArc
 50
90.0
 51
180.0000029999976
  0
LINE
  5
7030
330
1A
100
AcDbEntity
  8
150
  6
DASHED
100
AcDbLine
 10
262.5573548995388
 20
216.5947299937033
 30
0.0
 11
262.5573548995388
 21
194.0947299937033
 31
0.0
  0
LINE
  5
7031
330
1A
100
AcDbEntity
  8
150
  6
DASHED
100
AcDbLine
 10
263.0988588995389
 20
216.5947299937033
 30
0.0
 11
263.0988588995389
 21
194.6362339937033
 31
0.0
  0
LWPOLYLINE
  5
7032
330
1A
100
AcDbEntity
  8
10
  6
HIDDEN2
100
AcDbPolyline
 90
        4
 70
     1
 43
0.0
 10
257.0988588995389
 20
197.5947299937033
 10
263.0988588995389
 20
197.5947299937033
 10
263.0988588995389
 20
216.5947299937033
 10
257.0988588995389
 20
216.5947299937033
  0
LINE
  5
7033
330
1A
100
AcDbEntity
  8
150
  6
DASHED
100
AcDbLine
 10
257.6403628995389
 20
216.5947299937033
 30
0.0
 11
257.6403628995389
 21
194.0947299937033
 31
0.0
  0
LINE
  5
7034
330
1A
100
AcDbEntity
  8
150
  6
DASHED
100
AcDbLine
 10
257.0988588995389
 20
216.5947299937033
 30
0.0
 11
257.0988588995389
 21
194.6362339937033
 31
0.0
  0
LINE
  5
7035
330
1A
100
AcDbEntity
  8
225
  6
CENTER
 62
     3
100
AcDbLine
 10
260.0988588995389
 20
228.5947299937033
 30
0.0
 11
260.0988588995389
 21
189.5947299937033
 31
0.0
  0
LINE
  5
7036
330
1A
100
AcDbEntity
  8
0
  6
CONTINUOUS
 62
     2
100
AcDbLine
 10
252.0988588995389
 20
221.5947300984231
 30
0.0
 11
252.0988588995389
 21
202.5947300984231
 31
0.0
  0
LINE
  5
7037
330
1A
100
AcDbEntity
  8
150
  6
DASHED
100
AcDbLine
 10
257.0988588995389
 20
194.6362339937033
 30
0.0
 11
263.0988588995389
 21
194.6362339937033
 31
0.0
  0
LINE
  5
7038
330
1A
100
AcDbEntity
  8
150
  6
DASHED
100
AcDbLine
 10
257.6403628995389
 20
194.0947299937033
 30
0.0
 11
262.5573548995388
 21
194.0947299937033
 31
0.0
  0
LINE
  5
7039
330
1A
100
AcDbEntity
  8
150
  6
DASHED
100
AcDbLine
 10
257.0988588995389
 20
194.6362339937033
 30
0.0
 11
257.6403628995389
 21
194.0947299937033
 31
0.0
  0
LINE
  5
703A
330
1A
100
AcDbEntity
  8
150
  6
DASHED
100
AcDbLine
 10
263.0988588995389
 20
194.6362339937033
 30
0.0
 11
262.5573548995388
 21
194.0947299937033
 31
0.0
  0
ARC
  5
703B
330
1A
100
AcDbEntity
  8
150
  6
HIDDEN2
100
AcDbCircle
 10
263.2954948995388
 20
220.7648259937034
 30
0.0
 40
1.9
100
AcDbArc
 50
4.999913000002249
 51
74.68147499999915
  0
ARC
  5
703C
330
1A
100
AcDbEntity
  8
150
  6
HIDDEN2
100
AcDbCircle
 10
260.0988638995388
 20
209.0947229937035
 30
0.0
 40
14.0
100
AcDbArc
 50
74.68147499999915
 51
105.3184529999979
  0
LINE
  5
703D
330
1A
100
AcDbEntity
  8
150
  6
HIDDEN2
100
AcDbLine
 10
260.8488588995389
 20
217.5947299937033
 30
0.0
 11
260.0988588995389
 21
219.0947299937033
 31
0.0
  0
LINE
  5
703E
330
1A
100
AcDbEntity
  8
150
  6
HIDDEN2
100
AcDbLine
 10
260.0988588995389
 20
217.5947299937033
 30
0.0
 11
259.3488588995389
 21
219.0947299937033
 31
0.0
  0
LINE
  5
703F
330
1A
100
AcDbEntity
  8
150
  6
HIDDEN2
100
AcDbLine
 10
265.3488588995389
 20
219.0947299937033
 30
0.0
 11
265.1882748995388
 21
220.9304229937033
 31
0.0
  0
LINE
  5
7040
330
1A
100
AcDbEntity
  8
230
  6
CONTINUOUS
100
AcDbLine
 10
257.3304168995388
 20
222.818269098423
 30
0.0
 11
257.1166618995389
 21
224.806813098423
 31
0.0
  0
LINE
  5
7041
330
1A
100
AcDbEntity
  8
230
  6
CONTINUOUS
100
AcDbLine
 10
257.3304168995388
 20
222.818269098423
 30
0.0
 11
256.4749608995388
 21
224.626083098423
 31
0.0
  0
ARC
  5
7042
330
1A
100
AcDbEntity
  8
150
  6
HIDDEN2
100
AcDbCircle
 10
268.0988588995389
 20
222.5947299937033
 30
0.0
 40
1.0
100
AcDbArc
 50
90.0
 51
180.0000029999976
  0
LINE
  5
7043
330
1A
100
AcDbEntity
  8
150
  6
HIDDEN2
100
AcDbLine
 10
267.0988588995389
 20
222.5947299937033
 30
0.0
 11
267.0988588995389
 21
216.5947299937033
 31
0.0
  0
LINE
  5
7044
330
1A
100
AcDbEntity
  8
150
  6
HIDDEN2
100
AcDbLine
 10
266.1988648995388
 20
217.5947299937033
 30
0.0
 11
266.1988648995388
 21
219.0947299937033
 31
0.0
  0
LINE
  5
7045
330
1A
100
AcDbEntity
  8
150
  6
HIDDEN2
100
AcDbLine
 10
266.5988588995389
 20
216.5947299937033
 30
0.0
 11
266.5988588995389
 21
217.5947299937033
 31
0.0
  0
LINE
  5
7046
330
1A
100
AcDbEntity
  8
150
  6
HIDDEN2
100
AcDbLine
 10
254.8488588995389
 20
219.0947299937033
 30
0.0
 11
255.0094728995388
 21
220.9304229937033
 31
0.0
  0
LINE
  5
7047
330
1A
100
AcDbEntity
  8
150
  6
HIDDEN2
100
AcDbLine
 10
253.9988528995388
 20
217.5947299937033
 30
0.0
 11
253.9988528995388
 21
219.0947299937033
 31
0.0
  0
LINE
  5
7048
330
1A
100
AcDbEntity
  8
150
  6
HIDDEN2
100
AcDbLine
 10
253.5988588995389
 20
216.5947299937033
 30
0.0
 11
253.5988588995389
 21
217.5947299937033
 31
0.0
  0
LINE
  5
7049
330
1A
100
AcDbEntity
  8
150
  6
HIDDEN2
100
AcDbLine
 10
253.9988528995388
 20
219.0947299937033
 30
0.0
 11
266.1988648995388
 21
219.0947299937033
 31
0.0
  0
LINE
  5
704A
330
1A
100
AcDbEntity
  8
150
  6
HIDDEN2
100
AcDbLine
 10
253.5988588995389
 20
217.5947299937033
 30
0.0
 11
266.5988588995389
 21
217.5947299937033
 31
0.0
  0
LINE
  5
704B
330
1A
100
AcDbEntity
  8
150
  6
HIDDEN2
100
AcDbLine
 10
253.0988588995389
 20
216.5947299937033
 30
0.0
 11
267.0988588995389
 21
216.5947299937033
 31
0.0
  0
ARC
  5
704C
330
1A
100
AcDbEntity
  8
150
  6
HIDDEN2
100
AcDbCircle
 10
256.902222899539
 20
220.7648259937034
 30
0.0
 40
1.9
100
AcDbArc
 50
105.3185250000008
 51
175.0000869999977
  0
LINE
  5
704D
330
1A
100
AcDbEntity
  8
230
  6
CONTINUOUS
 62
     6
100
AcDbLine
 10
257.3304306959985
 20
222.8182690984211
 30
0.0
 11
245.1423791696692
 21
266.0933286119997
 31
0.0
  0
LINE
  5
7050
330
1A
100
AcDbEntity
  8
230
  6
CONTINUOUS
 62
     6
100
AcDbLine
 10
245.1423791696692
 20
266.0933286119997
 30
0.0
 11
201.8838041696692
 21
266.0933286119997
 31
0.0
  0
TEXT
  5
7051
330
1A
100
AcDbEntity
  8
230
  6
CONTINUOUS
 62
     6
100
AcDbText
 10
201.8376001696692
 20
276.3725186119996
 30
0.0
 40
5.0
  1
差込台取付けねじ
100
AcDbText
  0
TEXT
  5
7052
330
1A
100
AcDbEntity
  8
230
  6
CONTINUOUS
 62
     6
100
AcDbText
 10
202.6087869422619
 20
268.7558646119997
 30
0.0
 40
5.0
  1
ナベM6
100
AcDbText
  0
TEXT
  5
7053
330
1A
100
AcDbEntity
  8
230
  6
CONTINUOUS
 62
     6
100
AcDbText
 10
223.4732522652711
 20
309.5700411649506
 30
0.0
 40
5.0
  1
端子カバー
100
AcDbText
  0
LINE
  5
7054
330
1A
100
AcDbEntity
  8
230
  6
CONTINUOUS
 62
     6
100
AcDbLine
 10
253.4484148995388
 20
300.9736231649505
 30
0.0
 11
223.9573568995387
 21
300.9736231649505
 31
0.0
  0
TEXT
  5
7055
330
1A
100
AcDbEntity
  8
230
  6
CONTINUOUS
 62
     6
100
AcDbText
 10
223.4468588995389
 20
302.4596161649506
 30
0.0
 40
5.0
  1
標準装備
100
AcDbText
  0
LINE
  5
7056
330
1A
100
AcDbEntity
  8
230
  6
CONTINUOUS
 62
     6
100
AcDbLine
 10
279.5988668995389
 20
264.2668971649507
 30
0.0
 11
253.4484148995388
 21
300.9736231649505
 31
0.0
  0
LINE
  5
7057
330
1A
100
AcDbEntity
  8
230
  6
CONTINUOUS
 62
     6
100
AcDbLine
 10
279.5988668995389
 20
264.2668971649507
 30
0.0
 11
278.1831548995389
 21
265.6796111649506
 31
0.0
  0
LINE
  5
7058
330
1A
100
AcDbEntity
  8
230
  6
CONTINUOUS
 62
     6
100
AcDbLine
 10
279.5988668995389
 20
264.2668971649507
 30
0.0
 11
278.7261228995388
 21
266.0664301649505
 31
0.0
  0
LINE
  5
7059
330
1A
100
AcDbEntity
  8
150
100
AcDbLine
 10
284.5988278995389
 20
277.5947300984231
 30
0.0
 11
289.5988278995389
 21
277.5947300984231
 31
0.0
  0
LINE
  5
705A
330
1A
100
AcDbEntity
  8
0
  6
CONTINUOUS
 62
     2
100
AcDbLine
 10
451.0988588995389
 20
223.5947300984231
 30
0.0
 11
480.0988588995389
 21
223.5947300984231
 31
0.0
  0
LINE
  5
705B
330
1A
100
AcDbEntity
  8
150
100
AcDbLine
 10
273.5988588995389
 20
223.5947300984231
 30
0.0
 11
451.0988588995389
 21
223.5947300984231
 31
0.0
  0
LINE
  5
705C
330
1A
100
AcDbEntity
  8
0
  6
CONTINUOUS
 62
     2
100
AcDbLine
 10
279.5988278995389
 20
240.5947300984231
 30
0.0
 11
277.5988278995389
 21
240.5947300984231
 31
0.0
  0
LINE
  5
705D
330
1A
100
AcDbEntity
  8
0
  6
CONTINUOUS
 62
     2
100
AcDbLine
 10
392.0988588995389
 20
323.0947300984232
 30
0.0
 11
417.0988588995389
 21
323.0947300984232
 31
0.0
  0
LINE
  5
705E
330
1A
100
AcDbEntity
  8
150
100
AcDbLine
 10
342.0988588995389
 20
323.0947300984232
 30
0.0
 11
392.0988588995389
 21
323.0947300984232
 31
0.0
  0
LINE
  5
705F
330
1A
100
AcDbEntity
  8
225
  6
CENTER
 62
     3
100
AcDbLine
 10
474.0988588995389
 20
228.594729993703
 30
0.0
 11
474.0988588995389
 21
189.594729993703
 31
0.0
  0
LINE
  5
7060
330
1A
100
AcDbEntity
  8
225
  6
CENTER
 62
     3
100
AcDbLine
 10
474.0988588995389
 20
228.5947300984228
 30
0.0
 11
474.0988588995389
 21
189.5947150984229
 31
0.0
  0
LINE
  5
7061
330
1A
100
AcDbEntity
  8
150
  6
HIDDEN2
100
AcDbLine
 10
481.098858899539
 20
216.594729993703
 30
0.0
 11
467.0988588995389
 21
216.5947299937031
 31
0.0
  0
LINE
  5
7062
330
1A
100
AcDbEntity
  8
150
  6
HIDDEN2
100
AcDbLine
 10
480.5988588995389
 20
217.5947299937031
 30
0.0
 11
467.5988588995389
 21
217.5947299937031
 31
0.0
  0
LINE
  5
7063
330
1A
100
AcDbEntity
  8
150
  6
HIDDEN2
100
AcDbLine
 10
480.1988648995391
 20
219.094729993703
 30
0.0
 11
467.9988528995391
 21
219.0947299937031
 31
0.0
  0
ARC
  5
7064
330
1A
100
AcDbEntity
  8
150
  6
HIDDEN2
100
AcDbCircle
 10
474.098853899539
 20
209.0947229937031
 30
0.0
 40
14.0
100
AcDbArc
 50
74.68154700000188
 51
105.3185250000006
  0
ARC
  5
7065
330
1A
100
AcDbEntity
  8
150
  6
HIDDEN2
100
AcDbCircle
 10
477.2954948995389
 20
220.7648259937031
 30
0.0
 40
1.9
100
AcDbArc
 50
4.999913000002095
 51
74.681474999999
  0
LINE
  5
7066
330
1A
100
AcDbEntity
  8
150
  6
HIDDEN2
100
AcDbLine
 10
480.5988588995389
 20
216.594729993703
 30
0.0
 11
480.5988588995389
 21
217.5947299937031
 31
0.0
  0
LINE
  5
7067
330
1A
100
AcDbEntity
  8
150
  6
HIDDEN2
100
AcDbLine
 10
480.1988648995391
 20
217.5947299937031
 30
0.0
 11
480.1988648995391
 21
219.094729993703
 31
0.0
  0
LINE
  5
7068
330
1A
100
AcDbEntity
  8
150
  6
HIDDEN2
100
AcDbLine
 10
479.348858899539
 20
219.094729993703
 30
0.0
 11
479.1882448995391
 21
220.930422993703
 31
0.0
  0
LINE
  5
706B
330
1A
100
AcDbEntity
  8
150
  6
HIDDEN2
100
AcDbLine
 10
474.0988588995389
 20
217.5947299937031
 30
0.0
 11
474.848858899539
 21
219.094729993703
 31
0.0
  0
LINE
  5
706C
330
1A
100
AcDbEntity
  8
150
  6
HIDDEN2
100
AcDbLine
 10
473.3488588995389
 20
217.5947299937031
 30
0.0
 11
474.0988588995389
 21
219.094729993703
 31
0.0
  0
LINE
  5
706D
330
1A
100
AcDbEntity
  8
150
  6
DASHED
100
AcDbLine
 10
471.0988588995388
 20
194.6362339937031
 30
0.0
 11
471.6403628995388
 21
194.0947299937031
 31
0.0
  0
LINE
  5
706E
330
1A
100
AcDbEntity
  8
150
  6
DASHED
100
AcDbLine
 10
477.0988588995388
 20
194.6362339937031
 30
0.0
 11
476.5573548995388
 21
194.0947299937031
 31
0.0
  0
LINE
  5
706F
330
1A
100
AcDbEntity
  8
150
  6
DASHED
100
AcDbLine
 10
476.5573548995388
 20
194.0947299937031
 30
0.0
 11
471.6403628995388
 21
194.0947299937031
 31
0.0
  0
LINE
  5
7070
330
1A
100
AcDbEntity
  8
150
  6
DASHED
100
AcDbLine
 10
477.0988588995388
 20
194.6362339937031
 30
0.0
 11
471.0988588995388
 21
194.6362339937031
 31
0.0
  0
LINE
  5
7071
330
1A
100
AcDbEntity
  8
0
  6
CONTINUOUS
 62
     2
100
AcDbLine
 10
482.098858899539
 20
221.5947300984228
 30
0.0
 11
482.0988588995389
 21
202.5947300984228
 31
0.0
  0
LINE
  5
7072
330
1A
100
AcDbEntity
  8
150
  6
DASHED
100
AcDbLine
 10
477.0988588995389
 20
216.594729993703
 30
0.0
 11
477.0988588995388
 21
194.6362339937031
 31
0.0
  0
LINE
  5
7073
330
1A
100
AcDbEntity
  8
150
  6
DASHED
100
AcDbLine
 10
476.5573548995389
 20
216.594729993703
 30
0.0
 11
476.5573548995388
 21
194.0947299937031
 31
0.0
  0
LWPOLYLINE
  5
7074
330
1A
100
AcDbEntity
  8
10
  6
HIDDEN2
100
AcDbPolyline
 90
        4
 70
     1
 43
0.0
 10
477.0988588995389
 20
197.594729993703
 10
471.0988588995389
 20
197.594729993703
 10
471.0988588995389
 20
216.594729993703
 10
477.0988588995389
 20
216.594729993703
  0
LINE
  5
7075
330
1A
100
AcDbEntity
  8
150
  6
DASHED
100
AcDbLine
 10
471.0988588995389
 20
216.594729993703
 30
0.0
 11
471.0988588995388
 21
194.6362339937031
 31
0.0
  0
LINE
  5
7076
330
1A
100
AcDbEntity
  8
150
  6
DASHED
100
AcDbLine
 10
471.6403628995389
 20
216.594729993703
 30
0.0
 11
471.6403628995388
 21
194.0947299937031
 31
0.0
  0
ARC
  5
7077
330
1A
100
AcDbEntity
  8
150
  6
HIDDEN2
100
AcDbCircle
 10
481.098858899539
 20
215.594729993703
 30
0.0
 40
1.0
100
AcDbArc
 50
359.9999970000021
 51
89.99999999999984
  0
ARC
  5
7078
330
1A
100
AcDbEntity
  8
0
  6
CONTINUOUS
 62
     2
100
AcDbCircle
 10
480.0988588995389
 20
221.5947300984228
 30
0.0
 40
2.0
100
AcDbArc
 50
359.9999970000021
 51
89.99999999999984
  0
LINE
  5
7079
330
1A
100
AcDbEntity
  8
150
  6
HIDDEN2
100
AcDbLine
 10
467.5988588995389
 20
216.5947299937031
 30
0.0
 11
467.5988588995389
 21
217.5947299937031
 31
0.0
  0
LINE
  5
707A
330
1A
100
AcDbEntity
  8
150
  6
HIDDEN2
100
AcDbLine
 10
467.9988528995391
 20
217.5947299937031
 30
0.0
 11
467.9988528995391
 21
219.0947299937031
 31
0.0
  0
LINE
  5
707B
330
1A
100
AcDbEntity
  8
150
  6
HIDDEN2
100
AcDbLine
 10
467.0988588995389
 20
222.5947299937031
 30
0.0
 11
467.0988588995389
 21
216.5947299937031
 31
0.0
  0
ARC
  5
707C
330
1A
100
AcDbEntity
  8
150
  6
HIDDEN2
100
AcDbCircle
 10
466.0988588995389
 20
222.5947299937031
 30
0.0
 40
1.0
100
AcDbArc
 50
359.9999970000021
 51
89.99999999999984
  0
LINE
  5
707D
330
1A
100
AcDbEntity
  8
150
  6
HIDDEN2
100
AcDbLine
 10
468.8488588995389
 20
219.0947299937031
 30
0.0
 11
469.009442899539
 21
220.9304229937031
 31
0.0
  0
ARC
  5
707E
330
1A
100
AcDbEntity
  8
150
  6
HIDDEN2
100
AcDbCircle
 10
470.902222899539
 20
220.7648259937031
 30
0.0
 40
1.9
100
AcDbArc
 50
105.3185250000006
 51
175.0000869999976
  0
TEXT
  5
7082
330
1A
100
AcDbEntity
  8
230
  6
CONTINUOUS
 62
     6
100
AcDbText
 10
492.7224276392324
 20
355.1002842962225
 30
0.0
 40
5.0
  1
六角穴付　M8
100
AcDbText
  0
TEXT
  5
7083
330
1A
100
AcDbEntity
  8
230
  6
CONTINUOUS
 62
     6
100
AcDbText
 10
493.0565335418299
 20
361.7813152962225
 30
0.0
 40
5.0
  1
負荷側接続ねじ
100
AcDbText
  0
LINE
  5
7084
330
1A
100
AcDbEntity
  8
230
  6
CONTINUOUS
 62
     6
100
AcDbLine
 10
511.890334805284
 20
338.1766684458209
 30
0.0
 11
544.3162010813692
 21
338.1766684458209
 31
0.0
  0
LINE
  5
7085
330
1A
100
AcDbEntity
  8
230
  6
CONTINUOUS
 62
     6
100
AcDbLine
 10
499.5988588995389
 20
316.8872076770621
 30
0.0
 11
511.890334805284
 21
338.1766684458209
 31
0.0
  0
TEXT
  5
7086
330
1A
100
AcDbEntity
  8
230
  6
CONTINUOUS
 62
     6
100
AcDbText
 10
515.0200274295623
 20
339.9223963073292
 30
0.0
 40
5.0
  1
端子カバー
100
AcDbText
  0
LINE
  5
7087
330
1A
100
AcDbEntity
  8
230
  6
CONTINUOUS
 62
     6
100
AcDbLine
 10
499.5988588995389
 20
316.8872076770621
 30
0.0
 11
500.8735479705246
 21
318.4283659807692
 31
0.0
  0
LINE
  5
7088
330
1A
100
AcDbEntity
  8
230
  6
CONTINUOUS
 62
     6
100
AcDbLine
 10
499.5988588995389
 20
316.8872076770621
 30
0.0
 11
500.2961976420872
 21
318.7616997903705
 31
0.0
  0
LINE
  5
7092
330
1A
100
AcDbEntity
  8
0
  6
CONTINUOUS
 62
     2
100
AcDbLine
 10
444.598858899539
 20
526.5384250984232
 30
0.0
 11
444.598858899539
 21
526.0384250984231
 31
0.0
  0
LINE
  5
7093
330
1A
100
AcDbEntity
  8
0
  6
CONTINUOUS
 62
     2
100
AcDbLine
 10
444.598858899539
 20
422.0383940984232
 30
0.0
 11
444.598858899539
 21
421.5383940984231
 31
0.0
  0
LWPOLYLINE
  5
709A
330
1A
100
AcDbEntity
  8
230
 62
     6
100
AcDbPolyline
 90
        4
 70
     1
 43
0.0
 10
764.2522686671481
 20
94.24383117961838
 10
853.7352733203643
 20
94.24383117961838
 10
853.7352733203643
 20
111.5251494104487
 10
764.2522686671481
 20
111.5251494104487
  0
TEXT
  5
709B
330
1A
100
AcDbEntity
  8
230
 62
     6
100
AcDbText
 10
777.4899325004126
 20
98.09295117961823
 30
0.0
 40
10.0
  1
XDI3HZ
100
AcDbText
  0
LINE
  5
70A5
330
1A
100
AcDbEntity
  8
150
  6
HIDDEN2
 62
     7
100
AcDbLine
 10
439.098858899539
 20
274.6947360984231
 30
0.0
 11
439.098858899539
 21
278.6947360984231
 31
0.0
  0
LINE
  5
70A6
330
1A
100
AcDbEntity
  8
150
  6
HIDDEN2
 62
     7
100
AcDbLine
 10
439.098858899539
 20
274.6947360984231
 30
0.0
 11
439.098858899539
 21
278.6947360984231
 31
0.0
  0
ARC
  5
70E8
330
1A
100
AcDbEntity
  8
170
  6
PHANTOM2
 62
     1
100
AcDbCircle
 10
912.2343491588237
 20
527.0383938354883
 30
0.0
 40
7.0
100
AcDbArc
 50
0.0
 51
90.00000299999769
  0
ARC
  5
70EB
330
1A
100
AcDbEntity
  8
170
  6
PHANTOM2
 62
     1
100
AcDbCircle
 10
696.234348425786
 20
527.0383940984231
 30
0.0
 40
7.0
100
AcDbArc
 50
89.9999970000023
 51
180.0
  0
ARC
  5
70EC
330
1A
100
AcDbEntity
  8
170
  6
PHANTOM2
 62
     1
100
AcDbCircle
 10
696.2343484257859
 20
421.0383630984231
 30
0.0
 40
7.0
100
AcDbArc
 50
180.0
 51
270.0000029999977
  0
ARC
  5
70ED
330
1A
100
AcDbEntity
  8
170
  6
PHANTOM2
 62
     1
100
AcDbCircle
 10
912.2343491588237
 20
421.0383943613579
 30
0.0
 40
7.0
100
AcDbArc
 50
269.9999970000023
 51
0.0
  0
ENDSEC
  0
SECTION
  2
OBJECTS
  0
DICTIONARY
  5
C
330
0
100
AcDbDictionary
  3
ACAD_GROUP
350
D
  3
ACAD_LAYOUT
350
1B83
  3
ACAD_MLINESTYLE
350
E
  3
ACAD_PLOTSETTINGS
350
1B84
  3
ACAD_PLOTSTYLENAME
350
1B81
  3
ACDBHEADERROUNDTRIPXREC
350
7156
  3
ACDBVARIABLEDICTIONARY
350
E7A
  0
DICTIONARY
  5
1BF7
330
1A
100
AcDbDictionary
280
     1
  3
ACAD_LAYOUTSELFREF
360
7178
  0
DICTIONARY
  5
1BF5
330
17
100
AcDbDictionary
280
     1
  3
ACAD_LAYOUTSELFREF
360
7177
  0
DICTIONARY
  5
D
102
{ACAD_REACTORS
330
C
102
}
330
C
100
AcDbDictionary
  0
DICTIONARY
  5
1B83
102
{ACAD_REACTORS
330
C
102
}
330
C
100
AcDbDictionary
  0
DICTIONARY
  5
E
102
{ACAD_REACTORS
330
C
102
}
330
C
100
AcDbDictionary
  3
STANDARD
350
13
  0
DICTIONARY
  5
1B84
102
{ACAD_REACTORS
330
C
102
}
330
C
100
AcDbDictionary
  0
ACDBDICTIONARYWDFLT
  5
1B81
102
{ACAD_REACTORS
330
C
102
}
330
C
100
AcDbDictionary
281
     1
  3
Normal
350
1B82
100
AcDbDictionaryWithDefault
340
1B82
  0
DICTIONARY
  5
7156
102
{ACAD_REACTORS
330
C
102
}
330
C
100
AcDbDictionary
  3
CEPSNTYPE
350
7160
  3
DIMSTYLEDATA
350
7164
  3
FINGERPRINTGUID
350
7161
  3
HYPERLINKBASE
350
7159
  3
INSUNITS
350
715F
  3
LAYOUTDICT
350
715B
  3
LWETCUNION
350
715E
  3
PLOTSETDICT
350
715C
  3
PLOTSTYLNAMDICT
350
715D
  3
PSVPSCALE
350
7163
  3
PUCSBASE
350
7167
  3
PUCSORGBACK
350
716D
  3
PUCSORGBOTTOM
350
7169
  3
PUCSORGFRONT
350
716C
  3
PUCSORGLEFT
350
716A
  3
PUCSORGRIGHT
350
716B
  3
PUCSORGTOP
350
7168
  3
PUCSORTHOREF
350
7165
  3
PUCSORTHOVIEW
350
7166
  3
STYLESHEET
350
715A
  3
TSTACKALIGN
350
7157
  3
TSTACKSIZE
350
7158
  3
UCSBASE
350
7170
  3
UCSORGBACK
350
7176
  3
UCSORGBOTTOM
350
7172
  3
UCSORGFRONT
350
7175
  3
UCSORGLEFT
350
7173
  3
UCSORGRIGHT
350
7174
  3
UCSORGTOP
350
7171
  3
UCSORTHOREF
350
716E
  3
UCSORTHOVIEW
350
716F
  3
VERSIONGUID
350
7162
  0
DICTIONARY
  5
E7A
102
{ACAD_REACTORS
330
C
102
}
330
C
100
AcDbDictionary
  3
SORTENTS
350
E7B
  0
XRECORD
  5
7178
102
{ACAD_REACTORS
330
1BF7
102
}
330
1BF7
100
AcDbXrecord
340
1A
  0
XRECORD
  5
7177
102
{ACAD_REACTORS
330
1BF5
102
}
330
1BF5
100
AcDbXrecord
340
17
  0
MLINESTYLE
  5
13
102
{ACAD_REACTORS
330
E
102
}
330
E
100
AcDbMlineStyle
  2
STANDARD
 70
     0
  3

 62
     0
 51
90.0
 52
90.0
 71
     2
 49
0.5
 62
   256
  6
BYLAYER
 49
-0.5
 62
   256
  6
BYLAYER
  0
ACDBPLACEHOLDER
  5
1B82
102
{ACAD_REACTORS
330
1B81
102
}
330
1B81
100
AcDbPlaceHolder
280
     0
  0
XRECORD
  5
7160
102
{ACAD_REACTORS
330
7156
102
}
330
7156
100
AcDbXrecord
 90
        0
  0
XRECORD
  5
7164
102
{ACAD_REACTORS
330
7156
102
}
330
7156
100
AcDbXrecord
1000
DSTYLE
1002
{
1070
   341
340
3A8D
1070
   342
340
3A8D
1002
}
  0
XRECORD
  5
7161
102
{ACAD_REACTORS
330
7156
102
}
330
7156
100
AcDbXrecord
  1
{D592FCE0-8350-11D5-ACAE-009099148E29}
  0
XRECORD
  5
7159
102
{ACAD_REACTORS
330
7156
102
}
330
7156
100
AcDbXrecord
  1

  0
XRECORD
  5
715F
102
{ACAD_REACTORS
330
7156
102
}
330
7156
100
AcDbXrecord
 90
        0
  0
XRECORD
  5
715B
102
{ACAD_REACTORS
330
7156
102
}
330
7156
100
AcDbXrecord
340
1B83
  0
XRECORD
  5
715E
102
{ACAD_REACTORS
330
7156
102
}
330
7156
100
AcDbXrecord
 90
    10781
  0
XRECORD
  5
715C
102
{ACAD_REACTORS
330
7156
102
}
330
7156
100
AcDbXrecord
340
1B84
  0
XRECORD
  5
715D
102
{ACAD_REACTORS
330
7156
102
}
330
7156
100
AcDbXrecord
340
1B81
  0
XRECORD
  5
7163
102
{ACAD_REACTORS
330
7156
102
}
330
7156
100
AcDbXrecord
 40
0.0
  0
XRECORD
  5
7167
102
{ACAD_REACTORS
330
7156
102
}
330
7156
100
AcDbXrecord
340
0
  0
XRECORD
  5
716D
102
{ACAD_REACTORS
330
7156
102
}
330
7156
100
AcDbXrecord
 10
0.0
 20
0.0
 30
0.0
  0
XRECORD
  5
7169
102
{ACAD_REACTORS
330
7156
102
}
330
7156
100
AcDbXrecord
 10
0.0
 20
0.0
 30
0.0
  0
XRECORD
  5
716C
102
{ACAD_REACTORS
330
7156
102
}
330
7156
100
AcDbXrecord
 10
0.0
 20
0.0
 30
0.0
  0
XRECORD
  5
716A
102
{ACAD_REACTORS
330
7156
102
}
330
7156
100
AcDbXrecord
 10
0.0
 20
0.0
 30
0.0
  0
XRECORD
  5
716B
102
{ACAD_REACTORS
330
7156
102
}
330
7156
100
AcDbXrecord
 10
0.0
 20
0.0
 30
0.0
  0
XRECORD
  5
7168
102
{ACAD_REACTORS
330
7156
102
}
330
7156
100
AcDbXrecord
 10
0.0
 20
0.0
 30
0.0
  0
XRECORD
  5
7165
102
{ACAD_REACTORS
330
7156
102
}
330
7156
100
AcDbXrecord
340
0
  0
XRECORD
  5
7166
102
{ACAD_REACTORS
330
7156
102
}
330
7156
100
AcDbXrecord
 70
     0
  0
XRECORD
  5
715A
102
{ACAD_REACTORS
330
7156
102
}
330
7156
100
AcDbXrecord
  1
機械図面設定（みずいろ細線）.ctb
  0
XRECORD
  5
7157
102
{ACAD_REACTORS
330
7156
102
}
330
7156
100
AcDbXrecord
 90
        1
  0
XRECORD
  5
7158
102
{ACAD_REACTORS
330
7156
102
}
330
7156
100
AcDbXrecord
 90
       70
  0
XRECORD
  5
7170
102
{ACAD_REACTORS
330
7156
102
}
330
7156
100
AcDbXrecord
340
0
  0
XRECORD
  5
7176
102
{ACAD_REACTORS
330
7156
102
}
330
7156
100
AcDbXrecord
 10
0.0
 20
0.0
 30
0.0
  0
XRECORD
  5
7172
102
{ACAD_REACTORS
330
7156
102
}
330
7156
100
AcDbXrecord
 10
0.0
 20
0.0
 30
0.0
  0
XRECORD
  5
7175
102
{ACAD_REACTORS
330
7156
102
}
330
7156
100
AcDbXrecord
 10
0.0
 20
0.0
 30
0.0
  0
XRECORD
  5
7173
102
{ACAD_REACTORS
330
7156
102
}
330
7156
100
AcDbXrecord
 10
0.0
 20
0.0
 30
0.0
  0
XRECORD
  5
7174
102
{ACAD_REACTORS
330
7156
102
}
330
7156
100
AcDbXrecord
 10
0.0
 20
0.0
 30
0.0
  0
XRECORD
  5
7171
102
{ACAD_REACTORS
330
7156
102
}
330
7156
100
AcDbXrecord
 10
0.0
 20
0.0
 30
0.0
  0
XRECORD
  5
716E
102
{ACAD_REACTORS
330
7156
102
}
330
7156
100
AcDbXrecord
340
0
  0
XRECORD
  5
716F
102
{ACAD_REACTORS
330
7156
102
}
330
7156
100
AcDbXrecord
 70
     0
  0
XRECORD
  5
7162
102
{ACAD_REACTORS
330
7156
102
}
330
7156
100
AcDbXrecord
  1
{8C8829EB-97E0-11D5-A38A-00B0D0356B67}
  0
DICTIONARYVAR
  5
E7B
102
{ACAD_REACTORS
330
E7A
102
}
330
E7A
100
DictionaryVariables
280
     0
  1
96
  0
ENDSEC
  0
EOF
