  0
SECTION
  2
HEADER
  9
$ACADVER
  1
AC1014
  9
$ACADMAINTVER
 70
     9
  9
$DWGCODEPAGE
  3
ANSI_932
  9
$INSBASE
 10
0.0
 20
0.0
 30
0.0
  9
$EXTMIN
 10
156.782526912495
 20
65.87041301277054
 30
-0.0015258207003583
  9
$EXTMAX
 10
963.6324780750273
 20
563.3583514413159
 30
0.0000000349246037
  9
$LIMMIN
 10
0.0
 20
0.0
  9
$LIMMAX
 10
554.0
 20
395.0
  9
$ORTHOMODE
 70
     1
  9
$REGENMODE
 70
     1
  9
$FILLMODE
 70
     1
  9
$QTEXTMODE
 70
     0
  9
$MIRRTEXT
 70
     0
  9
$DRAGMODE
 70
     2
  9
$LTSCALE
 40
12.0
  9
$OSMODE
 70
    37
  9
$ATTMODE
 70
     1
  9
$TEXTSIZE
 40
3.0
  9
$TRACEWID
 40
0.05
  9
$TEXTSTYLE
  7
KANJI
  9
$CLAYER
  8
パターン
  9
$CELTYPE
  6
BYLAYER
  9
$CECOLOR
 62
   256
  9
$CELTSCALE
 40
1.0
  9
$DELOBJ
 70
     1
  9
$DISPSILH
 70
     0
  9
$DIMSCALE
 40
1.0
  9
$DIMASZ
 40
2.2
  9
$DIMEXO
 40
0.0625
  9
$DIMDLI
 40
0.38
  9
$DIMRND
 40
0.05
  9
$DIMDLE
 40
0.0
  9
$DIMEXE
 40
2.5
  9
$DIMTP
 40
0.0
  9
$DIMTM
 40
0.0
  9
$DIMTXT
 40
5.0
  9
$DIMCEN
 40
0.09
  9
$DIMTSZ
 40
0.0
  9
$DIMTOL
 70
     0
  9
$DIMLIM
 70
     0
  9
$DIMTIH
 70
     0
  9
$DIMTOH
 70
     0
  9
$DIMSE1
 70
     0
  9
$DIMSE2
 70
     0
  9
$DIMTAD
 70
     1
  9
$DIMZIN
 70
     0
  9
$DIMBLK
  1
OPEN30
  9
$DIMASO
 70
     1
  9
$DIMSHO
 70
     1
  9
$DIMPOST
  1

  9
$DIMAPOST
  1

  9
$DIMALT
 70
     0
  9
$DIMALTD
 70
     2
  9
$DIMALTF
 40
25.4
  9
$DIMLFAC
 40
1.0
  9
$DIMTOFL
 70
     0
  9
$DIMTVP
 40
0.0
  9
$DIMTIX
 70
     0
  9
$DIMSOXD
 70
     0
  9
$DIMSAH
 70
     0
  9
$DIMBLK1
  1

  9
$DIMBLK2
  1

  9
$DIMSTYLE
  2
STANDARD
  9
$DIMCLRD
 70
     4
  9
$DIMCLRE
 70
     4
  9
$DIMCLRT
 70
     4
  9
$DIMTFAC
 40
1.0
  9
$DIMGAP
 40
2.0
  9
$DIMJUST
 70
     0
  9
$DIMSD1
 70
     0
  9
$DIMSD2
 70
     0
  9
$DIMTOLJ
 70
     1
  9
$DIMTZIN
 70
     0
  9
$DIMALTZ
 70
     0
  9
$DIMALTTZ
 70
     0
  9
$DIMFIT
 70
     3
  9
$DIMUPT
 70
     0
  9
$DIMUNIT
 70
     2
  9
$DIMDEC
 70
     0
  9
$DIMTDEC
 70
     0
  9
$DIMALTU
 70
     2
  9
$DIMALTTD
 70
     2
  9
$DIMTXSTY
  7
STANDARD
  9
$DIMAUNIT
 70
     0
  9
$LUNITS
 70
     2
  9
$LUPREC
 70
     4
  9
$SKETCHINC
 40
0.1
  9
$FILLETRAD
 40
0.0
  9
$AUNITS
 70
     0
  9
$AUPREC
 70
     0
  9
$MENU
  1
C:\Tcad\TCAD\tcad-s
  9
$ELEVATION
 40
0.0
  9
$PELEVATION
 40
0.0
  9
$THICKNESS
 40
0.0
  9
$LIMCHECK
 70
     0
  9
$BLIPMODE
 70
     0
  9
$CHAMFERA
 40
0.0
  9
$CHAMFERB
 40
0.0
  9
$CHAMFERC
 40
0.0
  9
$CHAMFERD
 40
0.0
  9
$SKPOLY
 70
     0
  9
$TDCREATE
 40
2450752.336623958
  9
$TDUPDATE
 40
2452145.683583333
  9
$TDINDWG
 40
0.6103040509
  9
$TDUSRTIMER
 40
0.6103040509
  9
$USRTIMER
 70
     1
  9
$ANGBASE
 50
0.0
  9
$ANGDIR
 70
     0
  9
$PDMODE
 70
    35
  9
$PDSIZE
 40
23.99999999999998
  9
$PLINEWID
 40
0.0
  9
$COORDS
 70
     1
  9
$SPLFRAME
 70
     0
  9
$SPLINETYPE
 70
     6
  9
$SPLINESEGS
 70
     8
  9
$ATTDIA
 70
     0
  9
$ATTREQ
 70
     1
  9
$HANDLING
 70
-16383
  9
$HANDSEED
  5
5CDE
  9
$SURFTAB1
 70
     6
  9
$SURFTAB2
 70
     6
  9
$SURFTYPE
 70
     6
  9
$SURFU
 70
     6
  9
$SURFV
 70
     6
  9
$UCSNAME
  2

  9
$UCSORG
 10
0.0
 20
0.0
 30
0.0
  9
$UCSXDIR
 10
1.0
 20
0.0
 30
0.0
  9
$UCSYDIR
 10
0.0
 20
1.0
 30
0.0
  9
$PUCSNAME
  2

  9
$PUCSORG
 10
0.0
 20
0.0
 30
0.0
  9
$PUCSXDIR
 10
1.0
 20
0.0
 30
0.0
  9
$PUCSYDIR
 10
0.0
 20
1.0
 30
0.0
  9
$USERI1
 70
     0
  9
$USERI2
 70
     0
  9
$USERI3
 70
     0
  9
$USERI4
 70
     0
  9
$USERI5
 70
     0
  9
$USERR1
 40
0.0
  9
$USERR2
 40
0.0
  9
$USERR3
 40
0.0
  9
$USERR4
 40
0.0
  9
$USERR5
 40
0.0
  9
$WORLDVIEW
 70
     1
  9
$SHADEDGE
 70
     3
  9
$SHADEDIF
 70
    70
  9
$TILEMODE
 70
     1
  9
$MAXACTVP
 70
    16
  9
$PINSBASE
 10
0.0
 20
0.0
 30
0.0
  9
$PLIMCHECK
 70
     0
  9
$PEXTMIN
 10
1.000000000000000E+20
 20
1.000000000000000E+20
 30
1.000000000000000E+20
  9
$PEXTMAX
 10
-1.000000000000000E+20
 20
-1.000000000000000E+20
 30
-1.000000000000000E+20
  9
$PLIMMIN
 10
0.0
 20
0.0
  9
$PLIMMAX
 10
12.0
 20
9.0
  9
$UNITMODE
 70
     0
  9
$VISRETAIN
 70
     0
  9
$PLINEGEN
 70
     0
  9
$PSLTSCALE
 70
     1
  9
$TREEDEPTH
 70
  3020
  9
$PICKSTYLE
 70
     1
  9
$CMLSTYLE
  2
STANDARD
  9
$CMLJUST
 70
     0
  9
$CMLSCALE
 40
1.0
  9
$PROXYGRAPHICS
 70
     1
  9
$MEASUREMENT
 70
     0
  0
ENDSEC
  0
SECTION
  2
CLASSES
  0
CLASS
  1
LWPOLYLINE
  2
AcDbPolyline
  3
AutoCAD 2000
 90
        0
280
     0
281
     1
  0
CLASS
  1
DICTIONARYVAR
  2
AcDbDictionaryVar
  3
AutoCAD 2000
 90
        0
280
     0
281
     0
  0
CLASS
  1
HATCH
  2
AcDbHatch
  3
AutoCAD 2000
 90
        0
280
     0
281
     1
  0
CLASS
  1
ACDBDICTIONARYWDFLT
  2
AcDbDictionaryWithDefault
  3
AutoCAD 2000
 90
        0
280
     0
281
     0
  0
CLASS
  1
ACDBPLACEHOLDER
  2
AcDbPlaceHolder
  3
AutoCAD 2000
 90
        0
280
     0
281
     0
  0
CLASS
  1
LAYOUT
  2
AcDbLayout
  3
AutoCAD 2000
 90
        0
280
     0
281
     0
  0
CLASS
  1
LONG_TRANSACTION
  2
AcDbLongTransaction
  3
AutoCAD 2000
 90
        0
280
     0
281
     0
  0
CLASS
  1
LWPOLYLINE
  2
AcDbPolyline
  3
AutoCAD 2000
 90
        0
280
     0
281
     1
  0
CLASS
  1
HATCH
  2
AcDbHatch
  3
AutoCAD 2000
 90
        0
280
     0
281
     1
  0
CLASS
  1
XRECORD
  2
AcDbXrecord
  3
AutoCAD 2000
 90
        0
280
     0
281
     0
  0
CLASS
  1
LONG_TRANSACTION
  2
AcDbLongTransaction
  3
AutoCAD 2000
 90
        0
280
     0
281
     0
  0
CLASS
  1
LWPOLYLINE
  2
AcDbPolyline
  3
AutoCAD 2000
 90
        0
280
     0
281
     1
  0
CLASS
  1
HATCH
  2
AcDbHatch
  3
AutoCAD 2000
 90
        0
280
     0
281
     1
  0
CLASS
  1
XRECORD
  2
AcDbXrecord
  3
AutoCAD 2000
 90
        0
280
     0
281
     0
  0
CLASS
  1
LONG_TRANSACTION
  2
AcDbLongTransaction
  3
AutoCAD 2000
 90
        0
280
     0
281
     0
  0
CLASS
  1
LWPOLYLINE
  2
AcDbPolyline
  3
AutoCAD 2000
 90
        0
280
     0
281
     1
  0
CLASS
  1
HATCH
  2
AcDbHatch
  3
AutoCAD 2000
 90
        0
280
     0
281
     1
  0
CLASS
  1
XRECORD
  2
AcDbXrecord
  3
AutoCAD 2000
 90
        0
280
     0
281
     0
  0
CLASS
  1
LONG_TRANSACTION
  2
AcDbLongTransaction
  3
AutoCAD 2000
 90
        0
280
     0
281
     0
  0
CLASS
  1
LWPOLYLINE
  2
AcDbPolyline
  3
AutoCAD 2000
 90
        0
280
     0
281
     1
  0
CLASS
  1
HATCH
  2
AcDbHatch
  3
AutoCAD 2000
 90
        0
280
     0
281
     1
  0
CLASS
  1
XRECORD
  2
AcDbXrecord
  3
AutoCAD 2000
 90
        0
280
     0
281
     0
  0
CLASS
  1
LONG_TRANSACTION
  2
AcDbLongTransaction
  3
AutoCAD 2000
 90
        0
280
     0
281
     0
  0
CLASS
  1
LWPOLYLINE
  2
AcDbPolyline
  3
AutoCAD 2000
 90
        0
280
     0
281
     1
  0
CLASS
  1
HATCH
  2
AcDbHatch
  3
AutoCAD 2000
 90
        0
280
     0
281
     1
  0
CLASS
  1
XRECORD
  2
AcDbXrecord
  3
AutoCAD 2000
 90
        0
280
     0
281
     0
  0
ENDSEC
  0
SECTION
  2
TABLES
  0
TABLE
  2
VPORT
  5
8
330
0
100
AcDbSymbolTable
 70
     2
  0
VPORT
  5
5CBA
330
8
100
AcDbSymbolTableRecord
100
AcDbViewportTableRecord
  2
*ACTIVE
 70
     0
 10
0.0
 20
0.0
 11
1.0
 21
1.0
 12
481.8162390375136
 22
281.6791757206579
 13
0.0
 23
0.0
 14
1.0
 24
1.0
 15
0.0
 25
0.0
 16
0.0
 26
0.0
 36
1.0
 17
0.0
 27
0.0
 37
0.0
 40
569.5947907561644
 41
1.754158964879852
 42
50.0
 43
0.0
 44
0.0
 50
0.0
 51
0.0
 71
     0
 72
  1000
 73
     1
 74
     1
 75
     0
 76
     0
 77
     0
 78
     0
  0
ENDTAB
  0
TABLE
  2
LTYPE
  5
5
330
0
100
AcDbSymbolTable
 70
     5
  0
LTYPE
  5
14
330
5
100
AcDbSymbolTableRecord
100
AcDbLinetypeTableRecord
  2
BYBLOCK
 70
     0
  3

 72
    65
 73
     0
 40
0.0
  0
LTYPE
  5
15
330
5
100
AcDbSymbolTableRecord
100
AcDbLinetypeTableRecord
  2
BYLAYER
 70
     0
  3

 72
    65
 73
     0
 40
0.0
  0
LTYPE
  5
16
330
5
100
AcDbSymbolTableRecord
100
AcDbLinetypeTableRecord
  2
CONTINUOUS
 70
     0
  3
Solid line
 72
    65
 73
     0
 40
0.0
  0
LTYPE
  5
37
330
5
100
AcDbSymbolTableRecord
100
AcDbLinetypeTableRecord
  2
CENTER
 70
     0
  3
____ _ ____ _ ____ _ ____ _ ____ _ ____ _ ____ 
 72
    65
 73
     4
 40
2.0
 49
1.25
 74
     0
 49
-0.25
 74
     0
 49
0.25
 74
     0
 49
-0.25
 74
     0
  0
LTYPE
  5
1FC
330
5
100
AcDbSymbolTableRecord
100
AcDbLinetypeTableRecord
  2
HIDDEN2
 70
     0
  3
_ _ _ _ _ _ _ _ _ _ _ _ _ _ _ _ _ _ _ _ _ _ _ _
 72
    65
 73
     2
 40
0.1875
 49
0.125
 74
     0
 49
-0.0625
 74
     0
  0
LTYPE
  5
1FE
330
5
100
AcDbSymbolTableRecord
100
AcDbLinetypeTableRecord
  2
PHANTOM2
 70
     0
  3
___ _ _ ___ _ _ ___ _ _ ___ _ _ ___ _ _ ___ _ _
 72
    65
 73
     6
 40
1.25
 49
0.625
 74
     0
 49
-0.125
 74
     0
 49
0.125
 74
     0
 49
-0.125
 74
     0
 49
0.125
 74
     0
 49
-0.125
 74
     0
  0
LTYPE
  5
3E5
330
5
100
AcDbSymbolTableRecord
100
AcDbLinetypeTableRecord
  2
DASHED
 70
     0
  3
Dashed line
 72
    65
 73
     2
 40
0.75
 49
0.5
 74
     0
 49
-0.25
 74
     0
  0
ENDTAB
  0
TABLE
  2
LAYER
  5
2
330
0
100
AcDbSymbolTable
 70
     9
  0
LAYER
  5
F
330
2
100
AcDbSymbolTableRecord
100
AcDbLayerTableRecord
  2
0
 70
     0
 62
     2
  6
CONTINUOUS
  0
LAYER
  5
40
330
2
100
AcDbSymbolTableRecord
100
AcDbLayerTableRecord
  2
パターン
 70
     0
 62
     8
  6
CONTINUOUS
  0
LAYER
  5
3E7
330
2
100
AcDbSymbolTableRecord
100
AcDbLayerTableRecord
  2
210
 70
     0
 62
     4
  6
CONTINUOUS
  0
LAYER
  5
3E8
330
2
100
AcDbSymbolTableRecord
100
AcDbLayerTableRecord
  2
170
 70
     0
 62
     1
  6
CONTINUOUS
  0
LAYER
  5
3EA
330
2
100
AcDbSymbolTableRecord
100
AcDbLayerTableRecord
  2
150
 70
     0
 62
     7
  6
CONTINUOUS
  0
LAYER
  5
3EC
330
2
100
AcDbSymbolTableRecord
100
AcDbLayerTableRecord
  2
225
 70
     0
 62
     3
  6
CONTINUOUS
  0
LAYER
  5
3ED
330
2
100
AcDbSymbolTableRecord
100
AcDbLayerTableRecord
  2
230
 70
     0
 62
     6
  6
CONTINUOUS
  0
LAYER
  5
3EF
330
2
100
AcDbSymbolTableRecord
100
AcDbLayerTableRecord
  2
10
 70
     0
 62
     7
  6
CONTINUOUS
  0
LAYER
  5
3F0
330
2
100
AcDbSymbolTableRecord
100
AcDbLayerTableRecord
  2
DEFPOINTS
 70
     0
 62
     7
  6
CONTINUOUS
  0
ENDTAB
  0
TABLE
  2
STYLE
  5
3
330
0
100
AcDbSymbolTable
 70
     2
  0
STYLE
  5
10
330
3
100
AcDbSymbolTableRecord
100
AcDbTextStyleTableRecord
  2
STANDARD
 70
     0
 40
0.0
 41
1.0
 50
0.0
 71
     0
 42
30.0
  3
ROMANS
  4
BIGFONT
  0
STYLE
  5
108
330
3
100
AcDbSymbolTableRecord
100
AcDbTextStyleTableRecord
  2
KANJI
 70
     0
 40
0.0
 41
0.8
 50
0.0
 71
     0
 42
3.0
  3
romans
  4
bigfont
  0
ENDTAB
  0
TABLE
  2
VIEW
  5
6
330
0
100
AcDbSymbolTable
 70
     0
  0
ENDTAB
  0
TABLE
  2
UCS
  5
7
330
0
100
AcDbSymbolTable
 70
     0
  0
ENDTAB
  0
TABLE
  2
APPID
  5
9
330
0
100
AcDbSymbolTable
 70
     1
  0
APPID
  5
11
330
9
100
AcDbSymbolTableRecord
100
AcDbRegAppTableRecord
  2
ACAD
 70
     0
  0
ENDTAB
  0
TABLE
  2
DIMSTYLE
  5
A
330
0
100
AcDbSymbolTable
 70
     1
  0
DIMSTYLE
105
1D
330
A
100
AcDbSymbolTableRecord
100
AcDbDimStyleTableRecord
  2
STANDARD
 70
     0
  3

  4

  5
OPEN30
  6

  7

 40
1.0
 41
2.2
 42
0.0625
 43
0.38
 44
2.5
 45
0.05
 46
0.0
 47
0.0
 48
0.0
140
5.0
141
0.09
142
0.0
143
25.4
144
1.0
145
0.0
146
1.0
147
2.0
 71
     0
 72
     0
 73
     0
 74
     0
 75
     0
 76
     0
 77
     1
 78
     0
170
     0
171
     2
172
     0
173
     0
174
     0
175
     0
176
     4
177
     4
178
     4
270
     2
271
     0
272
     0
273
     2
274
     2
340
10
275
     0
280
     0
281
     0
282
     0
283
     1
284
     0
285
     0
286
     0
287
     3
288
     0
  0
ENDTAB
  0
TABLE
  2
BLOCK_RECORD
  5
1
330
0
100
AcDbSymbolTable
 70
     2
  0
BLOCK_RECORD
  5
1A
102
{ACAD_XDICTIONARY
360
1BF7
102
}
330
1
100
AcDbSymbolTableRecord
100
AcDbBlockTableRecord
  2
*MODEL_SPACE
  0
BLOCK_RECORD
  5
17
102
{ACAD_XDICTIONARY
360
1BF5
102
}
330
1
100
AcDbSymbolTableRecord
100
AcDbBlockTableRecord
  2
*PAPER_SPACE
  0
BLOCK_RECORD
  5
32
330
1
100
AcDbSymbolTableRecord
100
AcDbBlockTableRecord
  2
TCAD
  0
BLOCK_RECORD
  5
3A8D
330
1
100
AcDbSymbolTableRecord
100
AcDbBlockTableRecord
  2
_OPEN30
  0
ENDTAB
  0
ENDSEC
  0
SECTION
  2
BLOCKS
  0
BLOCK
  5
1B
330
1A
100
AcDbEntity
  8
0
100
AcDbBlockBegin
  2
*MODEL_SPACE
 70
     0
 10
0.0
 20
0.0
 30
0.0
  3
*MODEL_SPACE
  1

  0
ENDBLK
  5
1C
330
1A
100
AcDbEntity
  8
0
100
AcDbBlockEnd
  0
BLOCK
  5
18
330
17
100
AcDbEntity
 67
     1
  8
0
100
AcDbBlockBegin
  2
*PAPER_SPACE
 70
     0
 10
0.0
 20
0.0
 30
0.0
  3
*PAPER_SPACE
  1

  0
ENDBLK
  5
19
330
17
100
AcDbEntity
 67
     1
  8
0
100
AcDbBlockEnd
  0
BLOCK
  5
33
330
32
100
AcDbEntity
  8
0
100
AcDbBlockBegin
  2
TCAD
 70
     0
 10
0.0
 20
0.0
 30
0.0
  3
TCAD
  1

  0
ENDBLK
  5
34
330
32
100
AcDbEntity
  8
0
100
AcDbBlockEnd
  0
BLOCK
  5
3A91
330
3A8D
100
AcDbEntity
  8
0
 62
     2
100
AcDbBlockBegin
  2
_OPEN30
 70
     0
 10
0.0
 20
0.0
 30
0.0
  3
_OPEN30
  1

  0
LINE
  5
3A8E
330
3A8D
100
AcDbEntity
  8
0
  6
BYBLOCK
 62
     0
100
AcDbLine
 10
-1.0
 20
0.26794919
 30
0.0
 11
0.0
 21
0.0
 31
0.0
  0
LINE
  5
3A8F
330
3A8D
100
AcDbEntity
  8
0
  6
BYBLOCK
 62
     0
100
AcDbLine
 10
0.0
 20
0.0
 30
0.0
 11
-1.0
 21
-0.26794919
 31
0.0
  0
LINE
  5
3A90
330
3A8D
100
AcDbEntity
  8
0
  6
BYBLOCK
 62
     0
100
AcDbLine
 10
0.0
 20
0.0
 30
0.0
 11
-1.0
 21
0.0
 31
0.0
  0
ENDBLK
  5
3A92
330
3A8D
100
AcDbEntity
  8
0
 62
     2
100
AcDbBlockEnd
  0
ENDSEC
  0
SECTION
  2
ENTITIES
  0
INSERT
  5
109
330
1A
100
AcDbEntity
  8
パターン
100
AcDbBlockReference
  2
TCAD
 10
0.0
 20
0.0
 30
0.0
  0
INSERT
  5
10A
330
1A
100
AcDbEntity
  8
パターン
100
AcDbBlockReference
  2
TCAD
 10
0.0
 20
0.0
 30
0.0
  0
LINE
  5
4A93
330
1A
100
AcDbEntity
  8
210
 62
     4
100
AcDbLine
 10
868.3764269830225
 20
523.614797543358
 30
0.0
 11
868.3764269830225
 21
558.8411583218551
 31
0.0
  0
LINE
  5
4A94
330
1A
100
AcDbEntity
  8
210
 62
     4
100
AcDbLine
 10
853.3764269830227
 20
514.1210503218551
 30
0.0
 11
853.3764269830227
 21
538.8411583218551
 31
0.0
  0
LINE
  5
4A95
330
1A
100
AcDbEntity
  8
210
 62
     4
100
AcDbLine
 10
868.3764269830225
 20
442.0585503218551
 30
0.0
 11
868.3764269830225
 21
538.8411583218551
 31
0.0
  0
LINE
  5
4A97
330
1A
100
AcDbEntity
  8
210
 62
     4
100
AcDbLine
 10
654.3764879830225
 20
523.614797543358
 30
0.0
 11
654.3764879830225
 21
558.8411583218551
 31
0.0
  0
LINE
  5
4A98
330
1A
100
AcDbEntity
  8
210
 62
     4
100
AcDbLine
 10
654.3765489830227
 20
487.0585503218551
 30
0.0
 11
654.3764879830225
 21
538.8411583218551
 31
0.0
  0
LINE
  5
4A99
330
1A
100
AcDbEntity
  8
210
 62
     4
100
AcDbLine
 10
669.3764269830226
 20
514.1210503218551
 30
0.0
 11
669.3764269830226
 21
538.8411583218551
 31
0.0
  0
TEXT
  5
4D08
330
1A
100
AcDbEntity
  8
230
 62
     6
100
AcDbText
 10
601.2065746185874
 20
225.7843330574937
 30
0.0
 40
5.0
  1
L
100
AcDbText
  0
TEXT
  5
4D09
330
1A
100
AcDbEntity
  8
230
 62
     6
100
AcDbText
 10
599.6096552986487
 20
227.7631662707347
 30
0.0
 40
5.0
  1
H
100
AcDbText
  0
LINE
  5
4DF7
330
1A
100
AcDbEntity
  8
210
 62
     4
100
AcDbLine
 10
671.5764269830226
 20
536.341158321855
 30
0.0
 11
851.1764269830228
 21
536.341158321855
 31
0.0
  0
INSERT
  5
4DF8
330
1A
100
AcDbEntity
  8
210
 62
     4
100
AcDbBlockReference
  2
_OPEN30
 10
669.3764269830226
 20
536.341158321855
 30
0.0
 41
2.200000000000045
 42
2.200000000000045
 43
2.2
 50
180.0
  0
LINE
  5
4DF9
330
1A
100
AcDbEntity
  8
210
 62
     4
100
AcDbLine
 10
669.3764269830226
 20
532.7868687912307
 30
0.0
 11
669.3764269830226
 21
538.8411583218551
 31
0.0
  0
LINE
  5
4E06
330
1A
100
AcDbEntity
  8
210
 62
     4
100
AcDbLine
 10
656.5764879830226
 20
536.341158321855
 30
0.0
 11
667.1764269830226
 21
536.341158321855
 31
0.0
  0
INSERT
  5
4E07
330
1A
100
AcDbEntity
  8
210
 62
     4
100
AcDbBlockReference
  2
_OPEN30
 10
654.3764879830225
 20
536.341158321855
 30
0.0
 41
2.200000000000045
 42
2.200000000000045
 43
2.2
 50
180.0
  0
MTEXT
  5
4E0B
330
1A
100
AcDbEntity
  8
210
 62
     4
100
AcDbMText
 10
761.3764269830226
 20
540.841158321855
 30
0.0
 40
5.0
 41
0.0
 71
     5
 72
     1
  1
\A1;184
1001
ACAD
1000
MTEXTBEGIN
1070
    73
1070
     1
1070
    44
1040
1.0
1070
    74
1070
     0
1000
MTEXTEND
1000
MTEXTBEGIN
1070
    73
1070
     1
1070
    44
1040
1.0
1070
    74
1070
     0
1000
MTEXTEND
1000
MTEXTBEGIN
1070
    73
1070
     1
1070
    44
1040
1.0
1070
    74
1070
     0
1000
MTEXTEND
  0
INSERT
  5
4E0E
330
1A
100
AcDbEntity
  8
210
 62
     4
100
AcDbBlockReference
  2
_OPEN30
 10
853.3764269830227
 20
536.341158321855
 30
0.0
 41
2.200000000000045
 42
2.200000000000045
 43
2.2
  0
LINE
  5
4E0F
330
1A
100
AcDbEntity
  8
210
 62
     4
100
AcDbLine
 10
853.3764269830227
 20
532.7868687912307
 30
0.0
 11
853.3764269830227
 21
538.8411583218551
 31
0.0
  0
LINE
  5
4E13
330
1A
100
AcDbEntity
  8
210
 62
     4
100
AcDbLine
 10
855.5764269830223
 20
536.341158321855
 30
0.0
 11
866.1764269830227
 21
536.341158321855
 31
0.0
  0
INSERT
  5
4E14
330
1A
100
AcDbEntity
  8
210
 62
     4
100
AcDbBlockReference
  2
_OPEN30
 10
853.3764269830227
 20
536.341158321855
 30
0.0
 41
2.200000000000045
 42
2.200000000000045
 43
2.2
 50
180.0
  0
INSERT
  5
4E15
330
1A
100
AcDbEntity
  8
210
 62
     4
100
AcDbBlockReference
  2
_OPEN30
 10
868.3764269830225
 20
536.341158321855
 30
0.0
 41
2.200000000000045
 42
2.200000000000045
 43
2.2
  0
LINE
  5
4E5B
330
1A
100
AcDbEntity
  8
210
 62
     4
100
AcDbLine
 10
656.5764879830224
 20
556.3411583218551
 30
0.0
 11
866.1764269830227
 21
556.3411583218551
 31
0.0
  0
INSERT
  5
4E5E
330
1A
100
AcDbEntity
  8
210
 62
     4
100
AcDbBlockReference
  2
_OPEN30
 10
654.3764879830225
 20
556.3411583218551
 30
0.0
 41
2.200000000000045
 42
2.200000000000045
 43
2.2
 50
180.0
  0
TEXT
  5
4E5F
330
1A
100
AcDbEntity
  8
230
 62
     6
100
AcDbText
 10
754.4241321248992
 20
525.3648647242711
 30
0.0
 40
5.0
  1
ASL
100
AcDbText
  0
MTEXT
  5
4E60
330
1A
100
AcDbEntity
  8
210
 62
     4
100
AcDbMText
 10
761.3764574830224
 20
560.8411583218551
 30
0.0
 40
5.0
 41
0.0
 71
     5
 72
     1
  1
\A1;214
1001
ACAD
1000
MTEXTBEGIN
1070
    73
1070
     1
1070
    44
1040
1.0
1070
    74
1070
     0
1000
MTEXTEND
1000
MTEXTBEGIN
1070
    73
1070
     1
1070
    44
1040
1.0
1070
    74
1070
     0
1000
MTEXTEND
1000
MTEXTBEGIN
1070
    73
1070
     1
1070
    44
1040
1.0
1070
    74
1070
     0
1000
MTEXTEND
1000
MTEXTBEGIN
1070
    73
1070
     1
1070
    44
1040
1.0
1070
    74
1070
     0
1000
MTEXTEND
  0
MTEXT
  5
4E61
330
1A
100
AcDbEntity
  8
210
 62
     4
100
AcDbMText
 10
860.8764269830226
 20
540.841158321855
 30
0.0
 40
5.0
 41
0.0
 71
     5
 72
     1
  1
\A1;15
1001
ACAD
1000
MTEXTBEGIN
1070
    73
1070
     1
1070
    44
1040
1.0
1070
    74
1070
     0
1000
MTEXTEND
1000
MTEXTBEGIN
1070
    73
1070
     1
1070
    44
1040
1.0
1070
    74
1070
     0
1000
MTEXTEND
1000
MTEXTBEGIN
1070
    73
1070
     1
1070
    44
1040
1.0
1070
    74
1070
     0
1000
MTEXTEND
1000
MTEXTBEGIN
1070
    73
1070
     1
1070
    44
1040
1.0
1070
    74
1070
     0
1000
MTEXTEND
  0
INSERT
  5
4E62
330
1A
100
AcDbEntity
  8
210
 62
     4
100
AcDbBlockReference
  2
_OPEN30
 10
868.3764269830225
 20
556.3411583218551
 30
0.0
 41
2.200000000000045
 42
2.200000000000045
 43
2.2
  0
TEXT
  5
4E80
330
1A
100
AcDbEntity
  8
210
100
AcDbText
 10
656.7574098639747
 20
538.3411583218551
 30
0.0
 40
5.0
  1
15
100
AcDbText
1001
ACAD
1000
MTEXTBEGIN
1070
    73
1070
     1
1070
    44
1040
1.0
1070
    74
1070
     0
1000
MTEXTEND
  0
LINE
  5
4E81
330
1A
100
AcDbEntity
  8
210
 62
     4
100
AcDbLine
 10
667.1764269830226
 20
536.9306465398551
 30
0.0
 11
669.3764269830226
 21
536.341158321855
 31
0.0
  0
LINE
  5
4E82
330
1A
100
AcDbEntity
  8
210
 62
     4
100
AcDbLine
 10
669.3764269830226
 20
536.341158321855
 30
0.0
 11
667.1764269830226
 21
535.7516701038551
 31
0.0
  0
LINE
  5
4E83
330
1A
100
AcDbEntity
  8
210
 62
     4
100
AcDbLine
 10
669.3764269830226
 20
536.341158321855
 30
0.0
 11
667.1764269830226
 21
536.341158321855
 31
0.0
  0
MTEXT
  5
4E84
330
1A
100
AcDbEntity
  8
210
 62
     4
100
AcDbMText
 10
661.8764572985435
 20
540.8413027587439
 30
0.0
 40
5.0
 41
0.0
 71
     5
 72
     1
  1
\A1;15
 11
0.9999999999989464
 21
-0.0000014516272459
 31
0.0
1001
ACAD
1000
MTEXTBEGIN
1070
    73
1070
     1
1070
    44
1040
1.0
1070
    74
1070
     0
1000
MTEXTEND
1000
MTEXTBEGIN
1070
    73
1070
     1
1070
    44
1040
1.0
1070
    74
1070
     0
1000
MTEXTEND
1000
MTEXTBEGIN
1070
    73
1070
     1
1070
    44
1040
1.0
1070
    74
1070
     0
1000
MTEXTEND
1000
MTEXTBEGIN
1070
    73
1070
     1
1070
    44
1040
1.0
1070
    74
1070
     0
1000
MTEXTEND
  0
LINE
  5
5251
330
1A
100
AcDbEntity
  8
210
  6
CONTINUOUS
 62
     4
100
AcDbLine
 10
449.6697010240165
 20
454.0585503218551
 30
0.0
 11
481.5450360240164
 21
454.0585503218551
 31
0.0
  0
LINE
  5
5252
330
1A
100
AcDbEntity
  8
210
  6
CONTINUOUS
 62
     4
100
AcDbLine
 10
402.1697010240164
 20
484.0585503218551
 30
0.0
 11
481.5450360240164
 21
484.0585503218551
 31
0.0
  0
TEXT
  5
5253
330
1A
100
AcDbEntity
  8
210
  6
CONTINUOUS
 62
     4
100
AcDbText
 10
474.3575360240164
 20
464.3085503218551
 30
0.0
 40
5.0
  1
30
 50
90.00000299999932
100
AcDbText
  0
LINE
  5
5254
330
1A
100
AcDbEntity
  8
210
  6
CONTINUOUS
 62
     4
100
AcDbLine
 10
402.1697010240164
 20
424.0585503218551
 30
0.0
 11
481.5450360240164
 21
424.0585503218551
 31
0.0
  0
LINE
  5
5255
330
1A
100
AcDbEntity
  8
210
  6
CONTINUOUS
 62
     4
100
AcDbLine
 10
449.6697010240165
 20
454.0585503218551
 30
0.0
 11
481.5450360240164
 21
454.0585503218551
 31
0.0
  0
TEXT
  5
5256
330
1A
100
AcDbEntity
  8
210
  6
CONTINUOUS
 62
     4
100
AcDbText
 10
474.3575360240164
 20
434.3085503218551
 30
0.0
 40
5.0
  1
30
 50
90.00000299999932
100
AcDbText
  0
LINE
  5
5257
330
1A
100
AcDbEntity
  8
210
  6
CONTINUOUS
 62
     4
100
AcDbLine
 10
437.4825060240165
 20
409.0585503218551
 30
0.0
 11
501.5450360240164
 21
409.0585503218551
 31
0.0
  0
LINE
  5
5258
330
1A
100
AcDbEntity
  8
210
  6
CONTINUOUS
 62
     4
100
AcDbLine
 10
437.4825060240165
 20
499.0585503218551
 30
0.0
 11
501.5450360240164
 21
499.0585503218551
 31
0.0
  0
LINE
  5
5259
330
1A
100
AcDbEntity
  8
210
  6
CONTINUOUS
 62
     4
100
AcDbLine
 10
396.4825060240164
 20
163.9603453218551
 30
0.0
 11
481.5450360240164
 21
163.9603453218551
 31
0.0
  0
LINE
  5
525A
330
1A
100
AcDbEntity
  8
210
  6
CONTINUOUS
 62
     4
100
AcDbLine
 10
458.4825670240165
 20
191.4603453218551
 30
0.0
 11
481.5450360240164
 21
191.4603453218551
 31
0.0
  0
TEXT
  5
525B
330
1A
100
AcDbEntity
  8
210
  6
CONTINUOUS
 62
     4
100
AcDbText
 10
474.3575370240164
 20
169.5853453218551
 30
0.0
 40
5.0
  1
27.5
 50
90.00000299999932
100
AcDbText
  0
LINE
  5
525C
330
1A
100
AcDbEntity
  8
210
  6
CONTINUOUS
 62
     4
100
AcDbLine
 10
403.9825060240164
 20
253.4603453218551
 30
0.0
 11
481.5450360240164
 21
253.4603453218551
 31
0.0
  0
LINE
  5
525D
330
1A
100
AcDbEntity
  8
210
  6
CONTINUOUS
 62
     4
100
AcDbLine
 10
459.4825670240164
 20
191.4603453218551
 30
0.0
 11
481.5450360240164
 21
191.4603453218551
 31
0.0
  0
TEXT
  5
525E
330
1A
100
AcDbEntity
  8
210
  6
CONTINUOUS
 62
     4
100
AcDbText
 10
474.3575360240164
 20
217.9603453218551
 30
0.0
 40
5.0
  1
62
 50
90.00000299999932
100
AcDbText
  0
LINE
  5
5262
330
1A
100
AcDbEntity
  8
210
  6
CONTINUOUS
 62
     4
100
AcDbLine
 10
458.4825670240165
 20
191.4603453218551
 30
0.0
 11
501.5450360240164
 21
191.4603453218551
 31
0.0
  0
LINE
  5
5264
330
1A
100
AcDbEntity
  8
210
  6
CONTINUOUS
 62
     4
100
AcDbLine
 10
458.4825670240165
 20
191.4603453218551
 30
0.0
 11
501.5450360240162
 21
191.4603453218551
 31
0.0
  0
LINE
  5
5265
330
1A
100
AcDbEntity
  8
210
  6
CONTINUOUS
 62
     4
100
AcDbLine
 10
416.4824750240164
 20
141.4603453218551
 30
0.0
 11
501.5450360240162
 21
141.4603453218551
 31
0.0
  0
LINE
  5
5269
330
1A
100
AcDbEntity
  8
170
  6
PHANTOM2
100
AcDbLine
 10
477.4824900240164
 20
316.4603443218552
 30
0.0
 11
371.4824900240164
 21
316.4603443218552
 31
0.0
  0
LINE
  5
526D
330
1A
100
AcDbEntity
  8
170
  6
PHANTOM2
100
AcDbLine
 10
477.4824900240164
 20
318.4603443218552
 30
0.0
 11
371.4824900240164
 21
318.4603443218552
 31
0.0
  0
LINE
  5
527C
330
1A
100
AcDbEntity
  8
210
  6
CONTINUOUS
 62
     4
100
AcDbLine
 10
211.4824600240164
 20
212.4603453218551
 30
0.0
 11
170.4824290240164
 21
212.4603453218551
 31
0.0
  0
ARC
  5
527E
330
1A
100
AcDbEntity
  8
0
  6
CONTINUOUS
 62
     2
100
AcDbCircle
 10
212.4824600240164
 20
210.4603443218552
 30
0.0
 40
2.0
100
AcDbArc
 50
90.0
 51
180.0000029999976
  0
LINE
  5
5281
330
1A
100
AcDbEntity
  8
170
  6
PHANTOM2
100
AcDbLine
 10
193.4824290240164
 20
318.4603443218552
 30
0.0
 11
279.4824900240164
 21
318.4603443218552
 31
0.0
  0
LINE
  5
5282
330
1A
100
AcDbEntity
  8
170
  6
PHANTOM2
100
AcDbLine
 10
279.4824900240164
 20
316.4603443218552
 30
0.0
 11
193.4824290240164
 21
316.4603443218552
 31
0.0
  0
LINE
  5
5283
330
1A
100
AcDbEntity
  8
170
  6
PHANTOM2
100
AcDbLine
 10
202.9824290240164
 20
186.4603443218552
 30
0.0
 11
230.4824290240164
 21
186.4603443218552
 31
0.0
  0
LINE
  5
5284
330
1A
100
AcDbEntity
  8
0
  6
CONTINUOUS
 62
     2
100
AcDbLine
 10
234.4824600240164
 20
191.4603443218552
 30
0.0
 11
210.4824600240164
 21
191.4603443218552
 31
0.0
  0
ARC
  5
5285
330
1A
100
AcDbEntity
  8
150
  6
CONTINUOUS
 62
     7
100
AcDbCircle
 10
211.4824600240164
 20
204.4603443218552
 30
0.0
 40
1.0
100
AcDbArc
 50
90.0
 51
180.0000029999976
  0
LINE
  5
5296
330
1A
100
AcDbEntity
  8
210
  6
CONTINUOUS
 62
     4
100
AcDbLine
 10
173.4824290240164
 20
191.4603453218551
 30
0.0
 11
173.4824290240164
 21
212.4603453218551
 31
0.0
  0
LINE
  5
5297
330
1A
100
AcDbEntity
  8
0
  6
CONTINUOUS
 62
     2
100
AcDbLine
 10
210.4824600240164
 20
191.4603443218552
 30
0.0
 11
210.4824600240164
 21
210.4603443218552
 31
0.0
  0
LINE
  5
5299
330
1A
100
AcDbEntity
  8
210
  6
CONTINUOUS
 62
     4
100
AcDbLine
 10
192.4824290240164
 20
191.4603453218551
 30
0.0
 11
170.4824290240165
 21
191.4603453218551
 31
0.0
  0
LINE
  5
529C
330
1A
100
AcDbEntity
  8
210
  6
CONTINUOUS
 62
     4
100
AcDbLine
 10
173.4824290240164
 20
191.4603453218551
 30
0.0
 11
173.1490960240164
 21
193.4323713218552
 31
0.0
  0
LINE
  5
529D
330
1A
100
AcDbEntity
  8
210
  6
CONTINUOUS
 62
     4
100
AcDbLine
 10
173.4824290240164
 20
191.4603453218551
 30
0.0
 11
173.8157630240164
 21
193.4323713218552
 31
0.0
  0
LINE
  5
529E
330
1A
100
AcDbEntity
  8
170
  6
PHANTOM2
100
AcDbLine
 10
193.4824290240164
 20
191.4603443218552
 30
0.0
 11
193.4824290240164
 21
151.4603593218552
 31
0.0
  0
LINE
  5
529F
330
1A
100
AcDbEntity
  8
170
  6
PHANTOM2
100
AcDbLine
 10
198.4824290240164
 20
181.9603443218552
 30
0.0
 11
198.4824290240164
 21
154.4603443218551
 31
0.0
  0
LINE
  5
52A0
330
1A
100
AcDbEntity
  8
170
  6
PHANTOM2
100
AcDbLine
 10
193.4824290240164
 20
151.4603443218551
 30
0.0
 11
195.4824290240164
 21
151.4603443218551
 31
0.0
  0
ARC
  5
52A1
330
1A
100
AcDbEntity
  8
170
  6
PHANTOM2
100
AcDbCircle
 10
195.4824600240164
 20
156.4586813218552
 30
0.0
 40
3.0
100
AcDbArc
 50
359.9518440000022
 51
0.0000100000010064
  0
ARC
  5
52A2
330
1A
100
AcDbEntity
  8
170
  6
PHANTOM2
100
AcDbCircle
 10
195.4824290240164
 20
154.4603443218551
 30
0.0
 40
3.0
100
AcDbArc
 50
270.0
 51
0.000008999999603
  0
LINE
  5
52A3
330
1A
100
AcDbEntity
  8
170
  6
PHANTOM2
100
AcDbLine
 10
193.4824290240164
 20
191.4603443218552
 30
0.0
 11
233.4824600240164
 21
191.4603443218552
 31
0.0
  0
ARC
  5
52A4
330
1A
100
AcDbEntity
  8
170
  6
PHANTOM2
100
AcDbCircle
 10
202.9824290240164
 20
181.9603443218552
 30
0.0
 40
4.5
100
AcDbArc
 50
90.0
 51
180.0000029999976
  0
TEXT
  5
52A6
330
1A
100
AcDbEntity
  8
210
  6
CONTINUOUS
 62
     4
100
AcDbText
 10
170.5837012948057
 20
197.8965592363997
 30
0.0
 40
5.0
  1
21
 50
90.00000299999932
100
AcDbText
  0
LINE
  5
52A7
330
1A
100
AcDbEntity
  8
210
  6
CONTINUOUS
 62
     4
100
AcDbLine
 10
173.4824290240164
 20
212.4603453218551
 30
0.0
 11
173.1490960240164
 21
210.4883183218551
 31
0.0
  0
LINE
  5
52A8
330
1A
100
AcDbEntity
  8
210
  6
CONTINUOUS
 62
     4
100
AcDbLine
 10
173.4824290240164
 20
212.4603453218551
 30
0.0
 11
173.8157630240164
 21
210.4883183218551
 31
0.0
  0
LINE
  5
52B4
330
1A
100
AcDbEntity
  8
0
  6
CONTINUOUS
 62
     2
100
AcDbLine
 10
261.7324900240164
 20
144.4603443218551
 30
0.0
 11
261.2789690240164
 21
163.5079513218552
 31
0.0
  0
LINE
  5
52B5
330
1A
100
AcDbEntity
  8
0
  6
CONTINUOUS
 62
     2
100
AcDbLine
 10
249.2324900240164
 20
144.4603443218551
 30
0.0
 11
249.6860120240164
 21
163.5079513218552
 31
0.0
  0
LINE
  5
52B6
330
1A
100
AcDbEntity
  8
0
  6
CONTINUOUS
 62
     2
100
AcDbLine
 10
331.7324900240164
 20
144.4603443218551
 30
0.0
 11
331.2789690240165
 21
163.5079513218552
 31
0.0
  0
LINE
  5
52B7
330
1A
100
AcDbEntity
  8
0
  6
CONTINUOUS
 62
     2
100
AcDbLine
 10
319.2324900240164
 20
144.4603443218551
 30
0.0
 11
319.6860120240164
 21
163.5079513218552
 31
0.0
  0
LINE
  5
52B8
330
1A
100
AcDbEntity
  8
0
  6
CONTINUOUS
 62
     2
100
AcDbLine
 10
389.2324900240164
 20
144.4603443218551
 30
0.0
 11
389.6860120240164
 21
163.5079513218552
 31
0.0
  0
LINE
  5
52B9
330
1A
100
AcDbEntity
  8
0
  6
CONTINUOUS
 62
     2
100
AcDbLine
 10
401.7324900240164
 20
144.4603443218551
 30
0.0
 11
401.2789690240165
 21
163.5079513218552
 31
0.0
  0
LINE
  5
52BA
330
1A
100
AcDbEntity
  8
0
  6
CONTINUOUS
 62
     2
100
AcDbLine
 10
374.4824600240164
 20
142.4603443218551
 30
0.0
 11
374.4824600240164
 21
166.4603443218551
 31
0.0
  0
LINE
  5
52BB
330
1A
100
AcDbEntity
  8
0
  6
CONTINUOUS
 62
     2
100
AcDbLine
 10
346.4824600240164
 20
142.4603443218551
 30
0.0
 11
346.4824600240164
 21
166.4603443218551
 31
0.0
  0
LINE
  5
52BC
330
1A
100
AcDbEntity
  8
0
  6
CONTINUOUS
 62
     2
100
AcDbLine
 10
304.4824600240164
 20
142.4603443218551
 30
0.0
 11
304.4824600240164
 21
166.4603443218551
 31
0.0
  0
LINE
  5
52BD
330
1A
100
AcDbEntity
  8
0
  6
CONTINUOUS
 62
     2
100
AcDbLine
 10
276.4824600240164
 20
142.4603443218551
 30
0.0
 11
276.4824600240164
 21
166.4603443218551
 31
0.0
  0
LINE
  5
52BE
330
1A
100
AcDbEntity
  8
0
  6
CONTINUOUS
 62
     2
100
AcDbLine
 10
416.4824900240164
 20
142.4603443218551
 30
0.0
 11
416.4824900240164
 21
191.4603443218552
 31
0.0
  0
LINE
  5
52BF
330
1A
100
AcDbEntity
  8
0
  6
CONTINUOUS
 62
     2
100
AcDbLine
 10
234.4824600240164
 20
142.4603443218551
 30
0.0
 11
234.4824600240164
 21
191.4603443218552
 31
0.0
  0
LINE
  5
52C1
330
1A
100
AcDbEntity
  8
0
  6
CONTINUOUS
 62
     2
100
AcDbLine
 10
333.4824600240164
 20
141.4603443218551
 30
0.0
 11
345.4824600240164
 21
141.4603443218551
 31
0.0
  0
LINE
  5
52C2
330
1A
100
AcDbEntity
  8
0
  6
CONTINUOUS
 62
     2
100
AcDbLine
 10
247.4824600240164
 20
141.4603443218551
 30
0.0
 11
235.4824600240164
 21
141.4603443218551
 31
0.0
  0
ARC
  5
52C3
330
1A
100
AcDbEntity
  8
0
  6
CONTINUOUS
 62
     2
100
AcDbCircle
 10
235.4824600240164
 20
142.4603443218551
 30
0.0
 40
1.0
100
AcDbArc
 50
180.0000050000005
 51
270.0000009999997
  0
LINE
  5
52C4
330
1A
100
AcDbEntity
  8
0
  6
CONTINUOUS
 62
     2
100
AcDbLine
 10
249.2324900240164
 20
144.4603443218551
 30
0.0
 11
247.4824600240164
 21
141.4603443218551
 31
0.0
  0
LINE
  5
52C5
330
1A
100
AcDbEntity
  8
0
  6
CONTINUOUS
 62
     2
100
AcDbLine
 10
263.4824600240164
 20
141.4603443218551
 30
0.0
 11
275.4824600240164
 21
141.4603443218551
 31
0.0
  0
LINE
  5
52C6
330
1A
100
AcDbEntity
  8
0
  6
CONTINUOUS
 62
     2
100
AcDbLine
 10
261.7324900240164
 20
144.4603443218551
 30
0.0
 11
263.4825210240165
 21
141.4603443218551
 31
0.0
  0
ARC
  5
52C7
330
1A
100
AcDbEntity
  8
0
  6
CONTINUOUS
 62
     2
100
AcDbCircle
 10
275.4824600240164
 20
142.4603443218551
 30
0.0
 40
1.0
100
AcDbArc
 50
270.0
 51
359.9999960000009
  0
LINE
  5
52C8
330
1A
100
AcDbEntity
  8
0
  6
CONTINUOUS
 62
     2
100
AcDbLine
 10
317.4824600240164
 20
141.4603443218551
 30
0.0
 11
305.4824600240164
 21
141.4603443218551
 31
0.0
  0
ARC
  5
52C9
330
1A
100
AcDbEntity
  8
0
  6
CONTINUOUS
 62
     2
100
AcDbCircle
 10
305.4824600240164
 20
142.4603443218551
 30
0.0
 40
1.0
100
AcDbArc
 50
180.0000050000005
 51
270.0000009999997
  0
LINE
  5
52CA
330
1A
100
AcDbEntity
  8
0
  6
CONTINUOUS
 62
     2
100
AcDbLine
 10
319.2324900240164
 20
144.4603443218551
 30
0.0
 11
317.4824600240164
 21
141.4603443218551
 31
0.0
  0
LINE
  5
52CB
330
1A
100
AcDbEntity
  8
0
  6
CONTINUOUS
 62
     2
100
AcDbLine
 10
331.7324900240164
 20
144.4603443218551
 30
0.0
 11
333.4825210240165
 21
141.4603443218551
 31
0.0
  0
LINE
  5
52CC
330
1A
100
AcDbEntity
  8
0
  6
CONTINUOUS
 62
     2
100
AcDbLine
 10
403.4824600240164
 20
141.4603443218551
 30
0.0
 11
415.4824600240164
 21
141.4603443218551
 31
0.0
  0
ARC
  5
52CD
330
1A
100
AcDbEntity
  8
0
  6
CONTINUOUS
 62
     2
100
AcDbCircle
 10
375.4824600240164
 20
142.4603443218551
 30
0.0
 40
1.0
100
AcDbArc
 50
180.0000050000005
 51
270.0000009999997
  0
ARC
  5
52CE
330
1A
100
AcDbEntity
  8
0
  6
CONTINUOUS
 62
     2
100
AcDbCircle
 10
345.4824600240164
 20
142.4603443218551
 30
0.0
 40
1.0
100
AcDbArc
 50
270.0
 51
0.000008999999603
  0
LINE
  5
52CF
330
1A
100
AcDbEntity
  8
0
  6
CONTINUOUS
 62
     2
100
AcDbLine
 10
387.4824600240164
 20
141.4603443218551
 30
0.0
 11
375.4824600240164
 21
141.4603443218551
 31
0.0
  0
LINE
  5
52D0
330
1A
100
AcDbEntity
  8
0
  6
CONTINUOUS
 62
     2
100
AcDbLine
 10
389.2324900240164
 20
144.4603443218551
 30
0.0
 11
387.4824600240164
 21
141.4603443218551
 31
0.0
  0
LINE
  5
52D1
330
1A
100
AcDbEntity
  8
0
  6
CONTINUOUS
 62
     2
100
AcDbLine
 10
401.7324900240164
 20
144.4603443218551
 30
0.0
 11
403.4825210240165
 21
141.4603443218551
 31
0.0
  0
ARC
  5
52D2
330
1A
100
AcDbEntity
  8
0
  6
CONTINUOUS
 62
     2
100
AcDbCircle
 10
415.4824600240164
 20
142.4603443218551
 30
0.0
 40
1.0
100
AcDbArc
 50
270.0
 51
0.000008999999603
  0
LINE
  5
52D5
330
1A
100
AcDbEntity
  8
150
  6
CONTINUOUS
 62
     7
100
AcDbLine
 10
379.4824900240164
 20
194.4603443218552
 30
0.0
 11
250.4824600240164
 21
194.4603443218552
 31
0.0
  0
LINE
  5
52D6
330
1A
100
AcDbEntity
  8
150
  6
CONTINUOUS
 62
     7
100
AcDbLine
 10
245.9824600240164
 20
229.4603443218552
 30
0.0
 11
402.9824900240164
 21
229.4603443218552
 31
0.0
  0
LINE
  5
52D7
330
1A
100
AcDbEntity
  8
0
  6
CONTINUOUS
 62
     2
100
AcDbLine
 10
275.4824900240164
 20
315.4603443218552
 30
0.0
 11
300.4824900240164
 21
315.4603443218552
 31
0.0
  0
LINE
  5
52D8
330
1A
100
AcDbEntity
  8
0
  6
CONTINUOUS
 62
     2
100
AcDbLine
 10
301.4824900240164
 20
319.4603443218552
 30
0.0
 11
349.4824900240164
 21
319.4603443218552
 31
0.0
  0
LINE
  5
52D9
330
1A
100
AcDbEntity
  8
0
  6
CONTINUOUS
 62
     2
100
AcDbLine
 10
234.4824600240165
 20
166.4603443218551
 30
0.0
 11
374.4824600240164
 21
166.4603443218551
 31
0.0
  0
LINE
  5
52DC
330
1A
100
AcDbEntity
  8
150
  6
CONTINUOUS
 62
     7
100
AcDbLine
 10
252.9824600240164
 20
308.8603383218551
 30
0.0
 11
252.9824600240164
 21
229.4603443218552
 31
0.0
  0
LINE
  5
52DD
330
1A
100
AcDbEntity
  8
0
  6
CONTINUOUS
 62
     2
100
AcDbLine
 10
245.9824600240164
 20
306.8603383218551
 30
0.0
 11
245.9824600240164
 21
232.4603443218552
 31
0.0
  0
LINE
  5
52DE
330
1A
100
AcDbEntity
  8
150
  6
HIDDEN2
 62
     7
100
AcDbLine
 10
247.9824600240164
 20
305.8603383218551
 30
0.0
 11
247.9824600240164
 21
229.4603443218552
 31
0.0
  0
LINE
  5
52DF
330
1A
100
AcDbEntity
  8
0
  6
CONTINUOUS
 62
     2
100
AcDbLine
 10
304.4824600240164
 20
166.4603443218551
 30
0.0
 11
276.4824600240164
 21
166.4603443218551
 31
0.0
  0
LINE
  5
52E0
330
1A
100
AcDbEntity
  8
150
  6
CONTINUOUS
 62
     7
100
AcDbLine
 10
250.4824600240164
 20
212.4603443218552
 30
0.0
 11
250.4824600240164
 21
194.4603443218552
 31
0.0
  0
LINE
  5
52E1
330
1A
100
AcDbEntity
  8
150
  6
DASHED
100
AcDbLine
 10
221.4824600240164
 20
205.4603443218552
 30
0.0
 11
221.4824600240164
 21
183.5018483218552
 31
0.0
  0
LINE
  5
52E2
330
1A
100
AcDbEntity
  8
150
  6
DASHED
100
AcDbLine
 10
216.0239640240165
 20
205.4603443218552
 30
0.0
 11
216.0239640240165
 21
182.9603443218552
 31
0.0
  0
LINE
  5
52E3
330
1A
100
AcDbEntity
  8
150
  6
DASHED
100
AcDbLine
 10
220.9409560240164
 20
205.4603443218552
 30
0.0
 11
220.9409560240164
 21
182.9603443218552
 31
0.0
  0
LINE
  5
52E4
330
1A
100
AcDbEntity
  8
150
  6
DASHED
100
AcDbLine
 10
215.4824600240164
 20
205.4603443218552
 30
0.0
 11
215.4824600240164
 21
183.5018483218552
 31
0.0
  0
LINE
  5
52E5
330
1A
100
AcDbEntity
  8
225
  6
CENTER
 62
     3
100
AcDbLine
 10
218.4824600240164
 20
217.4603443218552
 30
0.0
 11
218.4824600240164
 21
178.4603443218551
 31
0.0
  0
LINE
  5
52E6
330
1A
100
AcDbEntity
  8
150
  6
DASHED
100
AcDbLine
 10
215.4824600240164
 20
183.5018483218552
 30
0.0
 11
221.4824600240164
 21
183.5018483218552
 31
0.0
  0
LINE
  5
52E7
330
1A
100
AcDbEntity
  8
150
  6
DASHED
100
AcDbLine
 10
216.0239640240165
 20
182.9603443218552
 30
0.0
 11
220.9409560240164
 21
182.9603443218552
 31
0.0
  0
LINE
  5
52E8
330
1A
100
AcDbEntity
  8
150
  6
DASHED
100
AcDbLine
 10
215.4824600240164
 20
183.5018483218552
 30
0.0
 11
216.0239640240165
 21
182.9603443218552
 31
0.0
  0
LINE
  5
52E9
330
1A
100
AcDbEntity
  8
150
  6
DASHED
100
AcDbLine
 10
221.4824600240164
 20
183.5018483218552
 30
0.0
 11
220.9409560240164
 21
182.9603443218552
 31
0.0
  0
ARC
  5
52EA
330
1A
100
AcDbEntity
  8
170
  6
PHANTOM2
100
AcDbCircle
 10
230.4824290240164
 20
189.4603443218552
 30
0.0
 40
3.0
100
AcDbArc
 50
270.0
 51
0.000008999999603
  0
LINE
  5
52EB
330
1A
100
AcDbEntity
  8
170
  6
PHANTOM2
100
AcDbLine
 10
233.4824600240164
 20
191.4603443218552
 30
0.0
 11
233.4824600240164
 21
189.4603443218552
 31
0.0
  0
ARC
  5
52EC
330
1A
100
AcDbEntity
  8
0
  6
CONTINUOUS
 62
     2
100
AcDbCircle
 10
259.2795490240164
 20
163.4603443218551
 30
0.0
 40
2.0
100
AcDbArc
 50
1.363928999999205
 51
89.99999700000067
  0
ARC
  5
52ED
330
1A
100
AcDbEntity
  8
170
  6
PHANTOM2
100
AcDbCircle
 10
255.4824600240164
 20
158.9603443218551
 30
0.0
 40
5.0
100
AcDbArc
 50
0.0
 51
180.0000050000005
  0
LINE
  5
52EE
330
1A
100
AcDbEntity
  8
0
  6
CONTINUOUS
 62
     2
100
AcDbLine
 10
251.6875080240164
 20
165.4603443218551
 30
0.0
 11
259.2774120240164
 21
165.4603443218551
 31
0.0
  0
ARC
  5
52EF
330
1A
100
AcDbEntity
  8
0
  6
CONTINUOUS
 62
     2
100
AcDbCircle
 10
251.6854320240164
 20
163.4603443218551
 30
0.0
 40
2.0
100
AcDbArc
 50
90.0
 51
178.6360679999999
  0
LINE
  5
52F0
330
1A
100
AcDbEntity
  8
0
  6
CONTINUOUS
 62
     2
100
AcDbLine
 10
242.4824600240164
 20
232.4603443218552
 30
0.0
 11
245.9824600240164
 21
232.4603443218552
 31
0.0
  0
LINE
  5
52F1
330
1A
100
AcDbEntity
  8
150
  6
CONTINUOUS
 62
     7
100
AcDbLine
 10
241.4824600240164
 20
212.4603443218552
 30
0.0
 11
250.4824600240164
 21
212.4603443218552
 31
0.0
  0
LINE
  5
52F2
330
1A
100
AcDbEntity
  8
0
  6
CONTINUOUS
 62
     2
100
AcDbLine
 10
241.4824600240164
 20
231.4603443218552
 30
0.0
 11
241.4824600240164
 21
212.4603443218552
 31
0.0
  0
LINE
  5
52F3
330
1A
100
AcDbEntity
  8
0
  6
CONTINUOUS
 62
     2
100
AcDbLine
 10
212.4824600240164
 20
212.4603443218552
 30
0.0
 11
241.4824600240164
 21
212.4603443218552
 31
0.0
  0
LINE
  5
52F4
330
1A
100
AcDbEntity
  8
150
  6
HIDDEN2
100
AcDbLine
 10
213.2324600240164
 20
207.9603443218552
 30
0.0
 11
213.3930740240164
 21
209.7960373218552
 31
0.0
  0
LINE
  5
52F5
330
1A
100
AcDbEntity
  8
150
  6
HIDDEN2
100
AcDbLine
 10
223.7324600240164
 20
207.9603443218552
 30
0.0
 11
223.5718760240164
 21
209.7960373218552
 31
0.0
  0
LINE
  5
52F6
330
1A
100
AcDbEntity
  8
150
  6
CONTINUOUS
 62
     7
100
AcDbLine
 10
225.4824600240164
 20
211.4603443218552
 30
0.0
 11
225.4824600240164
 21
205.4603443218552
 31
0.0
  0
LINE
  5
52F7
330
1A
100
AcDbEntity
  8
150
  6
HIDDEN2
100
AcDbLine
 10
212.3824540240164
 20
207.9603443218552
 30
0.0
 11
224.5824660240164
 21
207.9603443218552
 31
0.0
  0
LINE
  5
52F8
330
1A
100
AcDbEntity
  8
150
  6
HIDDEN2
100
AcDbLine
 10
211.9824600240164
 20
206.4603443218552
 30
0.0
 11
224.9824600240164
 21
206.4603443218552
 31
0.0
  0
LINE
  5
52F9
330
1A
100
AcDbEntity
  8
150
  6
CONTINUOUS
 62
     7
100
AcDbLine
 10
211.4824600240164
 20
205.4603443218552
 30
0.0
 11
225.4824600240164
 21
205.4603443218552
 31
0.0
  0
LINE
  5
52FA
330
1A
100
AcDbEntity
  8
150
  6
HIDDEN2
100
AcDbLine
 10
219.2324600240164
 20
206.4603443218552
 30
0.0
 11
218.4824600240164
 21
207.9603443218552
 31
0.0
  0
LINE
  5
52FB
330
1A
100
AcDbEntity
  8
150
  6
HIDDEN2
100
AcDbLine
 10
212.3824540240164
 20
206.4603443218552
 30
0.0
 11
212.3824540240164
 21
207.9603443218552
 31
0.0
  0
LINE
  5
52FC
330
1A
100
AcDbEntity
  8
150
  6
HIDDEN2
100
AcDbLine
 10
218.4824600240164
 20
206.4603443218552
 30
0.0
 11
217.7324600240164
 21
207.9603443218552
 31
0.0
  0
LINE
  5
52FD
330
1A
100
AcDbEntity
  8
150
  6
HIDDEN2
100
AcDbLine
 10
211.9824600240164
 20
205.4603443218552
 30
0.0
 11
211.9824600240164
 21
206.4603443218552
 31
0.0
  0
LINE
  5
52FE
330
1A
100
AcDbEntity
  8
150
  6
HIDDEN2
100
AcDbLine
 10
224.9824600240164
 20
205.4603443218552
 30
0.0
 11
224.9824600240164
 21
206.4603443218552
 31
0.0
  0
LINE
  5
52FF
330
1A
100
AcDbEntity
  8
150
  6
HIDDEN2
100
AcDbLine
 10
224.5824660240164
 20
206.4603443218552
 30
0.0
 11
224.5824660240164
 21
207.9603443218552
 31
0.0
  0
ARC
  5
5300
330
1A
100
AcDbEntity
  8
150
  6
HIDDEN2
100
AcDbCircle
 10
218.4824650240164
 20
197.9603373218551
 30
0.0
 40
14.0
100
AcDbArc
 50
74.68147499999915
 51
105.3184529999995
  0
ARC
  5
5303
330
1A
100
AcDbEntity
  8
150
  6
HIDDEN2
100
AcDbCircle
 10
215.2858470240165
 20
209.6304443218552
 30
0.0
 40
1.9
100
AcDbArc
 50
105.3184499999991
 51
175.0000400000011
  0
ARC
  5
5304
330
1A
100
AcDbEntity
  8
150
  6
HIDDEN2
100
AcDbCircle
 10
221.6790960240164
 20
209.6304403218553
 30
0.0
 40
1.9
100
AcDbArc
 50
4.999913000002107
 51
74.68147499999915
  0
ARC
  5
5305
330
1A
100
AcDbEntity
  8
150
  6
CONTINUOUS
 62
     7
100
AcDbCircle
 10
226.4824600240164
 20
211.4603443218552
 30
0.0
 40
1.0
100
AcDbArc
 50
90.0
 51
180.0000029999976
  0
ARC
  5
5306
330
1A
100
AcDbEntity
  8
0
  6
CONTINUOUS
 62
     2
100
AcDbCircle
 10
242.4824600240164
 20
231.4603443218552
 30
0.0
 40
1.0
100
AcDbArc
 50
90.0
 51
180.0000029999976
  0
LINE
  5
5307
330
1A
100
AcDbEntity
  8
150
  6
CONTINUOUS
 62
     7
100
AcDbLine
 10
246.4824600240164
 20
229.4603443218552
 30
0.0
 11
246.4824600240164
 21
212.4603443218552
 31
0.0
  0
LINE
  5
5308
330
1A
100
AcDbEntity
  8
0
  6
CONTINUOUS
 62
     2
100
AcDbLine
 10
321.6875080240165
 20
165.4603443218551
 30
0.0
 11
329.2774120240164
 21
165.4603443218551
 31
0.0
  0
ARC
  5
5309
330
1A
100
AcDbEntity
  8
170
  6
PHANTOM2
100
AcDbCircle
 10
325.4824900240164
 20
158.9603443218551
 30
0.0
 40
5.0
100
AcDbArc
 50
0.0
 51
180.0000050000005
  0
ARC
  5
530A
330
1A
100
AcDbEntity
  8
0
  6
CONTINUOUS
 62
     2
100
AcDbCircle
 10
321.6854320240164
 20
163.4603443218551
 30
0.0
 40
2.0
100
AcDbArc
 50
90.0
 51
178.6360679999999
  0
ARC
  5
530B
330
1A
100
AcDbEntity
  8
0
  6
CONTINUOUS
 62
     2
100
AcDbCircle
 10
329.2795490240164
 20
163.4603443218551
 30
0.0
 40
2.0
100
AcDbArc
 50
1.363928999999205
 51
89.99999700000067
  0
LINE
  5
5318
330
1A
100
AcDbEntity
  8
225
  6
CENTER
 62
     3
100
AcDbLine
 10
257.4824600240164
 20
314.6603263218551
 30
0.0
 11
257.4824600240164
 21
300.9603443218552
 31
0.0
  0
LINE
  5
5319
330
1A
100
AcDbEntity
  8
0
  6
CONTINUOUS
 62
     2
100
AcDbLine
 10
274.4824900240164
 20
314.4603443218552
 30
0.0
 11
274.4824900240164
 21
308.4603443218552
 31
0.0
  0
LINE
  5
531A
330
1A
100
AcDbEntity
  8
0
  6
CONTINUOUS
 62
     2
100
AcDbLine
 10
247.9824600240164
 20
308.8603383218551
 30
0.0
 11
265.1824720240164
 21
308.8603383218551
 31
0.0
  0
LINE
  5
531B
330
1A
100
AcDbEntity
  8
150
  6
CONTINUOUS
 62
     7
100
AcDbLine
 10
252.9824600240164
 20
306.8603383218551
 30
0.0
 11
261.9824600240164
 21
306.8603383218551
 31
0.0
  0
LINE
  5
531C
330
1A
100
AcDbEntity
  8
150
  6
HIDDEN2
 62
     7
100
AcDbLine
 10
248.9824600240164
 20
306.8603383218551
 30
0.0
 11
252.9824600240164
 21
306.8603383218551
 31
0.0
  0
ARC
  5
531D
330
1A
100
AcDbEntity
  8
0
  6
CONTINUOUS
 62
     2
100
AcDbCircle
 10
247.9824600240164
 20
306.8603383218551
 30
0.0
 40
2.0
100
AcDbArc
 50
90.0
 51
180.0000029999976
  0
ARC
  5
531E
330
1A
100
AcDbEntity
  8
150
  6
HIDDEN2
 62
     7
100
AcDbCircle
 10
248.9824600240164
 20
305.8603383218551
 30
0.0
 40
1.0
100
AcDbArc
 50
90.0
 51
180.0000029999976
  0
ARC
  5
531F
330
1A
100
AcDbEntity
  8
150
  6
CONTINUOUS
 62
     7
100
AcDbCircle
 10
257.4824640240164
 20
305.6603123218551
 30
0.0
 40
6.0
100
AcDbArc
 50
74.55716599999997
 51
105.442761999999
  0
LINE
  5
5320
330
1A
100
AcDbEntity
  8
150
  6
CONTINUOUS
 62
     7
100
AcDbLine
 10
254.8324660240164
 20
309.3603383218551
 30
0.0
 11
254.8324660240164
 21
309.9603443218552
 31
0.0
  0
LINE
  5
5321
330
1A
100
AcDbEntity
  8
150
  6
CONTINUOUS
 62
     7
100
AcDbLine
 10
260.1324540240164
 20
309.3603383218551
 30
0.0
 11
260.1324540240164
 21
309.9603443218552
 31
0.0
  0
LINE
  5
5322
330
1A
100
AcDbEntity
  8
150
  6
CONTINUOUS
 62
     7
100
AcDbLine
 10
255.2324600240164
 20
309.9603443218552
 30
0.0
 11
255.3008800240164
 21
310.7423263218552
 31
0.0
  0
LINE
  5
5323
330
1A
100
AcDbEntity
  8
150
  6
CONTINUOUS
 62
     7
100
AcDbLine
 10
259.7324600240164
 20
309.9603443218552
 30
0.0
 11
259.6640400240164
 21
310.7423263218552
 31
0.0
  0
LINE
  5
5324
330
1A
100
AcDbEntity
  8
150
  6
CONTINUOUS
 62
     7
100
AcDbLine
 10
254.9824600240164
 20
308.8603383218551
 30
0.0
 11
254.9824600240164
 21
309.3603383218551
 31
0.0
  0
LINE
  5
5325
330
1A
100
AcDbEntity
  8
150
  6
CONTINUOUS
 62
     7
100
AcDbLine
 10
259.9824600240164
 20
308.8603383218551
 30
0.0
 11
259.9824600240164
 21
309.3603383218551
 31
0.0
  0
LINE
  5
5326
330
1A
100
AcDbEntity
  8
150
  6
CONTINUOUS
 62
     7
100
AcDbLine
 10
254.8324660240164
 20
309.3603383218551
 30
0.0
 11
254.9824600240164
 21
309.3603383218551
 31
0.0
  0
LINE
  5
5327
330
1A
100
AcDbEntity
  8
150
  6
CONTINUOUS
 62
     7
100
AcDbLine
 10
254.8324660240164
 20
309.9603443218552
 30
0.0
 11
255.2324600240164
 21
309.9603443218552
 31
0.0
  0
LINE
  5
5328
330
1A
100
AcDbEntity
  8
150
  6
CONTINUOUS
 62
     7
100
AcDbLine
 10
256.4759600240165
 20
308.8603383218551
 30
0.0
 11
256.4759600240165
 21
303.9603443218552
 31
0.0
  0
LINE
  5
5329
330
1A
100
AcDbEntity
  8
150
  6
CONTINUOUS
 62
     7
100
AcDbLine
 10
258.4889600240164
 20
308.8603383218551
 30
0.0
 11
258.4889600240164
 21
303.9603443218552
 31
0.0
  0
LINE
  5
532A
330
1A
100
AcDbEntity
  8
150
  6
CONTINUOUS
 62
     7
100
AcDbLine
 10
256.1824720240164
 20
308.8603383218551
 30
0.0
 11
256.1824720240164
 21
304.2538313218551
 31
0.0
  0
LINE
  5
532B
330
1A
100
AcDbEntity
  8
150
  6
CONTINUOUS
 62
     7
100
AcDbLine
 10
258.7824480240164
 20
308.8603383218551
 30
0.0
 11
258.7824480240164
 21
304.2538313218551
 31
0.0
  0
LINE
  5
532C
330
1A
100
AcDbEntity
  8
150
  6
CONTINUOUS
 62
     7
100
AcDbLine
 10
256.1824720240164
 20
304.2538313218551
 30
0.0
 11
258.7824480240164
 21
304.2538313218551
 31
0.0
  0
LINE
  5
532D
330
1A
100
AcDbEntity
  8
150
  6
CONTINUOUS
 62
     7
100
AcDbLine
 10
256.4759600240165
 20
303.9603443218552
 30
0.0
 11
258.4889600240164
 21
303.9603443218552
 31
0.0
  0
ARC
  5
532E
330
1A
100
AcDbEntity
  8
150
  6
CONTINUOUS
 62
     7
100
AcDbCircle
 10
256.0978240240164
 20
310.6725813218552
 30
0.0
 40
0.8
100
AcDbArc
 50
105.4427050000007
 51
174.9999779999999
  0
ARC
  5
532F
330
1A
100
AcDbEntity
  8
150
  6
CONTINUOUS
 62
     7
100
AcDbCircle
 10
258.8671110240164
 20
310.6725803218553
 30
0.0
 40
0.8
100
AcDbArc
 50
4.999968000000138
 51
74.55722100000059
  0
LINE
  5
5330
330
1A
100
AcDbEntity
  8
150
  6
CONTINUOUS
 62
     7
100
AcDbLine
 10
257.4824600240164
 20
309.3603383218551
 30
0.0
 11
257.1824720240164
 21
309.9603443218552
 31
0.0
  0
LINE
  5
5331
330
1A
100
AcDbEntity
  8
150
  6
CONTINUOUS
 62
     7
100
AcDbLine
 10
257.7824780240164
 20
309.3603383218551
 30
0.0
 11
257.4824600240164
 21
309.9603443218552
 31
0.0
  0
LINE
  5
5332
330
1A
100
AcDbEntity
  8
150
  6
CONTINUOUS
 62
     7
100
AcDbLine
 10
256.1824720240164
 20
304.2538313218551
 30
0.0
 11
256.4759600240165
 21
303.9603443218552
 31
0.0
  0
LINE
  5
5333
330
1A
100
AcDbEntity
  8
150
  6
CONTINUOUS
 62
     7
100
AcDbLine
 10
258.7824480240164
 20
304.2538313218551
 30
0.0
 11
258.4889600240164
 21
303.9603443218552
 31
0.0
  0
LINE
  5
5334
330
1A
100
AcDbEntity
  8
150
  6
CONTINUOUS
 62
     7
100
AcDbLine
 10
259.7324600240164
 20
309.9603443218552
 30
0.0
 11
260.1324540240164
 21
309.9603443218552
 31
0.0
  0
LINE
  5
5335
330
1A
100
AcDbEntity
  8
150
  6
CONTINUOUS
 62
     7
100
AcDbLine
 10
259.9824600240164
 20
309.3603383218551
 30
0.0
 11
260.1324540240164
 21
309.3603383218551
 31
0.0
  0
LINE
  5
5336
330
1A
100
AcDbEntity
  8
150
  6
CONTINUOUS
 62
     7
100
AcDbLine
 10
254.9824600240164
 20
309.3603383218551
 30
0.0
 11
259.9824600240164
 21
309.3603383218551
 31
0.0
  0
LINE
  5
5337
330
1A
100
AcDbEntity
  8
150
  6
CONTINUOUS
 62
     7
100
AcDbLine
 10
255.2324600240164
 20
309.9603443218551
 30
0.0
 11
259.7324600240164
 21
309.9603443218553
 31
0.0
  0
LINE
  5
5338
330
1A
100
AcDbEntity
  8
0
  6
CONTINUOUS
 62
     2
100
AcDbLine
 10
265.1824720240164
 20
308.4603443218552
 30
0.0
 11
274.4824900240164
 21
308.4603443218552
 31
0.0
  0
LINE
  5
5339
330
1A
100
AcDbEntity
  8
0
  6
CONTINUOUS
 62
     2
100
AcDbLine
 10
265.1824720240164
 20
308.4603443218552
 30
0.0
 11
265.1824720240164
 21
308.8603383218551
 31
0.0
  0
LINE
  5
533A
330
1A
100
AcDbEntity
  8
150
  6
CONTINUOUS
 62
     7
100
AcDbLine
 10
261.9824600240164
 20
306.8603383218551
 30
0.0
 11
261.9824600240164
 21
308.4603443218552
 31
0.0
  0
ARC
  5
533B
330
1A
100
AcDbEntity
  8
0
  6
CONTINUOUS
 62
     2
100
AcDbCircle
 10
275.4824900240164
 20
314.4603443218552
 30
0.0
 40
1.0
100
AcDbArc
 50
90.0
 51
180.0000029999976
  0
LINE
  5
533E
330
1A
100
AcDbEntity
  8
0
  6
CONTINUOUS
 62
     2
100
AcDbLine
 10
313.6728290240164
 20
331.7741873218551
 30
0.0
 11
308.8389050240164
 21
330.2963123218551
 31
0.0
  0
LINE
  5
533F
330
1A
100
AcDbEntity
  8
0
  6
CONTINUOUS
 62
     2
100
AcDbLine
 10
310.8169630240164
 20
319.4603443218552
 30
0.0
 11
308.1672130240164
 21
329.0742963218551
 31
0.0
  0
LINE
  5
5340
330
1A
100
AcDbEntity
  8
170
  6
PHANTOM2
100
AcDbLine
 10
279.4824900240164
 20
318.4603443218552
 30
0.0
 11
279.4824900240164
 21
316.4603443218552
 31
0.0
  0
ARC
  5
5341
330
1A
100
AcDbEntity
  8
0
  6
CONTINUOUS
 62
     2
100
AcDbCircle
 10
301.4824900240164
 20
318.4603443218552
 30
0.0
 40
1.0
100
AcDbArc
 50
90.0
 51
180.0000029999976
  0
LINE
  5
5342
330
1A
100
AcDbEntity
  8
0
  6
CONTINUOUS
 62
     2
100
AcDbLine
 10
300.4824900240164
 20
318.4603443218552
 30
0.0
 11
300.4824900240164
 21
315.4603443218552
 31
0.0
  0
ARC
  5
5343
330
1A
100
AcDbEntity
  8
0
  6
CONTINUOUS
 62
     2
100
AcDbCircle
 10
309.1312640240165
 20
329.3400133218551
 30
0.0
 40
1.0
100
AcDbArc
 50
106.9999400000007
 51
195.4089659999993
  0
LINE
  5
5344
330
1A
100
AcDbEntity
  8
0
  6
CONTINUOUS
 62
     2
100
AcDbLine
 10
318.8405230240164
 20
319.4603443218552
 30
0.0
 11
314.9130320240164
 21
331.1367053218552
 31
0.0
  0
ARC
  5
5347
330
1A
100
AcDbEntity
  8
0
  6
CONTINUOUS
 62
     2
100
AcDbCircle
 10
313.9652180240165
 20
330.8178883218552
 30
0.0
 40
1.0
100
AcDbArc
 50
18.59107099999786
 51
106.9999469999999
  0
LINE
  5
534A
330
1A
100
AcDbEntity
  8
150
  6
PHANTOM2
100
AcDbLine
 10
397.9824900240164
 20
306.8603383218551
 30
0.0
 11
397.9824900240164
 21
230.4603443218552
 31
0.0
  0
LINE
  5
534B
330
1A
100
AcDbEntity
  8
150
  6
PHANTOM2
100
AcDbLine
 10
442.9824900240164
 20
306.8603383218551
 30
0.0
 11
442.9824900240164
 21
230.4603443218552
 31
0.0
  0
LINE
  5
534C
330
1A
100
AcDbEntity
  8
0
  6
CONTINUOUS
 62
     2
100
AcDbLine
 10
402.9824900240164
 20
305.8603383218551
 30
0.0
 11
402.9824900240164
 21
229.4603443218552
 31
0.0
  0
LINE
  5
534D
330
1A
100
AcDbEntity
  8
225
  6
CENTER
 62
     3
100
AcDbLine
 10
392.4824900240164
 20
274.9603443218552
 30
0.0
 11
392.4824900240164
 21
235.5603503218551
 31
0.0
  0
LINE
  5
534E
330
1A
100
AcDbEntity
  8
0
  6
CONTINUOUS
 62
     2
100
AcDbLine
 10
438.4825520240164
 20
212.4603443218552
 30
0.0
 11
404.4824900240164
 21
212.4603443218552
 31
0.0
  0
LINE
  5
534F
330
1A
100
AcDbEntity
  8
150
  6
PHANTOM2
100
AcDbLine
 10
397.9824900240164
 20
230.4603443218552
 30
0.0
 11
442.9824900240164
 21
230.4603443218552
 31
0.0
  0
LINE
  5
5350
330
1A
100
AcDbEntity
  8
150
  6
CONTINUOUS
 62
     7
100
AcDbLine
 10
379.4824900240164
 20
212.4603443218552
 30
0.0
 11
379.4824900240164
 21
194.4603443218552
 31
0.0
  0
LINE
  5
5351
330
1A
100
AcDbEntity
  8
0
  6
CONTINUOUS
 62
     2
100
AcDbLine
 10
391.6875080240164
 20
165.4603443218551
 30
0.0
 11
399.2774120240164
 21
165.4603443218551
 31
0.0
  0
ARC
  5
5352
330
1A
100
AcDbEntity
  8
170
  6
PHANTOM2
100
AcDbCircle
 10
395.4824900240164
 20
158.9603443218551
 30
0.0
 40
5.0
100
AcDbArc
 50
0.0
 51
180.0000050000005
  0
ARC
  5
5353
330
1A
100
AcDbEntity
  8
0
  6
CONTINUOUS
 62
     2
100
AcDbCircle
 10
391.6854320240164
 20
163.4603443218551
 30
0.0
 40
2.0
100
AcDbArc
 50
90.0
 51
178.6360679999999
  0
ARC
  5
5354
330
1A
100
AcDbEntity
  8
0
  6
CONTINUOUS
 62
     2
100
AcDbCircle
 10
399.2795490240164
 20
163.4603443218551
 30
0.0
 40
2.0
100
AcDbArc
 50
1.363928999999205
 51
89.99999700000067
  0
LINE
  5
5355
330
1A
100
AcDbEntity
  8
0
  6
CONTINUOUS
 62
     2
100
AcDbLine
 10
404.4824900240164
 20
229.4603443218552
 30
0.0
 11
404.4824900240164
 21
212.4603443218552
 31
0.0
  0
LINE
  5
5356
330
1A
100
AcDbEntity
  8
150
  6
CONTINUOUS
 62
     7
100
AcDbLine
 10
404.4824900240164
 20
212.4603443218552
 30
0.0
 11
379.4824900240164
 21
212.4603443218552
 31
0.0
  0
LINE
  5
5357
330
1A
100
AcDbEntity
  8
150
  6
DASHED
100
AcDbLine
 10
435.4825520240165
 20
205.4603443218552
 30
0.0
 11
435.4825520240165
 21
183.5018483218552
 31
0.0
  0
LINE
  5
5358
330
1A
100
AcDbEntity
  8
150
  6
DASHED
100
AcDbLine
 10
430.0240550240165
 20
205.4603443218552
 30
0.0
 11
430.0240550240165
 21
182.9603443218552
 31
0.0
  0
LINE
  5
5359
330
1A
100
AcDbEntity
  8
150
  6
DASHED
100
AcDbLine
 10
434.9410480240164
 20
205.4603443218552
 30
0.0
 11
434.9410480240164
 21
182.9603443218552
 31
0.0
  0
LINE
  5
535A
330
1A
100
AcDbEntity
  8
150
  6
DASHED
100
AcDbLine
 10
429.4825520240165
 20
205.4603443218552
 30
0.0
 11
429.4825520240165
 21
183.5018483218552
 31
0.0
  0
LINE
  5
535B
330
1A
100
AcDbEntity
  8
225
  6
CENTER
 62
     3
100
AcDbLine
 10
432.4825520240165
 20
217.4603443218552
 30
0.0
 11
432.4825520240165
 21
178.4603443218551
 31
0.0
  0
LINE
  5
535C
330
1A
100
AcDbEntity
  8
0
  6
CONTINUOUS
 62
     2
100
AcDbLine
 10
440.4825520240165
 20
191.4603443218552
 30
0.0
 11
440.4825520240165
 21
210.4603443218552
 31
0.0
  0
LINE
  5
535D
330
1A
100
AcDbEntity
  8
170
  6
PHANTOM2
100
AcDbLine
 10
447.9825520240165
 20
186.4603443218552
 30
0.0
 11
420.4825520240165
 21
186.4603443218552
 31
0.0
  0
LINE
  5
535E
330
1A
100
AcDbEntity
  8
0
  6
CONTINUOUS
 62
     2
100
AcDbLine
 10
440.4825520240165
 20
191.4603443218552
 30
0.0
 11
416.4824900240164
 21
191.4603443218552
 31
0.0
  0
LINE
  5
535F
330
1A
100
AcDbEntity
  8
170
  6
PHANTOM2
100
AcDbLine
 10
417.4825210240165
 20
191.4603443218552
 30
0.0
 11
417.4825210240165
 21
189.4603443218552
 31
0.0
  0
ARC
  5
5360
330
1A
100
AcDbEntity
  8
170
  6
PHANTOM2
100
AcDbCircle
 10
420.4825520240165
 20
189.4603443218552
 30
0.0
 40
3.0
100
AcDbArc
 50
179.9999899999989
 51
269.9999990000002
  0
LINE
  5
5361
330
1A
100
AcDbEntity
  8
150
  6
DASHED
100
AcDbLine
 10
434.9410480240164
 20
182.9603443218552
 30
0.0
 11
430.0240550240165
 21
182.9603443218552
 31
0.0
  0
LINE
  5
5362
330
1A
100
AcDbEntity
  8
150
  6
DASHED
100
AcDbLine
 10
435.4825520240165
 20
183.5018483218552
 30
0.0
 11
429.4825520240165
 21
183.5018483218552
 31
0.0
  0
LINE
  5
5363
330
1A
100
AcDbEntity
  8
150
  6
DASHED
100
AcDbLine
 10
429.4825520240165
 20
183.5018483218552
 30
0.0
 11
430.0240550240165
 21
182.9603443218552
 31
0.0
  0
LINE
  5
5364
330
1A
100
AcDbEntity
  8
150
  6
DASHED
100
AcDbLine
 10
435.4825520240165
 20
183.5018483218552
 30
0.0
 11
434.9410480240164
 21
182.9603443218552
 31
0.0
  0
LINE
  5
5365
330
1A
100
AcDbEntity
  8
170
  6
PHANTOM2
100
AcDbLine
 10
457.4825520240165
 20
191.4603443218552
 30
0.0
 11
457.4825520240165
 21
151.4603593218552
 31
0.0
  0
LINE
  5
5366
330
1A
100
AcDbEntity
  8
170
  6
PHANTOM2
100
AcDbLine
 10
452.4825520240165
 20
181.9603443218552
 30
0.0
 11
452.4825520240165
 21
154.4603443218551
 31
0.0
  0
ARC
  5
5367
330
1A
100
AcDbEntity
  8
170
  6
PHANTOM2
100
AcDbCircle
 10
455.4825520240164
 20
154.4603443218551
 30
0.0
 40
3.0
100
AcDbArc
 50
179.9999899999989
 51
269.9999990000002
  0
LINE
  5
5368
330
1A
100
AcDbEntity
  8
170
  6
PHANTOM2
100
AcDbLine
 10
457.4825520240165
 20
151.4603443218551
 30
0.0
 11
455.4825520240164
 21
151.4603443218551
 31
0.0
  0
ARC
  5
5369
330
1A
100
AcDbEntity
  8
170
  6
PHANTOM2
100
AcDbCircle
 10
447.9825520240165
 20
181.9603443218552
 30
0.0
 40
4.5
100
AcDbArc
 50
359.9999949999995
 51
89.99999700000067
  0
LINE
  5
536A
330
1A
100
AcDbEntity
  8
170
  6
PHANTOM2
100
AcDbLine
 10
457.4825520240165
 20
191.4603443218552
 30
0.0
 11
417.4825210240165
 21
191.4603443218552
 31
0.0
  0
ARC
  5
536B
330
1A
100
AcDbEntity
  8
150
  6
CONTINUOUS
 62
     7
100
AcDbCircle
 10
424.4825520240165
 20
211.4603443218552
 30
0.0
 40
1.0
100
AcDbArc
 50
0.0
 51
90.00000299999932
  0
LINE
  5
536C
330
1A
100
AcDbEntity
  8
150
  6
HIDDEN2
100
AcDbLine
 10
427.2325520240165
 20
207.9603443218552
 30
0.0
 11
427.3931350240165
 21
209.7960373218552
 31
0.0
  0
LINE
  5
536D
330
1A
100
AcDbEntity
  8
150
  6
HIDDEN2
100
AcDbLine
 10
437.7325520240165
 20
207.9603443218552
 30
0.0
 11
437.5719070240164
 21
209.7960373218552
 31
0.0
  0
LINE
  5
536E
330
1A
100
AcDbEntity
  8
150
  6
CONTINUOUS
 62
     7
100
AcDbLine
 10
425.4825520240165
 20
205.4603443218552
 30
0.0
 11
425.4825520240165
 21
211.4603443218552
 31
0.0
  0
LINE
  5
536F
330
1A
100
AcDbEntity
  8
150
  6
HIDDEN2
100
AcDbLine
 10
432.4825520240165
 20
206.4603443218552
 30
0.0
 11
433.2325520240165
 21
207.9603443218552
 31
0.0
  0
LINE
  5
5370
330
1A
100
AcDbEntity
  8
150
  6
HIDDEN2
100
AcDbLine
 10
438.9825520240164
 20
206.4603443218552
 30
0.0
 11
425.9825520240164
 21
206.4603443218552
 31
0.0
  0
LINE
  5
5371
330
1A
100
AcDbEntity
  8
150
  6
HIDDEN2
100
AcDbLine
 10
438.5825270240164
 20
207.9603443218552
 30
0.0
 11
426.3825150240164
 21
207.9603443218552
 31
0.0
  0
LINE
  5
5372
330
1A
100
AcDbEntity
  8
150
  6
CONTINUOUS
 62
     7
100
AcDbLine
 10
439.4825520240165
 20
205.4603443218552
 30
0.0
 11
425.4825520240165
 21
205.4603443218552
 31
0.0
  0
LINE
  5
5373
330
1A
100
AcDbEntity
  8
150
  6
HIDDEN2
100
AcDbLine
 10
431.7325520240165
 20
206.4603443218552
 30
0.0
 11
432.4825520240165
 21
207.9603443218552
 31
0.0
  0
LINE
  5
5374
330
1A
100
AcDbEntity
  8
150
  6
HIDDEN2
100
AcDbLine
 10
426.3825150240164
 20
206.4603443218552
 30
0.0
 11
426.3825150240164
 21
207.9603443218552
 31
0.0
  0
LINE
  5
5375
330
1A
100
AcDbEntity
  8
150
  6
HIDDEN2
100
AcDbLine
 10
425.9825520240164
 20
205.4603443218552
 30
0.0
 11
425.9825520240164
 21
206.4603443218552
 31
0.0
  0
LINE
  5
5376
330
1A
100
AcDbEntity
  8
150
  6
HIDDEN2
100
AcDbLine
 10
438.9825520240164
 20
205.4603443218552
 30
0.0
 11
438.9825520240164
 21
206.4603443218552
 31
0.0
  0
LINE
  5
5377
330
1A
100
AcDbEntity
  8
150
  6
HIDDEN2
100
AcDbLine
 10
438.5825270240164
 20
206.4603443218552
 30
0.0
 11
438.5825270240164
 21
207.9603443218552
 31
0.0
  0
ARC
  5
5378
330
1A
100
AcDbEntity
  8
150
  6
CONTINUOUS
 62
     7
100
AcDbCircle
 10
439.4825520240165
 20
204.4603443218552
 30
0.0
 40
1.0
100
AcDbArc
 50
0.0
 51
90.00000299999932
  0
ARC
  5
5379
330
1A
100
AcDbEntity
  8
150
  6
HIDDEN2
100
AcDbCircle
 10
432.4825160240163
 20
197.9603333218551
 30
0.0
 40
14.0
100
AcDbArc
 50
74.68154700000045
 51
105.3185250000008
  0
ARC
  5
537A
330
1A
100
AcDbEntity
  8
150
  6
HIDDEN2
100
AcDbCircle
 10
429.2859150240165
 20
209.6304373218552
 30
0.0
 40
1.9
100
AcDbArc
 50
105.3185250000008
 51
175.0000869999978
  0
ARC
  5
537B
330
1A
100
AcDbEntity
  8
150
  6
HIDDEN2
100
AcDbCircle
 10
435.6791650240165
 20
209.6304403218553
 30
0.0
 40
1.9
100
AcDbArc
 50
4.999959999998827
 51
74.68155000000085
  0
ARC
  5
537C
330
1A
100
AcDbEntity
  8
0
  6
CONTINUOUS
 62
     2
100
AcDbCircle
 10
438.4825520240164
 20
210.4603443218552
 30
0.0
 40
2.0
100
AcDbArc
 50
359.9999949999995
 51
89.99999700000067
  0
LINE
  5
537D
330
1A
100
AcDbEntity
  8
150
  6
PHANTOM2
100
AcDbLine
 10
440.9824900240164
 20
308.4603443218552
 30
0.0
 11
388.9825210240164
 21
308.4603443218552
 31
0.0
  0
ARC
  5
537F
330
1A
100
AcDbEntity
  8
150
  6
HIDDEN2
 62
     7
100
AcDbCircle
 10
392.4824920240165
 20
246.9603463218552
 30
0.0
 40
18.0
100
AcDbArc
 50
74.18850000000031
 51
105.8114289999986
  0
LINE
  5
5380
330
1A
100
AcDbEntity
  8
150
  6
HIDDEN2
 62
     7
100
AcDbLine
 10
401.9824900240164
 20
253.4603443218552
 30
0.0
 11
377.4824900240164
 21
253.4603443218552
 31
0.0
  0
LINE
  5
5381
330
1A
100
AcDbEntity
  8
150
  6
HIDDEN2
 62
     7
100
AcDbLine
 10
401.9824900240164
 20
250.8603383218551
 30
0.0
 11
377.4824900240164
 21
250.8603383218551
 31
0.0
  0
LINE
  5
5382
330
1A
100
AcDbEntity
  8
150
  6
HIDDEN2
 62
     7
100
AcDbLine
 10
401.4824900240164
 20
255.9603443218552
 30
0.0
 11
383.4824900240164
 21
255.9603443218552
 31
0.0
  0
LINE
  5
5383
330
1A
100
AcDbEntity
  8
150
  6
HIDDEN2
 62
     7
100
AcDbLine
 10
383.4824900240164
 20
257.5603503218551
 30
0.0
 11
401.4824900240164
 21
257.5603503218551
 31
0.0
  0
LINE
  5
5384
330
1A
100
AcDbEntity
  8
150
  6
HIDDEN2
 62
     7
100
AcDbLine
 10
384.7825090240165
 20
259.5603503218551
 30
0.0
 11
400.1825030240164
 21
259.5603503218551
 31
0.0
  0
LINE
  5
5385
330
1A
100
AcDbEntity
  8
150
  6
HIDDEN2
 62
     7
100
AcDbLine
 10
392.4824900240164
 20
257.5603503218551
 30
0.0
 11
391.4824900240164
 21
259.5603503218551
 31
0.0
  0
LINE
  5
5386
330
1A
100
AcDbEntity
  8
150
  6
HIDDEN2
 62
     7
100
AcDbLine
 10
388.4824900240164
 20
246.2368643218551
 30
0.0
 11
396.4824900240164
 21
246.2368643218551
 31
0.0
  0
LINE
  5
5387
330
1A
100
AcDbEntity
  8
150
  6
HIDDEN2
 62
     7
100
AcDbLine
 10
389.1589740240164
 20
245.5603503218551
 30
0.0
 11
395.8059770240164
 21
245.5603503218551
 31
0.0
  0
LINE
  5
5388
330
1A
100
AcDbEntity
  8
150
  6
HIDDEN2
 62
     7
100
AcDbLine
 10
389.1590040240164
 20
255.9603443218552
 30
0.0
 11
389.1589740240164
 21
245.5603503218551
 31
0.0
  0
LINE
  5
5389
330
1A
100
AcDbEntity
  8
150
  6
HIDDEN2
 62
     7
100
AcDbLine
 10
388.4824900240164
 20
255.9603443218552
 30
0.0
 11
388.4824900240164
 21
246.2368643218551
 31
0.0
  0
LINE
  5
538A
330
1A
100
AcDbEntity
  8
150
  6
HIDDEN2
 62
     7
100
AcDbLine
 10
388.4824900240164
 20
246.2368643218551
 30
0.0
 11
389.1589740240164
 21
245.5603503218551
 31
0.0
  0
LINE
  5
538B
330
1A
100
AcDbEntity
  8
150
  6
HIDDEN2
 62
     7
100
AcDbLine
 10
383.4824900240164
 20
255.9603443218552
 30
0.0
 11
383.4824900240164
 21
257.5603503218551
 31
0.0
  0
ARC
  5
538C
330
1A
100
AcDbEntity
  8
150
  6
HIDDEN2
 62
     7
100
AcDbCircle
 10
388.2864250240164
 20
261.7776703218551
 30
0.0
 40
2.6
100
AcDbArc
 50
105.8114240000005
 51
174.9999579999979
  0
LINE
  5
538D
330
1A
100
AcDbEntity
  8
150
  6
HIDDEN2
 62
     7
100
AcDbLine
 10
385.4824900240164
 20
259.5603503218551
 30
0.0
 11
385.6963270240164
 21
262.0042593218552
 31
0.0
  0
LINE
  5
538E
330
1A
100
AcDbEntity
  8
150
  6
HIDDEN2
 62
     7
100
AcDbLine
 10
384.7825090240165
 20
257.5603503218551
 30
0.0
 11
384.7825090240165
 21
259.5603503218551
 31
0.0
  0
LINE
  5
538F
330
1A
100
AcDbEntity
  8
150
  6
HIDDEN2
 62
     7
100
AcDbLine
 10
395.8059770240164
 20
255.9603443218552
 30
0.0
 11
395.8059770240164
 21
245.5603503218551
 31
0.0
  0
LINE
  5
5390
330
1A
100
AcDbEntity
  8
150
  6
HIDDEN2
 62
     7
100
AcDbLine
 10
396.4824900240164
 20
255.9603443218552
 30
0.0
 11
396.4824900240164
 21
246.2368643218551
 31
0.0
  0
LINE
  5
5391
330
1A
100
AcDbEntity
  8
150
  6
HIDDEN2
 62
     7
100
AcDbLine
 10
396.4824900240164
 20
246.2368643218551
 30
0.0
 11
395.8059770240164
 21
245.5603503218551
 31
0.0
  0
LINE
  5
5392
330
1A
100
AcDbEntity
  8
150
  6
HIDDEN2
 62
     7
100
AcDbLine
 10
401.9824900240164
 20
253.4603443218552
 30
0.0
 11
401.9824900240164
 21
250.8603383218551
 31
0.0
  0
ARC
  5
5394
330
1A
100
AcDbEntity
  8
150
  6
HIDDEN2
 62
     7
100
AcDbCircle
 10
396.6785760240164
 20
261.7776663218551
 30
0.0
 40
2.6
100
AcDbArc
 50
4.999968000000138
 51
74.18850000000031
  0
LINE
  5
5395
330
1A
100
AcDbEntity
  8
150
  6
HIDDEN2
 62
     7
100
AcDbLine
 10
399.4824900240164
 20
259.5603503218551
 30
0.0
 11
399.2686840240165
 21
262.0042593218552
 31
0.0
  0
LINE
  5
5396
330
1A
100
AcDbEntity
  8
150
  6
HIDDEN2
 62
     7
100
AcDbLine
 10
393.4824900240164
 20
257.5603503218551
 30
0.0
 11
392.4824900240164
 21
259.5603503218551
 31
0.0
  0
LINE
  5
5397
330
1A
100
AcDbEntity
  8
150
  6
HIDDEN2
 62
     7
100
AcDbLine
 10
401.4824900240164
 20
255.9603443218552
 30
0.0
 11
401.4824900240164
 21
257.5603503218551
 31
0.0
  0
LINE
  5
5398
330
1A
100
AcDbEntity
  8
150
  6
HIDDEN2
 62
     7
100
AcDbLine
 10
400.1825030240164
 20
257.5603503218551
 30
0.0
 11
400.1825030240164
 21
259.5603503218551
 31
0.0
  0
ARC
  5
5399
330
1A
100
AcDbEntity
  8
0
  6
CONTINUOUS
 62
     2
100
AcDbCircle
 10
349.4824900240164
 20
318.4603443218552
 30
0.0
 40
1.0
100
AcDbArc
 50
0.0
 51
90.00000299999932
  0
LINE
  5
539A
330
1A
100
AcDbEntity
  8
0
  6
CONTINUOUS
 62
     2
100
AcDbLine
 10
350.4824900240164
 20
318.4603443218552
 30
0.0
 11
350.4824900240164
 21
315.4603443218552
 31
0.0
  0
LINE
  5
539B
330
1A
100
AcDbEntity
  8
170
  6
PHANTOM2
100
AcDbLine
 10
371.4824900240164
 20
318.4603443218552
 30
0.0
 11
371.4824900240164
 21
316.4603443218552
 31
0.0
  0
LINE
  5
539C
330
1A
100
AcDbEntity
  8
0
  6
CONTINUOUS
 62
     2
100
AcDbLine
 10
376.4824900240164
 20
314.4603443218552
 30
0.0
 11
376.4824900240164
 21
308.4603443218552
 31
0.0
  0
LINE
  5
539D
330
1A
100
AcDbEntity
  8
0
  6
CONTINUOUS
 62
     2
100
AcDbLine
 10
401.9824900240164
 20
306.8603383218551
 30
0.0
 11
388.9825210240165
 21
306.8603383218551
 31
0.0
  0
LINE
  5
539E
330
1A
100
AcDbEntity
  8
0
  6
CONTINUOUS
 62
     2
100
AcDbLine
 10
388.9825210240165
 20
308.4603443218552
 30
0.0
 11
376.4824900240164
 21
308.4603443218552
 31
0.0
  0
LINE
  5
539F
330
1A
100
AcDbEntity
  8
0
  6
CONTINUOUS
 62
     2
100
AcDbLine
 10
388.9825210240165
 20
306.8603383218551
 30
0.0
 11
388.9825210240165
 21
308.4603443218552
 31
0.0
  0
LINE
  5
53A0
330
1A
100
AcDbEntity
  8
150
  6
PHANTOM2
100
AcDbLine
 10
402.5324780240164
 20
310.9603443218552
 30
0.0
 11
393.4325030240164
 21
310.9603443218552
 31
0.0
  0
LINE
  5
53A1
330
1A
100
AcDbEntity
  8
150
  6
PHANTOM2
100
AcDbLine
 10
402.2324900240164
 20
309.7603323218552
 30
0.0
 11
393.7324900240164
 21
309.7603323218552
 31
0.0
  0
ARC
  5
53A2
330
1A
100
AcDbEntity
  8
150
  6
PHANTOM2
100
AcDbCircle
 10
393.4325030240164
 20
309.7603323218552
 30
0.0
 40
1.199999999999999
100
AcDbArc
 50
90.0
 51
180.0000029999976
  0
LINE
  5
53A3
330
1A
100
AcDbEntity
  8
150
  6
PHANTOM2
100
AcDbLine
 10
392.2324900240164
 20
308.4603443218552
 30
0.0
 11
392.2324900240164
 21
309.7603323218552
 31
0.0
  0
LINE
  5
53A4
330
1A
100
AcDbEntity
  8
150
  6
PHANTOM2
100
AcDbLine
 10
393.7324900240164
 20
308.4603443218552
 30
0.0
 11
393.7324900240164
 21
309.7603323218552
 31
0.0
  0
ARC
  5
53A5
330
1A
100
AcDbEntity
  8
150
  6
PHANTOM2
100
AcDbCircle
 10
402.5324780240164
 20
309.7603323218552
 30
0.0
 40
1.199999999999999
100
AcDbArc
 50
0.0
 51
90.00000299999932
  0
LINE
  5
53A6
330
1A
100
AcDbEntity
  8
150
  6
PHANTOM2
100
AcDbLine
 10
403.7324900240164
 20
308.4603443218552
 30
0.0
 11
403.7324900240164
 21
309.7603323218552
 31
0.0
  0
LINE
  5
53A7
330
1A
100
AcDbEntity
  8
150
  6
PHANTOM2
100
AcDbLine
 10
402.2324900240164
 20
308.4603443218552
 30
0.0
 11
402.2324900240164
 21
309.7603323218552
 31
0.0
  0
ARC
  5
53A8
330
1A
100
AcDbEntity
  8
0
  6
CONTINUOUS
 62
     2
100
AcDbCircle
 10
401.9824900240164
 20
305.8603383218551
 30
0.0
 40
1.0
100
AcDbArc
 50
0.0
 51
90.00000299999932
  0
ARC
  5
53A9
330
1A
100
AcDbEntity
  8
0
  6
CONTINUOUS
 62
     2
100
AcDbCircle
 10
375.4824900240164
 20
314.4603443218552
 30
0.0
 40
1.0
100
AcDbArc
 50
0.0
 51
90.00000299999932
  0
ARC
  5
53AB
330
1A
100
AcDbEntity
  8
150
  6
PHANTOM2
100
AcDbCircle
 10
440.9824900240164
 20
306.4603443218552
 30
0.0
 40
2.0
100
AcDbArc
 50
0.0
 51
90.00000299999932
  0
LINE
  5
53AE
330
1A
100
AcDbEntity
  8
210
  6
CONTINUOUS
 62
     4
100
AcDbLine
 10
210.4824600240164
 20
539.0585813218551
 30
0.0
 11
212.4544870240165
 21
538.7252483218551
 31
0.0
  0
LINE
  5
53AF
330
1A
100
AcDbEntity
  8
210
  6
CONTINUOUS
 62
     4
100
AcDbLine
 10
210.4824600240164
 20
539.0585813218551
 30
0.0
 11
212.4544870240165
 21
539.3919143218552
 31
0.0
  0
LINE
  5
53B0
330
1A
100
AcDbEntity
  8
210
  6
CONTINUOUS
 62
     4
100
AcDbLine
 10
210.4824600240164
 20
539.0585813218551
 30
0.0
 11
440.4825060240165
 21
539.0585813218551
 31
0.0
  0
LINE
  5
53B1
330
1A
100
AcDbEntity
  8
210
  6
CONTINUOUS
 62
     4
100
AcDbLine
 10
423.2953410240164
 20
431.5585503218551
 30
0.0
 11
169.4199290240164
 21
431.5585503218551
 31
0.0
  0
ARC
  5
53B2
330
1A
100
AcDbEntity
  8
0
  6
CONTINUOUS
 62
     2
100
AcDbCircle
 10
211.4824600240164
 20
484.5585493218552
 30
0.0
 40
1.0
100
AcDbArc
 50
180.0000050000005
 51
270.0000009999997
  0
ARC
  5
53B3
330
1A
100
AcDbEntity
  8
0
  6
CONTINUOUS
 62
     2
100
AcDbCircle
 10
211.4824600240164
 20
468.5585493218552
 30
0.0
 40
1.0
100
AcDbArc
 50
90.0
 51
180.0000029999976
  0
ARC
  5
53B4
330
1A
100
AcDbEntity
  8
0
  6
CONTINUOUS
 62
     2
100
AcDbCircle
 10
214.4824600240164
 20
413.0585493218552
 30
0.0
 40
4.0
100
AcDbArc
 50
180.0000050000005
 51
270.0000009999997
  0
LINE
  5
53B5
330
1A
100
AcDbEntity
  8
225
  6
CENTER
 62
     3
100
AcDbLine
 10
201.4824600240164
 20
454.0585493218552
 30
0.0
 11
449.4824900240164
 21
454.0585493218552
 31
0.0
  0
LINE
  5
53B6
330
1A
100
AcDbEntity
  8
225
  6
CENTER
 62
     3
100
AcDbLine
 10
227.4824600240164
 20
476.5585493218552
 30
0.0
 11
209.4824600240164
 21
476.5585493218552
 31
0.0
  0
ARC
  5
53B7
330
1A
100
AcDbEntity
  8
0
  6
CONTINUOUS
 62
     2
100
AcDbCircle
 10
214.4824600240164
 20
495.0585493218552
 30
0.0
 40
4.0
100
AcDbArc
 50
90.0
 51
180.0000029999976
  0
LINE
  5
53B8
330
1A
100
AcDbEntity
  8
210
  6
CONTINUOUS
 62
     4
100
AcDbLine
 10
210.4824600240164
 20
496.0585503218551
 30
0.0
 11
210.4824600240164
 21
543.1210813218552
 31
0.0
  0
LINE
  5
53B9
330
1A
100
AcDbEntity
  8
0
  6
CONTINUOUS
 62
     2
100
AcDbLine
 10
210.4824600240164
 20
413.0585493218552
 30
0.0
 11
210.4824600240164
 21
495.0585493218552
 31
0.0
  0
LINE
  5
53BA
330
1A
100
AcDbEntity
  8
210
  6
CONTINUOUS
 62
     4
100
AcDbLine
 10
173.4824290240164
 20
476.5585503218551
 30
0.0
 11
173.1490960240164
 21
474.5865243218552
 31
0.0
  0
LINE
  5
53BB
330
1A
100
AcDbEntity
  8
210
  6
CONTINUOUS
 62
     4
100
AcDbLine
 10
173.4824290240164
 20
476.5585503218551
 30
0.0
 11
173.8157630240164
 21
474.5865243218552
 31
0.0
  0
LINE
  5
53BC
330
1A
100
AcDbEntity
  8
210
  6
CONTINUOUS
 62
     4
100
AcDbLine
 10
173.4824290240164
 20
476.5585503218551
 30
0.0
 11
173.4824290240164
 21
431.5585503218551
 31
0.0
  0
TEXT
  5
53BD
330
1A
100
AcDbEntity
  8
210
  6
CONTINUOUS
 62
     4
100
AcDbText
 10
170.3574300240164
 20
449.4335503218551
 30
0.0
 40
5.0
  1
45
 50
90.00000299999932
100
AcDbText
  0
LINE
  5
53BE
330
1A
100
AcDbEntity
  8
210
  6
CONTINUOUS
 62
     4
100
AcDbLine
 10
173.4824290240164
 20
431.5585503218551
 30
0.0
 11
173.1490960240164
 21
433.5305773218551
 31
0.0
  0
LINE
  5
53BF
330
1A
100
AcDbEntity
  8
210
  6
CONTINUOUS
 62
     4
100
AcDbLine
 10
173.4824290240164
 20
431.5585503218551
 30
0.0
 11
173.8157630240164
 21
433.5305773218551
 31
0.0
  0
LINE
  5
53C2
330
1A
100
AcDbEntity
  8
210
  6
CONTINUOUS
 62
     4
100
AcDbLine
 10
209.2952650240164
 20
476.5585503218551
 30
0.0
 11
169.4199290240164
 21
476.5585503218551
 31
0.0
  0
LINE
  5
53C4
330
1A
100
AcDbEntity
  8
210
  6
CONTINUOUS
 62
     4
100
AcDbLine
 10
432.4825670240165
 20
440.7457453218551
 30
0.0
 11
432.4825670240165
 21
523.1210813218551
 31
0.0
  0
LINE
  5
53C5
330
1A
100
AcDbEntity
  8
210
  6
CONTINUOUS
 62
     4
100
AcDbLine
 10
218.4824600240164
 20
485.7457153218551
 30
0.0
 11
218.4824600240164
 21
523.1210813218551
 31
0.0
  0
LINE
  5
53C6
330
1A
100
AcDbEntity
  8
210
  6
CONTINUOUS
 62
     4
100
AcDbLine
 10
440.4825060240165
 20
496.0585503218551
 30
0.0
 11
440.4825060240165
 21
543.1210813218552
 31
0.0
  0
LINE
  5
53C7
330
1A
100
AcDbEntity
  8
210
  6
CONTINUOUS
 62
     4
100
AcDbLine
 10
325.4825060240164
 20
389.0585813218551
 30
0.0
 11
392.4825060240164
 21
389.0585813218551
 31
0.0
  0
LINE
  5
53C8
330
1A
100
AcDbEntity
  8
210
  6
CONTINUOUS
 62
     4
100
AcDbLine
 10
218.4824600240164
 20
519.0585813218551
 30
0.0
 11
432.4825670240165
 21
519.0585813218551
 31
0.0
  0
LINE
  5
53CA
330
1A
100
AcDbEntity
  8
0
  6
CONTINUOUS
 62
     2
100
AcDbLine
 10
214.4824600240164
 20
409.0585493218553
 30
0.0
 11
436.4824900240164
 21
409.0585493218553
 31
0.0
  0
LINE
  5
53CB
330
1A
100
AcDbEntity
  8
0
  6
CONTINUOUS
 62
     2
100
AcDbLine
 10
214.4824600240164
 20
499.0585493218552
 30
0.0
 11
436.4824900240164
 21
499.0585493218552
 31
0.0
  0
LINE
  5
53CC
330
1A
100
AcDbEntity
  8
0
  6
CONTINUOUS
 62
     2
100
AcDbLine
 10
301.4824900240164
 20
443.0585493218552
 30
0.0
 11
349.4824900240164
 21
443.0585493218552
 31
0.0
  0
LINE
  5
53CD
330
1A
100
AcDbEntity
  8
0
  6
CONTINUOUS
 62
     2
100
AcDbLine
 10
301.4824900240164
 20
465.0585493218552
 30
0.0
 11
349.4824900240164
 21
465.0585493218552
 31
0.0
  0
LINE
  5
53CE
330
1A
100
AcDbEntity
  8
0
  6
CONTINUOUS
 62
     2
100
AcDbLine
 10
245.9824600240164
 20
498.5585493218552
 30
0.0
 11
245.9824600240164
 21
409.5585493218552
 31
0.0
  0
LINE
  5
53CF
330
1A
100
AcDbEntity
  8
225
  6
CENTER
 62
     3
100
AcDbLine
 10
325.4824900240164
 20
399.0585493218552
 30
0.0
 11
325.4824900240164
 21
509.0585493218553
 31
0.0
  0
LINE
  5
53D0
330
1A
100
AcDbEntity
  8
225
  6
CENTER
 62
     3
100
AcDbLine
 10
258.4824600240164
 20
414.5585493218552
 30
0.0
 11
258.4824600240164
 21
433.5585493218552
 31
0.0
  0
CIRCLE
  5
53D1
330
1A
100
AcDbEntity
  8
150
  6
HIDDEN2
 62
     7
100
AcDbCircle
 10
258.4824100240164
 20
424.0584733218552
 30
0.0
 40
5.25
  0
CIRCLE
  5
53D2
330
1A
100
AcDbEntity
  8
150
  6
HIDDEN2
 62
     7
100
AcDbCircle
 10
258.4824100240164
 20
424.0584733218552
 30
0.0
 40
6.5
  0
LINE
  5
53D3
330
1A
100
AcDbEntity
  8
0
  6
CONTINUOUS
 62
     2
100
AcDbLine
 10
274.4824900240164
 20
409.0585493218553
 30
0.0
 11
274.4824900240164
 21
499.0585493218553
 31
0.0
  0
LINE
  5
53D4
330
1A
100
AcDbEntity
  8
150
  6
HIDDEN2
 62
     7
100
AcDbLine
 10
247.9824600240164
 20
497.0585493218552
 30
0.0
 11
247.9824600240164
 21
411.0585493218552
 31
0.0
  0
ARC
  5
53D5
330
1A
100
AcDbEntity
  8
150
  6
CONTINUOUS
100
AcDbCircle
 10
261.4824600240164
 20
427.0585493218552
 30
0.0
 40
4.0
100
AcDbArc
 50
0.0
 51
87.13384300000054
  0
LINE
  5
53DD
330
1A
100
AcDbEntity
  8
0
  6
CONTINUOUS
 62
     2
100
AcDbLine
 10
241.4824600240164
 20
416.0585493218552
 30
0.0
 11
245.9824600240164
 21
416.0585493218552
 31
0.0
  0
LINE
  5
53DE
330
1A
100
AcDbEntity
  8
0
  6
CONTINUOUS
 62
     2
100
AcDbLine
 10
241.4824600240164
 20
419.0585493218552
 30
0.0
 11
245.9824600240164
 21
419.0585493218552
 31
0.0
  0
LINE
  5
53DF
330
1A
100
AcDbEntity
  8
0
  6
CONTINUOUS
 62
     2
100
AcDbLine
 10
241.4824600240164
 20
419.0585493218552
 30
0.0
 11
241.4824600240164
 21
416.0585493218552
 31
0.0
  0
LINE
  5
53E0
330
1A
100
AcDbEntity
  8
225
  6
CENTER
 62
     3
100
AcDbLine
 10
252.8324660240164
 20
412.3585373218552
 30
0.0
 11
262.1324540240164
 21
412.3585373218552
 31
0.0
  0
LINE
  5
53E1
330
1A
100
AcDbEntity
  8
225
  6
CENTER
 62
     3
100
AcDbLine
 10
248.9824900240164
 20
424.0585493218552
 30
0.0
 11
267.9824600240164
 21
424.0585493218552
 31
0.0
  0
LINE
  5
53E2
330
1A
100
AcDbEntity
  8
150
  6
CONTINUOUS
100
AcDbLine
 10
252.9824900240164
 20
409.5585493218552
 30
0.0
 11
261.6824720240164
 21
409.5585493218552
 31
0.0
  0
LINE
  5
53E3
330
1A
100
AcDbEntity
  8
150
  6
HIDDEN2
 62
     7
100
AcDbLine
 10
260.0734630240164
 20
424.5888843218551
 30
0.0
 11
261.2401810240164
 21
425.7556013218552
 31
0.0
  0
LINE
  5
53E4
330
1A
100
AcDbEntity
  8
150
  6
HIDDEN2
 62
     7
100
AcDbLine
 10
261.2401810240164
 20
422.3614973218552
 30
0.0
 11
260.0734630240164
 21
423.5282153218552
 31
0.0
  0
LINE
  5
53E5
330
1A
100
AcDbEntity
  8
150
  6
HIDDEN2
 62
     7
100
AcDbLine
 10
260.1795120240165
 20
421.3008283218552
 30
0.0
 11
261.2401810240164
 21
422.3614973218552
 31
0.0
  0
LINE
  5
53E6
330
1A
100
AcDbEntity
  8
150
  6
HIDDEN2
 62
     7
100
AcDbLine
 10
261.2401810240164
 20
425.7556013218552
 30
0.0
 11
260.1795120240165
 21
426.8162703218552
 31
0.0
  0
LINE
  5
53E7
330
1A
100
AcDbEntity
  8
150
  6
HIDDEN2
 62
     7
100
AcDbLine
 10
247.9824600240164
 20
417.0585493218552
 30
0.0
 11
261.4824600240164
 21
417.0585493218552
 31
0.0
  0
LINE
  5
53E8
330
1A
100
AcDbEntity
  8
225
  6
CENTER
 62
     3
100
AcDbLine
 10
257.4824600240164
 20
407.7085133218552
 30
0.0
 11
257.4824600240164
 21
417.008531321855
 31
0.0
  0
LINE
  5
53E9
330
1A
100
AcDbEntity
  8
150
  6
CONTINUOUS
 62
     7
100
AcDbLine
 10
248.9824900240164
 20
410.0585493218552
 30
0.0
 11
252.9824900240164
 21
410.0585493218552
 31
0.0
  0
LINE
  5
53EA
330
1A
100
AcDbEntity
  8
0
  6
CONTINUOUS
 62
     2
100
AcDbLine
 10
245.9824600240164
 20
409.5585493218552
 30
0.0
 11
252.9824900240164
 21
409.5585493218552
 31
0.0
  0
ARC
  5
53EB
330
1A
100
AcDbEntity
  8
150
  6
CONTINUOUS
 62
     7
100
AcDbCircle
 10
248.9824900240164
 20
411.0585493218552
 30
0.0
 40
1.0
100
AcDbArc
 50
180.0
 51
270.0000029999993
  0
LINE
  5
53EC
330
1A
100
AcDbEntity
  8
150
  6
CONTINUOUS
 62
     7
100
AcDbLine
 10
252.9824900240164
 20
410.0585493218552
 30
0.0
 11
252.9824900240164
 21
409.5585493218552
 31
0.0
  0
ARC
  5
53ED
330
1A
100
AcDbEntity
  8
150
  6
CONTINUOUS
100
AcDbCircle
 10
258.4017440240164
 20
412.3585393218552
 30
0.0
 40
0.325
100
AcDbArc
 50
134.9999859999998
 51
224.9999880000016
  0
ARC
  5
53EE
330
1A
100
AcDbEntity
  8
150
  6
CONTINUOUS
100
AcDbCircle
 10
257.4824710240164
 20
411.4392653218551
 30
0.0
 40
0.325
100
AcDbArc
 50
44.99998300000108
 51
134.9999859999998
  0
ARC
  5
53EF
330
1A
100
AcDbEntity
  8
150
  6
CONTINUOUS
100
AcDbCircle
 10
256.5631980240164
 20
412.3585393218552
 30
0.0
 40
0.325
100
AcDbArc
 50
314.9999840000002
 51
44.99999300000106
  0
ARC
  5
53F0
330
1A
100
AcDbEntity
  8
150
  6
CONTINUOUS
100
AcDbCircle
 10
257.4824710240164
 20
413.2778123218551
 30
0.0
 40
0.325
100
AcDbArc
 50
224.9999880000016
 51
314.9999840000002
  0
LINE
  5
53F1
330
1A
100
AcDbEntity
  8
150
  6
CONTINUOUS
100
AcDbLine
 10
258.1719130240164
 20
412.5883653218552
 30
0.0
 11
258.6315080240164
 21
413.0479603218552
 31
0.0
  0
LINE
  5
53F2
330
1A
100
AcDbEntity
  8
150
  6
CONTINUOUS
100
AcDbLine
 10
258.6315080240164
 20
411.6691153218551
 30
0.0
 11
258.1719130240164
 21
412.1287093218552
 31
0.0
  0
LINE
  5
53F3
330
1A
100
AcDbEntity
  8
150
  6
CONTINUOUS
100
AcDbLine
 10
258.1718830240165
 20
411.2094893218552
 30
0.0
 11
258.6315080240164
 21
411.6691153218551
 31
0.0
  0
LINE
  5
53F4
330
1A
100
AcDbEntity
  8
150
  6
CONTINUOUS
100
AcDbLine
 10
257.7122880240164
 20
411.669084321855
 30
0.0
 11
258.1718830240165
 21
411.2094893218552
 31
0.0
  0
LINE
  5
53F5
330
1A
100
AcDbEntity
  8
150
  6
CONTINUOUS
100
AcDbLine
 10
256.7930370240164
 20
411.2094893218552
 30
0.0
 11
257.2526320240164
 21
411.669084321855
 31
0.0
  0
LINE
  5
53F6
330
1A
100
AcDbEntity
  8
150
  6
CONTINUOUS
100
AcDbLine
 10
256.3334120240164
 20
411.6691153218551
 30
0.0
 11
256.7930370240164
 21
411.2094893218552
 31
0.0
  0
LINE
  5
53F7
330
1A
100
AcDbEntity
  8
150
  6
CONTINUOUS
100
AcDbLine
 10
256.7930070240164
 20
412.1287093218552
 30
0.0
 11
256.3334120240164
 21
411.6691153218551
 31
0.0
  0
LINE
  5
53F8
330
1A
100
AcDbEntity
  8
150
  6
CONTINUOUS
100
AcDbLine
 10
256.3334120240164
 20
413.0479603218552
 30
0.0
 11
256.7930070240164
 21
412.5883653218552
 31
0.0
  0
LINE
  5
53F9
330
1A
100
AcDbEntity
  8
150
  6
CONTINUOUS
100
AcDbLine
 10
256.7930370240164
 20
413.5075853218552
 30
0.0
 11
256.3334120240164
 21
413.0479603218552
 31
0.0
  0
LINE
  5
53FA
330
1A
100
AcDbEntity
  8
150
  6
CONTINUOUS
100
AcDbLine
 10
257.2526320240164
 20
413.0479903218551
 30
0.0
 11
256.7930370240164
 21
413.5075853218552
 31
0.0
  0
LINE
  5
53FB
330
1A
100
AcDbEntity
  8
150
  6
CONTINUOUS
100
AcDbLine
 10
258.1718830240165
 20
413.5075853218552
 30
0.0
 11
257.7122880240164
 21
413.0479903218551
 31
0.0
  0
LINE
  5
53FC
330
1A
100
AcDbEntity
  8
150
  6
CONTINUOUS
100
AcDbLine
 10
258.6315080240164
 20
413.0479603218552
 30
0.0
 11
258.1718830240165
 21
413.5075853218552
 31
0.0
  0
CIRCLE
  5
53FD
330
1A
100
AcDbEntity
  8
150
  6
CONTINUOUS
100
AcDbCircle
 10
257.4824710240164
 20
412.3585393218552
 30
0.0
 40
2.25
  0
LINE
  5
53FE
330
1A
100
AcDbEntity
  8
0
  6
CONTINUOUS
 62
     2
100
AcDbLine
 10
252.9824900240164
 20
409.5585493218552
 30
0.0
 11
252.9824900240164
 21
409.0585493218553
 31
0.0
  0
ARC
  5
53FF
330
1A
100
AcDbEntity
  8
150
  6
HIDDEN2
 62
     7
100
AcDbCircle
 10
260.6037310240164
 20
424.0584713218551
 30
0.0
 40
0.75
100
AcDbArc
 50
134.9999859999998
 51
224.9999880000016
  0
ARC
  5
5400
330
1A
100
AcDbEntity
  8
150
  6
HIDDEN2
 62
     7
100
AcDbCircle
 10
258.4824100240164
 20
421.9371513218552
 30
0.0
 40
0.75
100
AcDbArc
 50
44.99998300000108
 51
134.9999859999998
  0
ARC
  5
5401
330
1A
100
AcDbEntity
  8
150
  6
HIDDEN2
 62
     7
100
AcDbCircle
 10
256.3610890240164
 20
424.0584743218553
 30
0.0
 40
0.75
100
AcDbArc
 50
314.9999840000002
 51
44.99999300000106
  0
ARC
  5
5402
330
1A
100
AcDbEntity
  8
150
  6
HIDDEN2
 62
     7
100
AcDbCircle
 10
258.4824100240164
 20
426.1797933218551
 30
0.0
 40
0.75
100
AcDbArc
 50
224.9999880000016
 51
314.9999840000002
  0
LINE
  5
5403
330
1A
100
AcDbEntity
  8
150
  6
HIDDEN2
 62
     7
100
AcDbLine
 10
259.0127940240164
 20
422.4675463218552
 30
0.0
 11
260.1795120240165
 21
421.3008283218552
 31
0.0
  0
LINE
  5
5404
330
1A
100
AcDbEntity
  8
150
  6
HIDDEN2
 62
     7
100
AcDbLine
 10
256.7854080240164
 20
421.3008283218552
 30
0.0
 11
257.9521250240164
 21
422.4675463218552
 31
0.0
  0
LINE
  5
5405
330
1A
100
AcDbEntity
  8
150
  6
HIDDEN2
 62
     7
100
AcDbLine
 10
255.7247700240164
 20
422.3614973218552
 30
0.0
 11
256.7854080240164
 21
421.3008283218552
 31
0.0
  0
LINE
  5
5406
330
1A
100
AcDbEntity
  8
150
  6
HIDDEN2
 62
     7
100
AcDbLine
 10
256.8914870240165
 20
423.5282153218552
 30
0.0
 11
255.7247700240164
 21
422.3614973218552
 31
0.0
  0
LINE
  5
5407
330
1A
100
AcDbEntity
  8
150
  6
HIDDEN2
 62
     7
100
AcDbLine
 10
255.7247700240164
 20
425.7556013218552
 30
0.0
 11
256.8914870240165
 21
424.5888843218551
 31
0.0
  0
LINE
  5
5408
330
1A
100
AcDbEntity
  8
150
  6
HIDDEN2
 62
     7
100
AcDbLine
 10
256.7854080240164
 20
426.8162703218552
 30
0.0
 11
255.7247700240164
 21
425.7556013218552
 31
0.0
  0
LINE
  5
5409
330
1A
100
AcDbEntity
  8
150
  6
HIDDEN2
 62
     7
100
AcDbLine
 10
257.9521250240164
 20
425.6495533218551
 30
0.0
 11
256.7854080240164
 21
426.8162703218552
 31
0.0
  0
LINE
  5
540A
330
1A
100
AcDbEntity
  8
150
  6
HIDDEN2
 62
     7
100
AcDbLine
 10
260.1795120240165
 20
426.8162703218552
 30
0.0
 11
259.0127940240164
 21
425.6495533218551
 31
0.0
  0
LINE
  5
540B
330
1A
100
AcDbEntity
  8
150
  6
CONTINUOUS
100
AcDbLine
 10
261.6824720240164
 20
409.5585493218552
 30
0.0
 11
261.6824720240164
 21
417.0635543218552
 31
0.0
  0
ARC
  5
540C
330
1A
100
AcDbEntity
  8
150
  6
CONTINUOUS
100
AcDbCircle
 10
261.4824600240164
 20
421.0585493218552
 30
0.0
 40
4.0
100
AcDbArc
 50
272.8661670000001
 51
0.0000100000010064
  0
LINE
  5
540D
330
1A
100
AcDbEntity
  8
150
  6
CONTINUOUS
100
AcDbLine
 10
265.4824600240164
 20
427.0585493218552
 30
0.0
 11
265.4824600240164
 21
421.0585493218552
 31
0.0
  0
TEXT
  5
540F
330
1A
100
AcDbEntity
  8
230
 62
     6
100
AcDbText
 10
318.1489180240165
 20
337.722216321855
 30
0.0
 40
5.0
  1
ASL
100
AcDbText
  0
LINE
  5
5410
330
1A
100
AcDbEntity
  8
210
  6
CONTINUOUS
 62
     4
100
AcDbLine
 10
325.4825060240164
 20
389.0585813218551
 30
0.0
 11
327.4545320240164
 21
388.7252483218551
 31
0.0
  0
LINE
  5
5411
330
1A
100
AcDbEntity
  8
210
  6
CONTINUOUS
 62
     4
100
AcDbLine
 10
325.4825060240164
 20
389.0585813218551
 30
0.0
 11
327.4545320240164
 21
389.3919143218552
 31
0.0
  0
LINE
  5
5412
330
1A
100
AcDbEntity
  8
210
  6
CONTINUOUS
 62
     4
100
AcDbLine
 10
325.4825060240164
 20
398.871356321855
 30
0.0
 11
325.4825060240164
 21
384.9960813218551
 31
0.0
  0
CIRCLE
  5
5413
330
1A
100
AcDbEntity
  8
150
  6
CENTER
100
AcDbCircle
 10
218.4824780240164
 20
476.5585643218551
 30
0.0
 40
5.25
  0
CIRCLE
  5
5414
330
1A
100
AcDbEntity
  8
150
  6
CENTER
100
AcDbCircle
 10
218.4824780240164
 20
476.5585643218551
 30
0.0
 40
6.5
  0
LINE
  5
5415
330
1A
100
AcDbEntity
  8
150
  6
CENTER
100
AcDbLine
 10
216.8914570240164
 20
476.0282153218552
 30
0.0
 11
215.7247390240164
 21
474.8614973218552
 31
0.0
  0
ARC
  5
5416
330
1A
100
AcDbEntity
  8
0
  6
CONTINUOUS
 62
     2
100
AcDbCircle
 10
218.4824600240164
 20
476.5585493218552
 30
0.0
 40
7.0
100
AcDbArc
 50
270.0
 51
89.99999100000039
  0
LINE
  5
5417
330
1A
100
AcDbEntity
  8
150
  6
CENTER
100
AcDbLine
 10
221.2401810240164
 20
474.8614973218552
 30
0.0
 11
220.0734630240164
 21
476.0282153218552
 31
0.0
  0
LINE
  5
5418
330
1A
100
AcDbEntity
  8
150
  6
CENTER
100
AcDbLine
 10
216.7854080240164
 20
473.800828321855
 30
0.0
 11
217.9521250240164
 21
474.9675463218552
 31
0.0
  0
LINE
  5
5419
330
1A
100
AcDbEntity
  8
150
  6
CONTINUOUS
100
AcDbLine
 10
261.6824720240164
 20
461.0535453218552
 30
0.0
 11
261.6824720240164
 21
477.0635543218552
 31
0.0
  0
LINE
  5
541A
330
1A
100
AcDbEntity
  8
225
  6
CENTER
 62
     3
100
AcDbLine
 10
218.4824600240164
 20
485.558519321855
 30
0.0
 11
218.4824600240164
 21
467.5585193218551
 31
0.0
  0
LINE
  5
541B
330
1A
100
AcDbEntity
  8
225
  6
CENTER
 62
     3
100
AcDbLine
 10
258.4824600240164
 20
474.5585493218552
 30
0.0
 11
258.4824600240164
 21
493.5585493218552
 31
0.0
  0
LINE
  5
541C
330
1A
100
AcDbEntity
  8
150
  6
CENTER
100
AcDbLine
 10
219.0127940240164
 20
474.9675463218552
 30
0.0
 11
220.1795120240165
 21
473.800828321855
 31
0.0
  0
LINE
  5
541D
330
1A
100
AcDbEntity
  8
150
  6
CENTER
100
AcDbLine
 10
215.7247390240164
 20
474.8614973218552
 30
0.0
 11
216.7854080240164
 21
473.800828321855
 31
0.0
  0
LINE
  5
541E
330
1A
100
AcDbEntity
  8
0
  6
CONTINUOUS
 62
     2
100
AcDbLine
 10
218.4824600240164
 20
469.5585493218552
 30
0.0
 11
211.4824600240164
 21
469.5585493218552
 31
0.0
  0
LINE
  5
541F
330
1A
100
AcDbEntity
  8
150
  6
CENTER
100
AcDbLine
 10
220.1795120240165
 20
473.800828321855
 30
0.0
 11
221.2401810240164
 21
474.8614973218552
 31
0.0
  0
LINE
  5
5420
330
1A
100
AcDbEntity
  8
225
  6
CENTER
 62
     3
100
AcDbLine
 10
258.4824600240164
 20
444.5585493218552
 30
0.0
 11
258.4824600240164
 21
463.5585493218552
 31
0.0
  0
LINE
  5
5421
330
1A
100
AcDbEntity
  8
150
  6
HIDDEN2
 62
     7
100
AcDbLine
 10
255.7247700240164
 20
452.3614973218553
 30
0.0
 11
256.7854080240164
 21
451.300828321855
 31
0.0
  0
LINE
  5
5422
330
1A
100
AcDbEntity
  8
150
  6
HIDDEN2
 62
     7
100
AcDbLine
 10
256.7854080240164
 20
451.300828321855
 30
0.0
 11
257.9521250240164
 21
452.4675463218552
 31
0.0
  0
LINE
  5
5423
330
1A
100
AcDbEntity
  8
150
  6
HIDDEN2
 62
     7
100
AcDbLine
 10
259.0127940240164
 20
452.4675463218552
 30
0.0
 11
260.1795120240165
 21
451.300828321855
 31
0.0
  0
LINE
  5
5424
330
1A
100
AcDbEntity
  8
150
  6
HIDDEN2
 62
     7
100
AcDbLine
 10
260.1795120240165
 20
451.300828321855
 30
0.0
 11
261.2401810240164
 21
452.3614973218553
 31
0.0
  0
CIRCLE
  5
5425
330
1A
100
AcDbEntity
  8
150
  6
HIDDEN2
 62
     7
100
AcDbCircle
 10
258.4824050240164
 20
454.0584763218551
 30
0.0
 40
6.5
  0
CIRCLE
  5
5426
330
1A
100
AcDbEntity
  8
150
  6
HIDDEN2
 62
     7
100
AcDbCircle
 10
258.4824050240164
 20
454.0584763218551
 30
0.0
 40
5.25
  0
LINE
  5
5427
330
1A
100
AcDbEntity
  8
150
  6
CONTINUOUS
100
AcDbLine
 10
265.4824600240164
 20
457.0585493218552
 30
0.0
 11
265.4824600240164
 21
451.0585493218552
 31
0.0
  0
ARC
  5
5428
330
1A
100
AcDbEntity
  8
150
  6
CONTINUOUS
100
AcDbCircle
 10
259.4824900240164
 20
439.0585493218552
 30
0.0
 40
4.5
100
AcDbArc
 50
270.0
 51
90.00078399999946
  0
LINE
  5
5429
330
1A
100
AcDbEntity
  8
150
  6
CONTINUOUS
100
AcDbLine
 10
259.4824600240164
 20
434.5585493218552
 30
0.0
 11
261.6824720240164
 21
434.5585493218552
 31
0.0
  0
LINE
  5
542A
330
1A
100
AcDbEntity
  8
150
  6
CONTINUOUS
100
AcDbLine
 10
259.4824600240164
 20
443.5585493218552
 30
0.0
 11
261.6824720240164
 21
443.5585493218552
 31
0.0
  0
LINE
  5
542B
330
1A
100
AcDbEntity
  8
225
  6
CENTER
 62
     3
100
AcDbLine
 10
252.9824900240164
 20
439.0585493218552
 30
0.0
 11
265.9824900240164
 21
439.0585493218552
 31
0.0
  0
LINE
  5
542C
330
1A
100
AcDbEntity
  8
150
  6
HIDDEN2
 62
     7
100
AcDbLine
 10
247.9824600240164
 20
447.0585493218552
 30
0.0
 11
261.4824600240164
 21
447.0585493218552
 31
0.0
  0
LINE
  5
542D
330
1A
100
AcDbEntity
  8
150
  6
HIDDEN2
 62
     7
100
AcDbLine
 10
247.9824600240164
 20
431.0585493218552
 30
0.0
 11
261.4824600240164
 21
431.0585493218552
 31
0.0
  0
LINE
  5
542E
330
1A
100
AcDbEntity
  8
225
  6
CENTER
 62
     3
100
AcDbLine
 10
259.4824600240164
 20
432.5585493218552
 30
0.0
 11
259.4824600240164
 21
445.5585493218552
 31
0.0
  0
ARC
  5
542F
330
1A
100
AcDbEntity
  8
150
  6
CONTINUOUS
100
AcDbCircle
 10
259.4824900240164
 20
439.0585493218552
 30
0.0
 40
4.5
100
AcDbArc
 50
90.0
 51
269.9992259999999
  0
LINE
  5
5430
330
1A
100
AcDbEntity
  8
150
  6
CONTINUOUS
100
AcDbLine
 10
261.6824720240164
 20
434.5585493218552
 30
0.0
 11
261.6824720240164
 21
431.0535453218551
 31
0.0
  0
LINE
  5
5431
330
1A
100
AcDbEntity
  8
150
  6
CONTINUOUS
100
AcDbLine
 10
261.6824720240164
 20
447.0635543218552
 30
0.0
 11
261.6824720240164
 21
443.5585493218552
 31
0.0
  0
ARC
  5
5432
330
1A
100
AcDbEntity
  8
150
  6
CONTINUOUS
100
AcDbCircle
 10
261.4824600240164
 20
451.0585493218552
 30
0.0
 40
4.0
100
AcDbArc
 50
272.8661670000001
 51
0.0000100000010064
  0
LINE
  5
5433
330
1A
100
AcDbEntity
  8
225
  6
CONTINUOUS
 62
     3
100
AcDbLine
 10
248.9824900240164
 20
454.0585493218552
 30
0.0
 11
267.9824600240164
 21
454.0585493218552
 31
0.0
  0
LINE
  5
5434
330
1A
100
AcDbEntity
  8
150
  6
HIDDEN2
 62
     7
100
AcDbLine
 10
261.2401810240164
 20
455.7556013218552
 30
0.0
 11
260.1795120240165
 21
456.8162703218551
 31
0.0
  0
LINE
  5
5435
330
1A
100
AcDbEntity
  8
150
  6
HIDDEN2
 62
     7
100
AcDbLine
 10
261.2401810240164
 20
452.3614973218553
 30
0.0
 11
260.0734630240164
 21
453.5282153218552
 31
0.0
  0
LINE
  5
5436
330
1A
100
AcDbEntity
  8
150
  6
HIDDEN2
 62
     7
100
AcDbLine
 10
260.0734630240164
 20
454.5888843218551
 30
0.0
 11
261.2401810240164
 21
455.7556013218552
 31
0.0
  0
LINE
  5
5437
330
1A
100
AcDbEntity
  8
150
  6
HIDDEN2
 62
     7
100
AcDbLine
 10
247.9824600240164
 20
461.0585493218552
 30
0.0
 11
261.4824600240164
 21
461.0585493218552
 31
0.0
  0
LINE
  5
5438
330
1A
100
AcDbEntity
  8
150
  6
HIDDEN2
 62
     7
100
AcDbLine
 10
260.1795120240165
 20
456.8162703218551
 30
0.0
 11
259.0127940240164
 21
455.6495533218551
 31
0.0
  0
LINE
  5
5439
330
1A
100
AcDbEntity
  8
150
  6
HIDDEN2
 62
     7
100
AcDbLine
 10
257.9521250240164
 20
455.6495533218551
 30
0.0
 11
256.7854080240164
 21
456.8162703218551
 31
0.0
  0
LINE
  5
543A
330
1A
100
AcDbEntity
  8
150
  6
HIDDEN2
 62
     7
100
AcDbLine
 10
256.7854080240164
 20
456.8162703218551
 30
0.0
 11
255.7247700240164
 21
455.7556013218552
 31
0.0
  0
LINE
  5
543B
330
1A
100
AcDbEntity
  8
150
  6
HIDDEN2
 62
     7
100
AcDbLine
 10
255.7247700240164
 20
455.7556013218552
 30
0.0
 11
256.8914870240165
 21
454.5888843218551
 31
0.0
  0
LINE
  5
543C
330
1A
100
AcDbEntity
  8
150
  6
HIDDEN2
 62
     7
100
AcDbLine
 10
256.8914870240165
 20
453.5282153218552
 30
0.0
 11
255.7247700240164
 21
452.3614973218553
 31
0.0
  0
ARC
  5
543D
330
1A
100
AcDbEntity
  8
150
  6
HIDDEN2
 62
     7
100
AcDbCircle
 10
258.4824060240165
 20
456.1797973218552
 30
0.0
 40
0.75
100
AcDbArc
 50
224.9999880000016
 51
314.9999840000002
  0
ARC
  5
543E
330
1A
100
AcDbEntity
  8
150
  6
HIDDEN2
 62
     7
100
AcDbCircle
 10
256.3610850240164
 20
454.0584773218552
 30
0.0
 40
0.75
100
AcDbArc
 50
314.9999840000002
 51
44.99999300000106
  0
ARC
  5
543F
330
1A
100
AcDbEntity
  8
150
  6
HIDDEN2
 62
     7
100
AcDbCircle
 10
258.4824040240164
 20
451.9371563218551
 30
0.0
 40
0.75
100
AcDbArc
 50
44.99998300000108
 51
134.9999859999998
  0
ARC
  5
5440
330
1A
100
AcDbEntity
  8
150
  6
HIDDEN2
 62
     7
100
AcDbCircle
 10
260.6037250240164
 20
454.0584763218551
 30
0.0
 40
0.75
100
AcDbArc
 50
134.9999859999998
 51
224.9999880000016
  0
ARC
  5
5441
330
1A
100
AcDbEntity
  8
150
  6
CONTINUOUS
100
AcDbCircle
 10
261.4824600240164
 20
457.0585493218552
 30
0.0
 40
4.0
100
AcDbArc
 50
0.0
 51
87.13384300000054
  0
LINE
  5
5442
330
1A
100
AcDbEntity
  8
0
  6
CONTINUOUS
 62
     2
100
AcDbLine
 10
241.4824600240164
 20
489.0585493218552
 30
0.0
 11
245.9824600240164
 21
489.0585493218552
 31
0.0
  0
LINE
  5
5443
330
1A
100
AcDbEntity
  8
0
  6
CONTINUOUS
 62
     2
100
AcDbLine
 10
241.4824600240164
 20
492.0585493218552
 30
0.0
 11
245.9824600240164
 21
492.0585493218552
 31
0.0
  0
LINE
  5
5444
330
1A
100
AcDbEntity
  8
150
  6
CENTER
100
AcDbLine
 10
220.1795120240165
 20
479.3162703218552
 30
0.0
 11
219.0127940240164
 21
478.1495533218551
 31
0.0
  0
LINE
  5
5445
330
1A
100
AcDbEntity
  8
150
  6
CENTER
100
AcDbLine
 10
217.9521250240164
 20
478.1495533218551
 30
0.0
 11
216.7854080240164
 21
479.3162703218552
 31
0.0
  0
LINE
  5
5446
330
1A
100
AcDbEntity
  8
150
  6
CENTER
100
AcDbLine
 10
215.7247390240164
 20
478.2556013218552
 30
0.0
 11
216.8914570240164
 21
477.0888843218552
 31
0.0
  0
LINE
  5
5447
330
1A
100
AcDbEntity
  8
150
  6
CENTER
100
AcDbLine
 10
216.7854080240164
 20
479.3162703218552
 30
0.0
 11
215.7247390240164
 21
478.2556013218552
 31
0.0
  0
ARC
  5
5448
330
1A
100
AcDbEntity
  8
150
  6
CENTER
100
AcDbCircle
 10
216.3611580240164
 20
476.5585653218551
 30
0.0
 40
0.75
100
AcDbArc
 50
314.9999840000002
 51
44.99999300000106
  0
ARC
  5
5449
330
1A
100
AcDbEntity
  8
150
  6
CENTER
100
AcDbCircle
 10
218.4824790240164
 20
478.6798853218551
 30
0.0
 40
0.75
100
AcDbArc
 50
224.9999880000016
 51
314.9999840000002
  0
ARC
  5
544A
330
1A
100
AcDbEntity
  8
150
  6
CENTER
100
AcDbCircle
 10
218.4824770240164
 20
474.4372443218551
 30
0.0
 40
0.75
100
AcDbArc
 50
44.99998300000108
 51
134.9999859999998
  0
LINE
  5
544B
330
1A
100
AcDbEntity
  8
0
  6
CONTINUOUS
 62
     2
100
AcDbLine
 10
218.4824600240164
 20
483.5585493218552
 30
0.0
 11
211.4824600240164
 21
483.5585493218552
 31
0.0
  0
LINE
  5
544C
330
1A
100
AcDbEntity
  8
150
  6
CENTER
100
AcDbLine
 10
221.2401810240164
 20
478.2556013218552
 30
0.0
 11
220.1795120240165
 21
479.3162703218552
 31
0.0
  0
LINE
  5
544D
330
1A
100
AcDbEntity
  8
150
  6
CENTER
100
AcDbLine
 10
220.0734630240164
 20
477.0888843218552
 30
0.0
 11
221.2401810240164
 21
478.2556013218552
 31
0.0
  0
ARC
  5
544E
330
1A
100
AcDbEntity
  8
150
  6
CENTER
100
AcDbCircle
 10
220.6037980240164
 20
476.5585643218551
 30
0.0
 40
0.75
100
AcDbArc
 50
134.9999859999998
 51
224.9999880000016
  0
LINE
  5
544F
330
1A
100
AcDbEntity
  8
0
  6
CONTINUOUS
 62
     2
100
AcDbLine
 10
241.4824600240164
 20
492.0585493218552
 30
0.0
 11
241.4824600240164
 21
489.0585493218552
 31
0.0
  0
LINE
  5
5450
330
1A
100
AcDbEntity
  8
210
  6
CONTINUOUS
 62
     4
100
AcDbLine
 10
218.4824600240164
 20
519.0585813218551
 30
0.0
 11
220.4544870240165
 21
518.7252483218551
 31
0.0
  0
LINE
  5
5451
330
1A
100
AcDbEntity
  8
210
  6
CONTINUOUS
 62
     4
100
AcDbLine
 10
218.4824600240164
 20
519.0585813218551
 30
0.0
 11
220.4544870240165
 21
519.3919143218551
 31
0.0
  0
ARC
  5
5452
330
1A
100
AcDbEntity
  8
150
  6
CONTINUOUS
 62
     7
100
AcDbCircle
 10
248.9824900240164
 20
497.0585493218552
 30
0.0
 40
1.0
100
AcDbArc
 50
90.0
 51
180.0000029999976
  0
LINE
  5
5453
330
1A
100
AcDbEntity
  8
150
  6
HIDDEN2
 62
     7
100
AcDbLine
 10
252.9824900240164
 20
498.0585493218552
 30
0.0
 11
252.9824900240164
 21
498.5585493218552
 31
0.0
  0
LINE
  5
5454
330
1A
100
AcDbEntity
  8
150
  6
CONTINUOUS
100
AcDbLine
 10
261.6824720240164
 20
491.0535453218551
 30
0.0
 11
261.6824720240164
 21
498.5585493218552
 31
0.0
  0
LINE
  5
5455
330
1A
100
AcDbEntity
  8
225
  6
CENTER
 62
     3
100
AcDbLine
 10
257.4824600240164
 20
500.4085863218551
 30
0.0
 11
257.4824600240164
 21
491.1085683218552
 31
0.0
  0
LINE
  5
5456
330
1A
100
AcDbEntity
  8
225
  6
CENTER
 62
     3
100
AcDbLine
 10
252.8324660240164
 20
495.7585623218551
 30
0.0
 11
262.1324540240164
 21
495.7585623218551
 31
0.0
  0
LINE
  5
5457
330
1A
100
AcDbEntity
  8
225
  6
CENTER
 62
     3
100
AcDbLine
 10
248.9824900240164
 20
484.0585493218553
 30
0.0
 11
267.9824600240164
 21
484.0585493218553
 31
0.0
  0
LINE
  5
5458
330
1A
100
AcDbEntity
  8
150
  6
HIDDEN2
 62
     7
100
AcDbLine
 10
261.2401810240164
 20
485.7556013218552
 30
0.0
 11
260.1795120240165
 21
486.8162703218551
 31
0.0
  0
LINE
  5
5459
330
1A
100
AcDbEntity
  8
150
  6
HIDDEN2
 62
     7
100
AcDbLine
 10
260.1795120240165
 20
481.300828321855
 30
0.0
 11
261.2401810240164
 21
482.3614973218552
 31
0.0
  0
LINE
  5
545A
330
1A
100
AcDbEntity
  8
150
  6
HIDDEN2
 62
     7
100
AcDbLine
 10
261.2401810240164
 20
482.3614973218552
 30
0.0
 11
260.0734630240164
 21
483.5282153218551
 31
0.0
  0
LINE
  5
545B
330
1A
100
AcDbEntity
  8
150
  6
HIDDEN2
 62
     7
100
AcDbLine
 10
260.0734630240164
 20
484.5888843218552
 30
0.0
 11
261.2401810240164
 21
485.7556013218552
 31
0.0
  0
CIRCLE
  5
545C
330
1A
100
AcDbEntity
  8
150
  6
HIDDEN2
 62
     7
100
AcDbCircle
 10
258.4824110240164
 20
484.0584693218552
 30
0.0
 40
6.5
  0
CIRCLE
  5
545D
330
1A
100
AcDbEntity
  8
150
  6
HIDDEN2
 62
     7
100
AcDbCircle
 10
258.4824110240164
 20
484.0584693218552
 30
0.0
 40
5.25
  0
LINE
  5
545E
330
1A
100
AcDbEntity
  8
150
  6
HIDDEN2
 62
     7
100
AcDbLine
 10
247.9824600240164
 20
491.0585493218552
 30
0.0
 11
261.4824600240164
 21
491.0585493218552
 31
0.0
  0
LINE
  5
545F
330
1A
100
AcDbEntity
  8
150
  6
HIDDEN2
 62
     7
100
AcDbLine
 10
247.9824600240164
 20
477.0585493218552
 30
0.0
 11
261.4824600240164
 21
477.0585493218552
 31
0.0
  0
LINE
  5
5460
330
1A
100
AcDbEntity
  8
150
  6
HIDDEN2
 62
     7
100
AcDbLine
 10
260.1795120240165
 20
486.8162703218551
 30
0.0
 11
259.0127940240164
 21
485.6495533218551
 31
0.0
  0
LINE
  5
5461
330
1A
100
AcDbEntity
  8
150
  6
HIDDEN2
 62
     7
100
AcDbLine
 10
257.9521250240164
 20
485.6495533218551
 30
0.0
 11
256.7854080240164
 21
486.8162703218551
 31
0.0
  0
LINE
  5
5462
330
1A
100
AcDbEntity
  8
150
  6
HIDDEN2
 62
     7
100
AcDbLine
 10
256.7854080240164
 20
486.8162703218551
 30
0.0
 11
255.7247700240164
 21
485.7556013218552
 31
0.0
  0
LINE
  5
5463
330
1A
100
AcDbEntity
  8
150
  6
HIDDEN2
 62
     7
100
AcDbLine
 10
255.7247700240164
 20
485.7556013218552
 30
0.0
 11
256.8914870240165
 21
484.5888843218552
 31
0.0
  0
LINE
  5
5464
330
1A
100
AcDbEntity
  8
150
  6
HIDDEN2
 62
     7
100
AcDbLine
 10
256.8914870240165
 20
483.5282153218551
 30
0.0
 11
255.7247700240164
 21
482.3614973218552
 31
0.0
  0
LINE
  5
5465
330
1A
100
AcDbEntity
  8
150
  6
HIDDEN2
 62
     7
100
AcDbLine
 10
255.7247700240164
 20
482.3614973218552
 30
0.0
 11
256.7854080240164
 21
481.300828321855
 31
0.0
  0
LINE
  5
5466
330
1A
100
AcDbEntity
  8
150
  6
HIDDEN2
 62
     7
100
AcDbLine
 10
256.7854080240164
 20
481.300828321855
 30
0.0
 11
257.9521250240164
 21
482.4675463218552
 31
0.0
  0
LINE
  5
5467
330
1A
100
AcDbEntity
  8
150
  6
HIDDEN2
 62
     7
100
AcDbLine
 10
259.0127940240164
 20
482.4675463218552
 30
0.0
 11
260.1795120240165
 21
481.300828321855
 31
0.0
  0
ARC
  5
5468
330
1A
100
AcDbEntity
  8
150
  6
HIDDEN2
 62
     7
100
AcDbCircle
 10
258.4824120240164
 20
486.1797893218551
 30
0.0
 40
0.75
100
AcDbArc
 50
224.9999880000016
 51
314.9999840000002
  0
ARC
  5
5469
330
1A
100
AcDbEntity
  8
150
  6
HIDDEN2
 62
     7
100
AcDbCircle
 10
256.3610910240165
 20
484.0584703218551
 30
0.0
 40
0.75
100
AcDbArc
 50
314.9999840000002
 51
44.99999300000106
  0
ARC
  5
546A
330
1A
100
AcDbEntity
  8
150
  6
HIDDEN2
 62
     7
100
AcDbCircle
 10
258.4824100240164
 20
481.9371493218552
 30
0.0
 40
0.75
100
AcDbArc
 50
44.99998300000108
 51
134.9999859999998
  0
ARC
  5
546B
330
1A
100
AcDbEntity
  8
150
  6
HIDDEN2
 62
     7
100
AcDbCircle
 10
260.6037320240164
 20
484.058468321855
 30
0.0
 40
0.75
100
AcDbArc
 50
134.9999859999998
 51
224.9999880000016
  0
LINE
  5
546C
330
1A
100
AcDbEntity
  8
150
  6
HIDDEN2
 62
     7
100
AcDbLine
 10
248.9824900240164
 20
498.0585493218552
 30
0.0
 11
252.9824900240164
 21
498.0585493218552
 31
0.0
  0
CIRCLE
  5
546D
330
1A
100
AcDbEntity
  8
150
  6
CONTINUOUS
100
AcDbCircle
 10
257.4824710240164
 20
495.7585983218552
 30
0.0
 40
2.25
  0
LINE
  5
546E
330
1A
100
AcDbEntity
  8
150
  6
CONTINUOUS
100
AcDbLine
 10
258.6315080240164
 20
495.0691393218551
 30
0.0
 11
258.1718830240165
 21
494.6095143218551
 31
0.0
  0
LINE
  5
546F
330
1A
100
AcDbEntity
  8
150
  6
CONTINUOUS
100
AcDbLine
 10
258.1718830240165
 20
494.6095143218551
 30
0.0
 11
257.7122880240164
 21
495.0691083218551
 31
0.0
  0
LINE
  5
5470
330
1A
100
AcDbEntity
  8
150
  6
CONTINUOUS
100
AcDbLine
 10
257.2526320240164
 20
495.0691083218551
 30
0.0
 11
256.7930370240164
 21
494.6095143218551
 31
0.0
  0
LINE
  5
5471
330
1A
100
AcDbEntity
  8
150
  6
CONTINUOUS
100
AcDbLine
 10
256.7930370240164
 20
494.6095143218551
 30
0.0
 11
256.3334120240164
 21
495.0691393218551
 31
0.0
  0
LINE
  5
5472
330
1A
100
AcDbEntity
  8
150
  6
CONTINUOUS
100
AcDbLine
 10
256.3334120240164
 20
495.0691393218551
 30
0.0
 11
256.7930070240164
 21
495.5287343218551
 31
0.0
  0
LINE
  5
5473
330
1A
100
AcDbEntity
  8
150
  6
CONTINUOUS
100
AcDbLine
 10
256.7930070240164
 20
495.9883893218552
 30
0.0
 11
256.3334120240164
 21
496.4479843218553
 31
0.0
  0
LINE
  5
5474
330
1A
100
AcDbEntity
  8
150
  6
CONTINUOUS
100
AcDbLine
 10
256.3334120240164
 20
496.4479843218553
 30
0.0
 11
256.7930370240164
 21
496.9076093218553
 31
0.0
  0
LINE
  5
5475
330
1A
100
AcDbEntity
  8
150
  6
CONTINUOUS
100
AcDbLine
 10
256.7930370240164
 20
496.9076093218553
 30
0.0
 11
257.2526320240164
 21
496.4480153218551
 31
0.0
  0
LINE
  5
5476
330
1A
100
AcDbEntity
  8
150
  6
CONTINUOUS
100
AcDbLine
 10
257.7122880240164
 20
496.4480153218551
 30
0.0
 11
258.1718830240165
 21
496.9076093218553
 31
0.0
  0
LINE
  5
5477
330
1A
100
AcDbEntity
  8
150
  6
CONTINUOUS
100
AcDbLine
 10
258.1718830240165
 20
496.9076093218553
 30
0.0
 11
258.6315080240164
 21
496.4479843218553
 31
0.0
  0
LINE
  5
5478
330
1A
100
AcDbEntity
  8
150
  6
CONTINUOUS
100
AcDbLine
 10
258.6315080240164
 20
496.4479843218553
 30
0.0
 11
258.1719130240164
 21
495.9883893218552
 31
0.0
  0
LINE
  5
5479
330
1A
100
AcDbEntity
  8
150
  6
CONTINUOUS
100
AcDbLine
 10
258.1719130240164
 20
495.5287343218551
 30
0.0
 11
258.6315080240164
 21
495.0691393218551
 31
0.0
  0
ARC
  5
547A
330
1A
100
AcDbEntity
  8
150
  6
CONTINUOUS
100
AcDbCircle
 10
257.4824710240164
 20
494.8393253218553
 30
0.0
 40
0.325
100
AcDbArc
 50
45.00001599999972
 51
135.0000119999983
  0
ARC
  5
547B
330
1A
100
AcDbEntity
  8
150
  6
CONTINUOUS
100
AcDbCircle
 10
256.5631980240164
 20
495.7585983218552
 30
0.0
 40
0.325
100
AcDbArc
 50
315.0000069999989
 51
45.00001599999972
  0
ARC
  5
547C
330
1A
100
AcDbEntity
  8
150
  6
CONTINUOUS
100
AcDbCircle
 10
257.4824710240164
 20
496.6778713218552
 30
0.0
 40
0.325
100
AcDbArc
 50
225.0000140000002
 51
315.0000169999989
  0
ARC
  5
547D
330
1A
100
AcDbEntity
  8
150
  6
CONTINUOUS
100
AcDbCircle
 10
258.4017440240164
 20
495.7585983218552
 30
0.0
 40
0.325
100
AcDbArc
 50
135.0000119999983
 51
225.0000140000002
  0
LINE
  5
547E
330
1A
100
AcDbEntity
  8
150
  6
CONTINUOUS
100
AcDbLine
 10
265.4824600240164
 20
487.0585493218552
 30
0.0
 11
265.4824600240164
 21
481.0585493218552
 31
0.0
  0
ARC
  5
547F
330
1A
100
AcDbEntity
  8
150
  6
CONTINUOUS
100
AcDbCircle
 10
261.4824600240164
 20
481.0585493218552
 30
0.0
 40
4.0
100
AcDbArc
 50
272.8661670000001
 51
0.0000100000010064
  0
ARC
  5
5480
330
1A
100
AcDbEntity
  8
150
  6
CONTINUOUS
100
AcDbCircle
 10
261.4824600240164
 20
487.0585493218552
 30
0.0
 40
4.0
100
AcDbArc
 50
0.0
 51
87.13384300000054
  0
LINE
  5
5481
330
1A
100
AcDbEntity
  8
150
  6
CONTINUOUS
100
AcDbLine
 10
252.9824900240164
 20
498.5585493218552
 30
0.0
 11
261.6824720240164
 21
498.5585493218552
 31
0.0
  0
LINE
  5
5482
330
1A
100
AcDbEntity
  8
0
  6
CONTINUOUS
 62
     2
100
AcDbLine
 10
245.9824600240164
 20
498.5585493218552
 30
0.0
 11
252.9824900240164
 21
498.5585493218552
 31
0.0
  0
LINE
  5
5483
330
1A
100
AcDbEntity
  8
0
  6
CONTINUOUS
 62
     2
100
AcDbLine
 10
252.9824900240164
 20
498.5585493218552
 30
0.0
 11
252.9824900240164
 21
499.0585493218552
 31
0.0
  0
LINE
  5
5484
330
1A
100
AcDbEntity
  8
0
  6
CONTINUOUS
 62
     2
100
AcDbLine
 10
308.9087910240164
 20
448.8085493218552
 30
0.0
 11
320.3437580240164
 21
448.8085493218552
 31
0.0
  0
LINE
  5
5485
330
1A
100
AcDbEntity
  8
0
  6
CONTINUOUS
 62
     2
100
AcDbLine
 10
308.9087910240164
 20
459.3085493218552
 30
0.0
 11
320.3437580240164
 21
459.3085493218552
 31
0.0
  0
LINE
  5
5486
330
1A
100
AcDbEntity
  8
0
  6
CONTINUOUS
 62
     2
100
AcDbLine
 10
307.9087910240164
 20
449.8085493218552
 30
0.0
 11
307.9087910240164
 21
458.3085493218552
 31
0.0
  0
LINE
  5
5487
330
1A
100
AcDbEntity
  8
0
  6
CONTINUOUS
 62
     2
100
AcDbLine
 10
300.4824900240164
 20
464.0585493218552
 30
0.0
 11
300.4824900240164
 21
444.0585493218552
 31
0.0
  0
ARC
  5
5488
330
1A
100
AcDbEntity
  8
0
  6
CONTINUOUS
 62
     2
100
AcDbCircle
 10
301.4824900240164
 20
444.0585493218552
 30
0.0
 40
1.0
100
AcDbArc
 50
180.0000050000005
 51
270.0000009999997
  0
ARC
  5
5489
330
1A
100
AcDbEntity
  8
0
  6
CONTINUOUS
 62
     2
100
AcDbCircle
 10
308.9087910240164
 20
449.8085493218552
 30
0.0
 40
1.0
100
AcDbArc
 50
180.0000050000005
 51
270.0000009999997
  0
ARC
  5
548A
330
1A
100
AcDbEntity
  8
0
  6
CONTINUOUS
 62
     2
100
AcDbCircle
 10
308.9087910240164
 20
458.3085493218552
 30
0.0
 40
1.0
100
AcDbArc
 50
90.0
 51
180.0000029999976
  0
ARC
  5
548B
330
1A
100
AcDbEntity
  8
0
  6
CONTINUOUS
 62
     2
100
AcDbCircle
 10
301.4824900240164
 20
464.0585493218552
 30
0.0
 40
1.0
100
AcDbArc
 50
90.0
 51
180.0000029999976
  0
LINE
  5
548C
330
1A
100
AcDbEntity
  8
0
  6
CONTINUOUS
 62
     2
100
AcDbLine
 10
314.6029430240165
 20
458.3085493218552
 30
0.0
 11
314.6029430240165
 21
449.8085493218552
 31
0.0
  0
LINE
  5
548D
330
1A
100
AcDbEntity
  8
0
  6
CONTINUOUS
 62
     2
100
AcDbLine
 10
320.3437580240164
 20
448.8085493218552
 30
0.0
 11
320.3437580240164
 21
459.3085493218552
 31
0.0
  0
LINE
  5
548E
330
1A
100
AcDbEntity
  8
150
  6
CONTINUOUS
100
AcDbLine
 10
339.4824900240164
 20
448.0585493218552
 30
0.0
 11
339.4824900240164
 21
460.0585493218552
 31
0.0
  0
LINE
  5
548F
330
1A
100
AcDbEntity
  8
150
  6
CONTINUOUS
100
AcDbLine
 10
310.4824900240164
 20
448.0585493218552
 30
0.0
 11
339.4824900240164
 21
448.0585493218552
 31
0.0
  0
ARC
  5
5490
330
1A
100
AcDbEntity
  8
0
  6
CONTINUOUS
 62
     2
100
AcDbCircle
 10
313.6029430240165
 20
449.8085493218552
 30
0.0
 40
1.0
100
AcDbArc
 50
270.0
 51
0.000008999999603
  0
LINE
  5
5491
330
1A
100
AcDbEntity
  8
150
  6
CONTINUOUS
100
AcDbLine
 10
310.4824900240164
 20
448.0585493218552
 30
0.0
 11
310.4824900240164
 21
448.8085493218552
 31
0.0
  0
LINE
  5
5492
330
1A
100
AcDbEntity
  8
150
  6
CONTINUOUS
100
AcDbLine
 10
310.4824900240164
 20
460.0585493218552
 30
0.0
 11
339.4824900240164
 21
460.0585493218552
 31
0.0
  0
ARC
  5
5493
330
1A
100
AcDbEntity
  8
0
  6
CONTINUOUS
 62
     2
100
AcDbCircle
 10
313.6029430240165
 20
458.3085493218552
 30
0.0
 40
1.0
100
AcDbArc
 50
0.0
 51
90.00000299999932
  0
LINE
  5
5494
330
1A
100
AcDbEntity
  8
150
  6
CONTINUOUS
100
AcDbLine
 10
310.4824900240164
 20
459.3085493218552
 30
0.0
 11
310.4824900240164
 21
460.0585493218552
 31
0.0
  0
TEXT
  5
5495
330
1A
100
AcDbEntity
  8
230
 62
     6
100
AcDbText
 10
318.1489180240165
 20
510.3204223218551
 30
0.0
 40
5.0
  1
ASL
100
AcDbText
  0
ARC
  5
5496
330
1A
100
AcDbEntity
  8
0
  6
CONTINUOUS
 62
     2
100
AcDbCircle
 10
432.4825520240165
 20
431.558519321855
 30
0.0
 40
7.0
100
AcDbArc
 50
90.0
 51
269.9999980000004
  0
CIRCLE
  5
5497
330
1A
100
AcDbEntity
  8
150
  6
CENTER
100
AcDbCircle
 10
432.4825770240164
 20
431.5585543218551
 30
0.0
 40
6.5
  0
CIRCLE
  5
5498
330
1A
100
AcDbEntity
  8
150
  6
CENTER
100
AcDbCircle
 10
432.4825770240164
 20
431.5585543218551
 30
0.0
 40
5.25
  0
LINE
  5
5499
330
1A
100
AcDbEntity
  8
150
  6
PHANTOM2
 62
     7
100
AcDbLine
 10
442.9824900240164
 20
496.5585493218553
 30
0.0
 11
442.9824900240164
 21
411.5585493218552
 31
0.0
  0
LINE
  5
549A
330
1A
100
AcDbEntity
  8
225
  6
CENTER
 62
     3
100
AcDbLine
 10
392.4824900240164
 20
414.5585493218552
 30
0.0
 11
392.4824900240164
 21
433.5585493218552
 31
0.0
  0
LINE
  5
549B
330
1A
100
AcDbEntity
  8
0
  6
CONTINUOUS
 62
     2
100
AcDbLine
 10
440.4824900240164
 20
413.0585493218552
 30
0.0
 11
440.4824900240164
 21
495.0585493218552
 31
0.0
  0
LINE
  5
549C
330
1A
100
AcDbEntity
  8
225
  6
CENTER
 62
     3
100
AcDbLine
 10
432.4825520240165
 20
440.5585493218552
 30
0.0
 11
432.4825520240165
 21
422.5585493218552
 31
0.0
  0
LINE
  5
549D
330
1A
100
AcDbEntity
  8
0
  6
CONTINUOUS
 62
     2
100
AcDbLine
 10
404.4824900240165
 20
499.0585493218553
 30
0.0
 11
404.4824900240164
 21
409.0585493218553
 31
0.0
  0
LINE
  5
549E
330
1A
100
AcDbEntity
  8
0
  6
CONTINUOUS
 62
     2
100
AcDbLine
 10
376.4824900240164
 20
499.0585493218553
 30
0.0
 11
376.4824900240164
 21
409.0585493218553
 31
0.0
  0
LINE
  5
549F
330
1A
100
AcDbEntity
  8
150
  6
CONTINUOUS
100
AcDbLine
 10
402.9824900240164
 20
497.0585493218552
 30
0.0
 11
402.9824900240164
 21
411.0585493218552
 31
0.0
  0
ARC
  5
54A0
330
1A
100
AcDbEntity
  8
150
  6
CONTINUOUS
100
AcDbCircle
 10
389.4824900240164
 20
427.0585493218552
 30
0.0
 40
4.0
100
AcDbArc
 50
90.0
 51
180.0000029999976
  0
CIRCLE
  5
54A1
330
1A
100
AcDbEntity
  8
150
  6
CONTINUOUS
100
AcDbCircle
 10
392.4824520240164
 20
424.0584953218551
 30
0.0
 40
7.0
  0
LINE
  5
54A3
330
1A
100
AcDbEntity
  8
150
  6
PHANTOM2
 62
     7
100
AcDbLine
 10
389.2825090240165
 20
409.5585493218552
 30
0.0
 11
440.9824900240164
 21
409.5585493218552
 31
0.0
  0
TEXT
  5
54A6
330
1A
100
AcDbEntity
  8
210
  6
CONTINUOUS
 62
     4
100
AcDbText
 10
354.3575060240164
 20
392.1835813218551
 30
0.0
 40
5.0
  1
67
100
AcDbText
  0
LINE
  5
54A7
330
1A
100
AcDbEntity
  8
210
  6
CONTINUOUS
 62
     4
100
AcDbLine
 10
392.4825060240164
 20
414.371356321855
 30
0.0
 11
392.4825060240164
 21
384.9960813218551
 31
0.0
  0
LINE
  5
54A8
330
1A
100
AcDbEntity
  8
210
  6
CONTINUOUS
 62
     4
100
AcDbLine
 10
392.4825060240164
 20
389.0585813218551
 30
0.0
 11
390.5104790240164
 21
388.7252483218551
 31
0.0
  0
LINE
  5
54A9
330
1A
100
AcDbEntity
  8
210
  6
CONTINUOUS
 62
     4
100
AcDbLine
 10
392.4825060240164
 20
389.0585813218551
 30
0.0
 11
390.5104790240164
 21
389.3919143218552
 31
0.0
  0
LINE
  5
54AA
330
1A
100
AcDbEntity
  8
225
  6
CENTER
 62
     3
100
AcDbLine
 10
401.9824900240164
 20
424.0585493218552
 30
0.0
 11
382.9824900240164
 21
424.0585493218552
 31
0.0
  0
LINE
  5
54AB
330
1A
100
AcDbEntity
  8
150
  6
CONTINUOUS
100
AcDbLine
 10
402.9824900240164
 20
417.0585493218552
 30
0.0
 11
389.4824900240164
 21
417.0585493218552
 31
0.0
  0
ARC
  5
54AC
330
1A
100
AcDbEntity
  8
150
  6
CONTINUOUS
100
AcDbCircle
 10
392.4824530240164
 20
426.8869233218551
 30
0.0
 40
1.0
100
AcDbArc
 50
224.9999880000016
 51
314.9999840000002
  0
ARC
  5
54AD
330
1A
100
AcDbEntity
  8
150
  6
CONTINUOUS
100
AcDbCircle
 10
392.4824510240164
 20
421.2300683218552
 30
0.0
 40
1.0
100
AcDbArc
 50
44.99998300000108
 51
134.9999859999998
  0
LINE
  5
54AE
330
1A
100
AcDbEntity
  8
150
  6
PHANTOM2
 62
     7
100
AcDbLine
 10
389.2825090240165
 20
409.5585493218552
 30
0.0
 11
389.2825090240165
 21
417.0635514996232
 31
0.0
  0
ARC
  5
54AF
330
1A
100
AcDbEntity
  8
150
  6
CONTINUOUS
100
AcDbCircle
 10
389.4824900240164
 20
421.0585493218552
 30
0.0
 40
4.0
100
AcDbArc
 50
180.0000050000005
 51
270.0000009999997
  0
LINE
  5
54B0
330
1A
100
AcDbEntity
  8
150
  6
CONTINUOUS
100
AcDbLine
 10
385.4824900240164
 20
427.0585493218552
 30
0.0
 11
385.4824900240164
 21
421.0585493218552
 31
0.0
  0
LINE
  5
54B1
330
1A
100
AcDbEntity
  8
150
  6
CONTINUOUS
100
AcDbLine
 10
390.4318920240165
 20
420.5937363218551
 30
0.0
 11
391.7753980240164
 21
421.9372423218551
 31
0.0
  0
LINE
  5
54B2
330
1A
100
AcDbEntity
  8
150
  6
CONTINUOUS
100
AcDbLine
 10
389.0176770240164
 20
422.0079513218552
 30
0.0
 11
390.4318920240165
 21
420.5937363218551
 31
0.0
  0
LINE
  5
54B3
330
1A
100
AcDbEntity
  8
150
  6
CONTINUOUS
100
AcDbLine
 10
390.3611830240164
 20
423.3514573218551
 30
0.0
 11
389.0176770240164
 21
422.0079513218552
 31
0.0
  0
LINE
  5
54B4
330
1A
100
AcDbEntity
  8
150
  6
CONTINUOUS
100
AcDbLine
 10
389.0176770240164
 20
426.1091483218551
 30
0.0
 11
390.3611830240164
 21
424.7656423218552
 31
0.0
  0
LINE
  5
54B5
330
1A
100
AcDbEntity
  8
150
  6
CONTINUOUS
100
AcDbLine
 10
390.4318920240165
 20
427.5233633218552
 30
0.0
 11
389.0176770240164
 21
426.1091483218551
 31
0.0
  0
LINE
  5
54B6
330
1A
100
AcDbEntity
  8
150
  6
CONTINUOUS
100
AcDbLine
 10
391.7753980240164
 20
426.179857321855
 30
0.0
 11
390.4318920240165
 21
427.5233633218552
 31
0.0
  0
ARC
  5
54B7
330
1A
100
AcDbEntity
  8
150
  6
CONTINUOUS
100
AcDbCircle
 10
389.6540250240164
 20
424.058496321855
 30
0.0
 40
1.0
100
AcDbArc
 50
314.9999840000002
 51
44.99999300000106
  0
LINE
  5
54B8
330
1A
100
AcDbEntity
  8
150
  6
CONTINUOUS
100
AcDbLine
 10
401.9824900240164
 20
410.0585493218552
 30
0.0
 11
397.9824900240164
 21
410.0585493218552
 31
0.0
  0
LINE
  5
54B9
330
1A
100
AcDbEntity
  8
150
  6
CONTINUOUS
100
AcDbLine
 10
397.9824900240164
 20
410.0585493218552
 30
0.0
 11
397.9824900240164
 21
409.0585493218553
 31
0.0
  0
ARC
  5
54BA
330
1A
100
AcDbEntity
  8
150
  6
CONTINUOUS
100
AcDbCircle
 10
401.9824900240164
 20
411.0585493218552
 30
0.0
 40
1.0
100
AcDbArc
 50
270.0
 51
0.0000029999976964
  0
LINE
  5
54BB
330
1A
100
AcDbEntity
  8
150
  6
CONTINUOUS
100
AcDbLine
 10
394.6037980240164
 20
424.7656423218552
 30
0.0
 11
395.9473040240164
 21
426.1091483218551
 31
0.0
  0
LINE
  5
54BC
330
1A
100
AcDbEntity
  8
150
  6
CONTINUOUS
100
AcDbLine
 10
395.9473040240164
 20
422.0079513218552
 30
0.0
 11
394.6037980240164
 21
423.3514573218551
 31
0.0
  0
LINE
  5
54BD
330
1A
100
AcDbEntity
  8
150
  6
CONTINUOUS
100
AcDbLine
 10
394.5330890240164
 20
420.5937363218551
 30
0.0
 11
395.9473040240164
 21
422.0079513218552
 31
0.0
  0
LINE
  5
54BE
330
1A
100
AcDbEntity
  8
150
  6
CONTINUOUS
100
AcDbLine
 10
393.1895830240164
 20
421.9372423218551
 30
0.0
 11
394.5330890240164
 21
420.5937363218551
 31
0.0
  0
LINE
  5
54BF
330
1A
100
AcDbEntity
  8
150
  6
CONTINUOUS
100
AcDbLine
 10
394.5330890240164
 20
427.5233633218552
 30
0.0
 11
393.1895830240164
 21
426.179857321855
 31
0.0
  0
LINE
  5
54C0
330
1A
100
AcDbEntity
  8
150
  6
CONTINUOUS
100
AcDbLine
 10
395.9473040240164
 20
426.1091483218551
 30
0.0
 11
394.5330890240164
 21
427.5233633218552
 31
0.0
  0
ARC
  5
54C1
330
1A
100
AcDbEntity
  8
150
  6
CONTINUOUS
100
AcDbCircle
 10
395.3108790240164
 20
424.0584953218551
 30
0.0
 40
1.0
100
AcDbArc
 50
134.9999859999998
 51
224.9999880000016
  0
ARC
  5
54C6
330
1A
100
AcDbEntity
  8
150
  6
PHANTOM2
 62
     7
100
AcDbCircle
 10
440.9824900240164
 20
411.5585493218552
 30
0.0
 40
2.0
100
AcDbArc
 50
270.0
 51
0.0000029999976964
  0
ARC
  5
54C7
330
1A
100
AcDbEntity
  8
0
  6
CONTINUOUS
 62
     2
100
AcDbCircle
 10
436.4824900240164
 20
413.0585493218552
 30
0.0
 40
4.0
100
AcDbArc
 50
270.0
 51
0.000008999999603
  0
LINE
  5
54C8
330
1A
100
AcDbEntity
  8
0
  6
CONTINUOUS
 62
     2
100
AcDbLine
 10
432.4825520240165
 20
424.5585493218552
 30
0.0
 11
439.4824900240164
 21
424.5585493218552
 31
0.0
  0
ARC
  5
54C9
330
1A
100
AcDbEntity
  8
0
  6
CONTINUOUS
 62
     2
100
AcDbCircle
 10
439.4824900240164
 20
423.5585493218552
 30
0.0
 40
1.0
100
AcDbArc
 50
0.0
 51
90.00000299999932
  0
LINE
  5
54CA
330
1A
100
AcDbEntity
  8
150
  6
PHANTOM2
 62
     7
100
AcDbLine
 10
389.2825090240165
 20
498.5585493218552
 30
0.0
 11
440.9824900240164
 21
498.5585493218552
 31
0.0
  0
LINE
  5
54CB
330
1A
100
AcDbEntity
  8
150
  6
PHANTOM2
 62
     7
100
AcDbLine
 10
389.2825090240165
 20
477.0635514996231
 30
0.0
 11
389.2825090240165
 21
473.5585493218552
 31
0.0
  0
LINE
  5
54CC
330
1A
100
AcDbEntity
  8
225
  6
CENTER
 62
     3
100
AcDbLine
 10
391.4824900240164
 20
475.5585493218553
 30
0.0
 11
391.4824900240164
 21
462.5585493218552
 31
0.0
  0
LINE
  5
54CD
330
1A
100
AcDbEntity
  8
225
  6
CENTER
 62
     3
100
AcDbLine
 10
392.4824900240164
 20
474.5585493218552
 30
0.0
 11
392.4824900240164
 21
493.5585493218552
 31
0.0
  0
LINE
  5
54CE
330
1A
100
AcDbEntity
  8
0
  6
CONTINUOUS
 62
     2
100
AcDbLine
 10
350.4824900240164
 20
464.0585493218552
 30
0.0
 11
350.4824900240164
 21
444.0585493218552
 31
0.0
  0
ARC
  5
54CF
330
1A
100
AcDbEntity
  8
0
  6
CONTINUOUS
 62
     2
100
AcDbCircle
 10
349.4824900240164
 20
444.0585493218552
 30
0.0
 40
1.0
100
AcDbArc
 50
270.0
 51
0.000008999999603
  0
ARC
  5
54D0
330
1A
100
AcDbEntity
  8
0
  6
CONTINUOUS
 62
     2
100
AcDbCircle
 10
349.4824900240164
 20
464.0585493218552
 30
0.0
 40
1.0
100
AcDbArc
 50
0.0
 51
90.00000299999932
  0
LINE
  5
54D1
330
1A
100
AcDbEntity
  8
225
  6
CENTER
 62
     3
100
AcDbLine
 10
392.4824900240164
 20
444.5585493218552
 30
0.0
 11
392.4824900240164
 21
463.5585493218552
 31
0.0
  0
LINE
  5
54D2
330
1A
100
AcDbEntity
  8
150
  6
CONTINUOUS
100
AcDbLine
 10
385.4824900240164
 20
457.0585493218552
 30
0.0
 11
385.4824900240164
 21
451.0585493218552
 31
0.0
  0
CIRCLE
  5
54D3
330
1A
100
AcDbEntity
  8
150
  6
CONTINUOUS
100
AcDbCircle
 10
392.4824500240164
 20
454.0584963218552
 30
0.0
 40
7.0
  0
LINE
  5
54D4
330
1A
100
AcDbEntity
  8
150
  6
CONTINUOUS
100
AcDbLine
 10
394.5330890240164
 20
450.5937363218552
 30
0.0
 11
395.9473040240164
 21
452.0079513218552
 31
0.0
  0
LINE
  5
54D5
330
1A
100
AcDbEntity
  8
150
  6
CONTINUOUS
100
AcDbLine
 10
393.1895830240164
 20
451.9372423218551
 30
0.0
 11
394.5330890240164
 21
450.5937363218552
 31
0.0
  0
LINE
  5
54D6
330
1A
100
AcDbEntity
  8
150
  6
CONTINUOUS
100
AcDbLine
 10
390.4318920240165
 20
450.5937363218552
 30
0.0
 11
391.7753980240164
 21
451.9372423218551
 31
0.0
  0
LINE
  5
54D7
330
1A
100
AcDbEntity
  8
150
  6
CONTINUOUS
100
AcDbLine
 10
389.0176770240164
 20
452.0079513218552
 30
0.0
 11
390.4318920240165
 21
450.5937363218552
 31
0.0
  0
LINE
  5
54D8
330
1A
100
AcDbEntity
  8
150
  6
CONTINUOUS
100
AcDbLine
 10
402.9824900240164
 20
447.0585493218552
 30
0.0
 11
389.4824900240164
 21
447.0585493218552
 31
0.0
  0
LINE
  5
54D9
330
1A
100
AcDbEntity
  8
150
  6
CONTINUOUS
100
AcDbLine
 10
402.9824900240164
 20
431.0585493218552
 30
0.0
 11
389.4824900240164
 21
431.0585493218552
 31
0.0
  0
LINE
  5
54DA
330
1A
100
AcDbEntity
  8
150
  6
PHANTOM2
 62
     7
100
AcDbLine
 10
389.2825090240165
 20
447.0635514996232
 30
0.0
 11
389.2825090240165
 21
431.0535471440872
 31
0.0
  0
ARC
  5
54DD
330
1A
100
AcDbEntity
  8
150
  6
CONTINUOUS
100
AcDbCircle
 10
389.4824900240164
 20
451.0585493218552
 30
0.0
 40
4.0
100
AcDbArc
 50
180.0000050000005
 51
270.0000009999997
  0
LINE
  5
54DE
330
1A
100
AcDbEntity
  8
225
  6
CENTER
 62
     3
100
AcDbLine
 10
397.9824900240164
 20
469.0585493218552
 30
0.0
 11
384.9824290240164
 21
469.0585493218552
 31
0.0
  0
CIRCLE
  5
54DF
330
1A
100
AcDbEntity
  8
150
  6
CONTINUOUS
100
AcDbCircle
 10
391.4824900240164
 20
469.0585493218552
 30
0.0
 40
4.5
  0
LINE
  5
54E0
330
1A
100
AcDbEntity
  8
150
  6
CONTINUOUS
100
AcDbLine
 10
402.9824900240164
 20
461.0585493218552
 30
0.0
 11
389.4824900240164
 21
461.0585493218552
 31
0.0
  0
ARC
  5
54E1
330
1A
100
AcDbEntity
  8
150
  6
CONTINUOUS
100
AcDbCircle
 10
392.4824510240164
 20
456.8869233218552
 30
0.0
 40
1.0
100
AcDbArc
 50
224.9999880000016
 51
314.9999840000002
  0
ARC
  5
54E2
330
1A
100
AcDbEntity
  8
150
  6
CONTINUOUS
100
AcDbCircle
 10
392.4824500240164
 20
451.2300693218551
 30
0.0
 40
1.0
100
AcDbArc
 50
44.99998300000108
 51
134.9999859999998
  0
LINE
  5
54E3
330
1A
100
AcDbEntity
  8
150
  6
CONTINUOUS
100
AcDbLine
 10
389.2825090240165
 20
461.0535471440873
 30
0.0
 11
389.2825090240165
 21
464.5585493218552
 31
0.0
  0
ARC
  5
54E4
330
1A
100
AcDbEntity
  8
150
  6
CONTINUOUS
100
AcDbCircle
 10
389.4824900240164
 20
457.0585493218552
 30
0.0
 40
4.0
100
AcDbArc
 50
90.0
 51
180.0000029999976
  0
LINE
  5
54E5
330
1A
100
AcDbEntity
  8
150
  6
CONTINUOUS
100
AcDbLine
 10
390.3611830240164
 20
453.3514573218552
 30
0.0
 11
389.0176770240164
 21
452.0079513218552
 31
0.0
  0
LINE
  5
54E6
330
1A
100
AcDbEntity
  8
150
  6
CONTINUOUS
100
AcDbLine
 10
389.0176770240164
 20
456.1091483218551
 30
0.0
 11
390.3611830240164
 21
454.7656423218552
 31
0.0
  0
LINE
  5
54E7
330
1A
100
AcDbEntity
  8
150
  6
CONTINUOUS
100
AcDbLine
 10
390.4318920240165
 20
457.5233633218552
 30
0.0
 11
389.0176770240164
 21
456.1091483218551
 31
0.0
  0
LINE
  5
54E8
330
1A
100
AcDbEntity
  8
150
  6
CONTINUOUS
100
AcDbLine
 10
391.7753980240164
 20
456.179857321855
 30
0.0
 11
390.4318920240165
 21
457.5233633218552
 31
0.0
  0
ARC
  5
54E9
330
1A
100
AcDbEntity
  8
150
  6
CONTINUOUS
100
AcDbCircle
 10
389.6540230240164
 20
454.0584973218551
 30
0.0
 40
1.0
100
AcDbArc
 50
314.9999840000002
 51
44.99999300000106
  0
LINE
  5
54EA
330
1A
100
AcDbEntity
  8
150
  6
CONTINUOUS
100
AcDbLine
 10
391.4825210240165
 20
473.5585493218552
 30
0.0
 11
389.2825090240165
 21
473.5585493218552
 31
0.0
  0
LINE
  5
54EB
330
1A
100
AcDbEntity
  8
150
  6
CONTINUOUS
100
AcDbLine
 10
391.4825210240165
 20
464.5585493218552
 30
0.0
 11
389.2825090240165
 21
464.5585493218552
 31
0.0
  0
LINE
  5
54EC
330
1A
100
AcDbEntity
  8
150
  6
CONTINUOUS
100
AcDbLine
 10
394.6037980240164
 20
454.7656423218552
 30
0.0
 11
395.9473040240164
 21
456.1091483218551
 31
0.0
  0
LINE
  5
54ED
330
1A
100
AcDbEntity
  8
150
  6
CONTINUOUS
100
AcDbLine
 10
395.9473040240164
 20
452.0079513218552
 30
0.0
 11
394.6037980240164
 21
453.3514573218552
 31
0.0
  0
LINE
  5
54EE
330
1A
100
AcDbEntity
  8
150
  6
CONTINUOUS
100
AcDbLine
 10
394.5330890240164
 20
457.5233633218552
 30
0.0
 11
393.1895830240164
 21
456.179857321855
 31
0.0
  0
LINE
  5
54EF
330
1A
100
AcDbEntity
  8
150
  6
CONTINUOUS
100
AcDbLine
 10
395.9473040240164
 20
456.1091483218551
 30
0.0
 11
394.5330890240164
 21
457.5233633218552
 31
0.0
  0
ARC
  5
54F0
330
1A
100
AcDbEntity
  8
150
  6
CONTINUOUS
100
AcDbCircle
 10
395.3108780240164
 20
454.0584953218552
 30
0.0
 40
1.0
100
AcDbArc
 50
134.9999859999998
 51
224.9999880000016
  0
ARC
  5
54F1
330
1A
100
AcDbEntity
  8
150
  6
CONTINUOUS
100
AcDbCircle
 10
401.9824900240164
 20
497.0585493218552
 30
0.0
 40
1.0
100
AcDbArc
 50
0.0
 51
90.00000299999932
  0
LINE
  5
54F2
330
1A
100
AcDbEntity
  8
150
  6
CONTINUOUS
100
AcDbLine
 10
397.9824900240164
 20
498.0585493218552
 30
0.0
 11
397.9824900240164
 21
499.0585493218552
 31
0.0
  0
LINE
  5
54F3
330
1A
100
AcDbEntity
  8
150
  6
PHANTOM2
 62
     7
100
AcDbLine
 10
389.2825090240165
 20
491.0535471440873
 30
0.0
 11
389.2825090240165
 21
498.5585493218552
 31
0.0
  0
LINE
  5
54F4
330
1A
100
AcDbEntity
  8
225
  6
CENTER
 62
     3
100
AcDbLine
 10
401.9824900240164
 20
484.0585493218553
 30
0.0
 11
382.9824900240164
 21
484.0585493218553
 31
0.0
  0
ARC
  5
54F5
330
1A
100
AcDbEntity
  8
150
  6
CONTINUOUS
100
AcDbCircle
 10
392.4824500240164
 20
481.2300673218551
 30
0.0
 40
1.0
100
AcDbArc
 50
44.99998300000108
 51
134.9999859999998
  0
CIRCLE
  5
54F6
330
1A
100
AcDbEntity
  8
150
  6
CONTINUOUS
100
AcDbCircle
 10
392.4824510240164
 20
484.0584943218552
 30
0.0
 40
7.0
  0
ARC
  5
54F7
330
1A
100
AcDbEntity
  8
150
  6
CONTINUOUS
100
AcDbCircle
 10
392.4824520240164
 20
486.8869213218552
 30
0.0
 40
1.0
100
AcDbArc
 50
224.9999880000016
 51
314.9999840000002
  0
LINE
  5
54F8
330
1A
100
AcDbEntity
  8
150
  6
CONTINUOUS
 62
     7
100
AcDbLine
 10
402.9824900240164
 20
477.0585493218552
 30
0.0
 11
389.4824900240164
 21
477.0585493218552
 31
0.0
  0
LINE
  5
54F9
330
1A
100
AcDbEntity
  8
150
  6
CONTINUOUS
 62
     7
100
AcDbLine
 10
402.9824900240164
 20
491.0585493218552
 30
0.0
 11
389.4824900240164
 21
491.0585493218552
 31
0.0
  0
LINE
  5
54FA
330
1A
100
AcDbEntity
  8
150
  6
CONTINUOUS
100
AcDbLine
 10
391.7753980240164
 20
486.179857321855
 30
0.0
 11
390.4318920240165
 21
487.5233633218551
 31
0.0
  0
LINE
  5
54FB
330
1A
100
AcDbEntity
  8
150
  6
CONTINUOUS
100
AcDbLine
 10
390.4318920240165
 20
487.5233633218551
 30
0.0
 11
389.0176770240164
 21
486.1091483218551
 31
0.0
  0
LINE
  5
54FC
330
1A
100
AcDbEntity
  8
150
  6
CONTINUOUS
100
AcDbLine
 10
385.4824900240164
 20
487.0585493218552
 30
0.0
 11
385.4824900240164
 21
481.0585493218552
 31
0.0
  0
ARC
  5
54FD
330
1A
100
AcDbEntity
  8
150
  6
CONTINUOUS
100
AcDbCircle
 10
389.6540240240164
 20
484.0584953218551
 30
0.0
 40
1.0
100
AcDbArc
 50
314.9999840000002
 51
44.99999300000106
  0
LINE
  5
54FE
330
1A
100
AcDbEntity
  8
150
  6
CONTINUOUS
100
AcDbLine
 10
389.0176770240164
 20
486.1091483218551
 30
0.0
 11
390.3611830240164
 21
484.7656423218552
 31
0.0
  0
LINE
  5
54FF
330
1A
100
AcDbEntity
  8
150
  6
CONTINUOUS
100
AcDbLine
 10
390.3611830240164
 20
483.3514573218551
 30
0.0
 11
389.0176770240164
 21
482.0079513218551
 31
0.0
  0
LINE
  5
5500
330
1A
100
AcDbEntity
  8
150
  6
CONTINUOUS
100
AcDbLine
 10
389.0176770240164
 20
482.0079513218551
 30
0.0
 11
390.4318920240165
 21
480.5937363218552
 31
0.0
  0
LINE
  5
5501
330
1A
100
AcDbEntity
  8
150
  6
CONTINUOUS
100
AcDbLine
 10
390.4318920240165
 20
480.5937363218552
 30
0.0
 11
391.7753980240164
 21
481.9372423218551
 31
0.0
  0
ARC
  5
5502
330
1A
100
AcDbEntity
  8
150
  6
CONTINUOUS
100
AcDbCircle
 10
389.4824900240164
 20
481.0585493218552
 30
0.0
 40
4.0
100
AcDbArc
 50
180.0000050000005
 51
270.0000009999997
  0
ARC
  5
5503
330
1A
100
AcDbEntity
  8
150
  6
CONTINUOUS
100
AcDbCircle
 10
389.4824900240164
 20
487.0585493218552
 30
0.0
 40
4.0
100
AcDbArc
 50
90.0
 51
180.0000029999976
  0
LINE
  5
5504
330
1A
100
AcDbEntity
  8
150
  6
CONTINUOUS
100
AcDbLine
 10
395.9473040240164
 20
486.1091483218551
 30
0.0
 11
394.5330890240164
 21
487.5233633218551
 31
0.0
  0
LINE
  5
5505
330
1A
100
AcDbEntity
  8
150
  6
CONTINUOUS
100
AcDbLine
 10
394.5330890240164
 20
487.5233633218551
 30
0.0
 11
393.1895830240164
 21
486.179857321855
 31
0.0
  0
ARC
  5
5506
330
1A
100
AcDbEntity
  8
150
  6
CONTINUOUS
100
AcDbCircle
 10
395.3108780240164
 20
484.0584933218551
 30
0.0
 40
1.0
100
AcDbArc
 50
134.9999859999998
 51
224.9999880000016
  0
LINE
  5
5507
330
1A
100
AcDbEntity
  8
150
  6
CONTINUOUS
100
AcDbLine
 10
393.1895830240164
 20
481.9372423218551
 30
0.0
 11
394.5330890240164
 21
480.5937363218552
 31
0.0
  0
LINE
  5
5508
330
1A
100
AcDbEntity
  8
150
  6
CONTINUOUS
100
AcDbLine
 10
394.5330890240164
 20
480.5937363218552
 30
0.0
 11
395.9473040240164
 21
482.0079513218551
 31
0.0
  0
LINE
  5
5509
330
1A
100
AcDbEntity
  8
150
  6
CONTINUOUS
100
AcDbLine
 10
395.9473040240164
 20
482.0079513218551
 30
0.0
 11
394.6037980240164
 21
483.3514573218551
 31
0.0
  0
LINE
  5
550A
330
1A
100
AcDbEntity
  8
150
  6
CONTINUOUS
100
AcDbLine
 10
394.6037980240164
 20
484.7656423218552
 30
0.0
 11
395.9473040240164
 21
486.1091483218551
 31
0.0
  0
LINE
  5
550B
330
1A
100
AcDbEntity
  8
150
  6
CONTINUOUS
100
AcDbLine
 10
401.9824900240164
 20
498.0585493218552
 30
0.0
 11
397.9824900240164
 21
498.0585493218552
 31
0.0
  0
LINE
  5
550C
330
1A
100
AcDbEntity
  8
225
  6
CENTER
 62
     3
100
AcDbLine
 10
441.4825520240165
 20
431.5585493218552
 30
0.0
 11
423.4825520240165
 21
431.5585493218552
 31
0.0
  0
LINE
  5
550D
330
1A
100
AcDbEntity
  8
0
  6
CONTINUOUS
 62
     2
100
AcDbLine
 10
432.4825520240165
 20
438.5585493218552
 30
0.0
 11
439.4824900240164
 21
438.5585493218552
 31
0.0
  0
ARC
  5
550E
330
1A
100
AcDbEntity
  8
150
  6
CENTER
100
AcDbCircle
 10
432.4825780240164
 20
433.6798743218553
 30
0.0
 40
0.75
100
AcDbArc
 50
224.9999880000016
 51
314.9999840000002
  0
ARC
  5
550F
330
1A
100
AcDbEntity
  8
150
  6
CENTER
100
AcDbCircle
 10
432.4825760240164
 20
429.4372343218551
 30
0.0
 40
0.75
100
AcDbArc
 50
44.99998300000108
 51
134.9999859999998
  0
LINE
  5
5510
330
1A
100
AcDbEntity
  8
150
  6
CENTER
100
AcDbLine
 10
431.9522170240165
 20
433.1495533218551
 30
0.0
 11
430.7855300240164
 21
434.3162703218552
 31
0.0
  0
LINE
  5
5511
330
1A
100
AcDbEntity
  8
150
  6
CENTER
100
AcDbLine
 10
430.7855300240164
 20
434.3162703218552
 30
0.0
 11
429.7248610240164
 21
433.2556013218552
 31
0.0
  0
ARC
  5
5512
330
1A
100
AcDbEntity
  8
150
  6
CENTER
100
AcDbCircle
 10
430.3612560240164
 20
431.5585553218552
 30
0.0
 40
0.75
100
AcDbArc
 50
314.9999840000002
 51
44.99999300000106
  0
LINE
  5
5513
330
1A
100
AcDbEntity
  8
150
  6
CENTER
100
AcDbLine
 10
429.7248610240164
 20
433.2556013218552
 30
0.0
 11
430.8915480240165
 21
432.0888843218551
 31
0.0
  0
LINE
  5
5514
330
1A
100
AcDbEntity
  8
150
  6
CENTER
100
AcDbLine
 10
429.7248000240164
 20
429.861467321855
 30
0.0
 11
430.7854690240165
 21
428.8008283218553
 31
0.0
  0
LINE
  5
5515
330
1A
100
AcDbEntity
  8
150
  6
CENTER
100
AcDbLine
 10
430.7854690240165
 20
428.8008283218553
 30
0.0
 11
431.9522170240165
 21
429.9675463218552
 31
0.0
  0
LINE
  5
5516
330
1A
100
AcDbEntity
  8
150
  6
CENTER
100
AcDbLine
 10
430.8915480240165
 20
431.0282153218552
 30
0.0
 11
429.7248000240164
 21
429.861467321855
 31
0.0
  0
ARC
  5
5517
330
1A
100
AcDbEntity
  8
150
  6
CENTER
100
AcDbCircle
 10
434.6038970240165
 20
431.5585533218552
 30
0.0
 40
0.75
100
AcDbArc
 50
134.9999859999998
 51
224.9999880000016
  0
ARC
  5
5518
330
1A
100
AcDbEntity
  8
0
  6
CONTINUOUS
 62
     2
100
AcDbCircle
 10
439.4824900240164
 20
439.5585493218552
 30
0.0
 40
1.0
100
AcDbArc
 50
270.0
 51
0.000008999999603
  0
LINE
  5
5519
330
1A
100
AcDbEntity
  8
150
  6
CENTER
100
AcDbLine
 10
434.1796340240165
 20
434.3162703218552
 30
0.0
 11
433.0128860240164
 21
433.1495533218551
 31
0.0
  0
LINE
  5
551A
330
1A
100
AcDbEntity
  8
150
  6
CENTER
100
AcDbLine
 10
435.2403030240164
 20
433.2556323218552
 30
0.0
 11
434.1796340240165
 21
434.3162703218552
 31
0.0
  0
LINE
  5
551B
330
1A
100
AcDbEntity
  8
150
  6
CENTER
100
AcDbLine
 10
433.0128860240164
 20
429.9675463218552
 30
0.0
 11
434.1795730240164
 21
428.8008283218553
 31
0.0
  0
LINE
  5
551C
330
1A
100
AcDbEntity
  8
150
  6
CENTER
100
AcDbLine
 10
434.1795730240164
 20
428.8008283218553
 30
0.0
 11
435.2402420240165
 21
429.8614973218552
 31
0.0
  0
LINE
  5
551D
330
1A
100
AcDbEntity
  8
150
  6
CENTER
100
AcDbLine
 10
435.2402420240165
 20
429.8614973218552
 30
0.0
 11
434.0735550240164
 21
431.0282153218552
 31
0.0
  0
LINE
  5
551E
330
1A
100
AcDbEntity
  8
150
  6
CENTER
100
AcDbLine
 10
434.0735550240164
 20
432.0888843218551
 30
0.0
 11
435.2403030240164
 21
433.2556323218552
 31
0.0
  0
ARC
  5
551F
330
1A
100
AcDbEntity
  8
150
  6
PHANTOM2
 62
     7
100
AcDbCircle
 10
440.9824900240164
 20
496.5585493218553
 30
0.0
 40
2.0
100
AcDbArc
 50
0.0
 51
90.00000299999932
  0
ARC
  5
5520
330
1A
100
AcDbEntity
  8
0
  6
CONTINUOUS
 62
     2
100
AcDbCircle
 10
436.4824900240164
 20
495.0585493218552
 30
0.0
 40
4.0
100
AcDbArc
 50
0.0
 51
90.00000299999932
  0
LINE
  5
5521
330
1A
100
AcDbEntity
  8
210
  6
CONTINUOUS
 62
     4
100
AcDbLine
 10
432.4825670240165
 20
519.0585813218551
 30
0.0
 11
430.5105400240164
 21
518.7252483218551
 31
0.0
  0
LINE
  5
5522
330
1A
100
AcDbEntity
  8
210
  6
CONTINUOUS
 62
     4
100
AcDbLine
 10
432.4825670240165
 20
519.0585813218551
 30
0.0
 11
430.5105400240164
 21
519.3919143218551
 31
0.0
  0
TEXT
  5
5523
330
1A
100
AcDbEntity
  8
210
  6
CONTINUOUS
 62
     4
100
AcDbText
 10
318.2324750240165
 20
542.1835813218551
 30
0.0
 40
5.0
  1
230
100
AcDbText
  0
TEXT
  5
5524
330
1A
100
AcDbEntity
  8
210
  6
CONTINUOUS
 62
     4
100
AcDbText
 10
319.8575060240164
 20
522.1835813218551
 30
0.0
 40
5.0
  1
214
100
AcDbText
  0
LINE
  5
5525
330
1A
100
AcDbEntity
  8
210
  6
CONTINUOUS
 62
     4
100
AcDbLine
 10
440.4825060240165
 20
539.0585813218551
 30
0.0
 11
438.5104790240164
 21
538.7252483218551
 31
0.0
  0
LINE
  5
5526
330
1A
100
AcDbEntity
  8
210
  6
CONTINUOUS
 62
     4
100
AcDbLine
 10
440.4825060240165
 20
539.0585813218551
 30
0.0
 11
438.5104790240164
 21
539.3919143218552
 31
0.0
  0
LINE
  5
5527
330
1A
100
AcDbEntity
  8
210
  6
CONTINUOUS
 62
     4
100
AcDbLine
 10
497.4825360240163
 20
141.4603453218551
 30
0.0
 11
497.4825360240163
 21
191.4603453218551
 31
0.0
  0
LINE
  5
5528
330
1A
100
AcDbEntity
  8
210
  6
CONTINUOUS
 62
     4
100
AcDbLine
 10
497.4825360240163
 20
141.4603453218551
 30
0.0
 11
497.1492030240162
 21
143.4323713218551
 31
0.0
  0
LINE
  5
5529
330
1A
100
AcDbEntity
  8
210
  6
CONTINUOUS
 62
     4
100
AcDbLine
 10
497.4825360240163
 20
141.4603453218551
 30
0.0
 11
497.8158700240163
 21
143.4323713218551
 31
0.0
  0
LINE
  5
552A
330
1A
100
AcDbEntity
  8
210
  6
CONTINUOUS
 62
     4
100
AcDbLine
 10
477.4825360240164
 20
191.4603453218551
 30
0.0
 11
477.4825360240164
 21
253.4603453218551
 31
0.0
  0
LINE
  5
552C
330
1A
100
AcDbEntity
  8
210
  6
CONTINUOUS
 62
     4
100
AcDbLine
 10
477.4825360240164
 20
191.4603453218551
 30
0.0
 11
477.4825360240164
 21
163.9603453218551
 31
0.0
  0
LINE
  5
552D
330
1A
100
AcDbEntity
  8
210
  6
CONTINUOUS
 62
     4
100
AcDbLine
 10
477.4825360240164
 20
163.9603453218551
 30
0.0
 11
477.1492030240164
 21
165.9323713218551
 31
0.0
  0
LINE
  5
552E
330
1A
100
AcDbEntity
  8
210
  6
CONTINUOUS
 62
     4
100
AcDbLine
 10
477.4825360240164
 20
163.9603453218551
 30
0.0
 11
477.8158700240164
 21
165.9323713218551
 31
0.0
  0
LINE
  5
552F
330
1A
100
AcDbEntity
  8
210
  6
CONTINUOUS
 62
     4
100
AcDbLine
 10
477.4825360240164
 20
191.4603453218551
 30
0.0
 11
477.1492030240164
 21
189.4883183218551
 31
0.0
  0
LINE
  5
5530
330
1A
100
AcDbEntity
  8
210
  6
CONTINUOUS
 62
     4
100
AcDbLine
 10
477.4825360240164
 20
191.4603453218551
 30
0.0
 11
477.8158700240164
 21
189.4883183218551
 31
0.0
  0
LINE
  5
5531
330
1A
100
AcDbEntity
  8
210
  6
CONTINUOUS
 62
     4
100
AcDbLine
 10
477.4825360240164
 20
191.4603453218551
 30
0.0
 11
477.1492030240164
 21
193.4323713218552
 31
0.0
  0
LINE
  5
5532
330
1A
100
AcDbEntity
  8
210
  6
CONTINUOUS
 62
     4
100
AcDbLine
 10
477.4825360240164
 20
191.4603453218551
 30
0.0
 11
477.8158700240164
 21
193.4323713218552
 31
0.0
  0
LINE
  5
5533
330
1A
100
AcDbEntity
  8
210
  6
CONTINUOUS
 62
     4
100
AcDbLine
 10
497.4825360240164
 20
191.4603453218551
 30
0.0
 11
497.1492030240163
 21
189.4883183218551
 31
0.0
  0
LINE
  5
5534
330
1A
100
AcDbEntity
  8
210
  6
CONTINUOUS
 62
     4
100
AcDbLine
 10
497.4825360240164
 20
191.4603453218551
 30
0.0
 11
497.8158700240165
 21
189.4883183218551
 31
0.0
  0
LINE
  5
5535
330
1A
100
AcDbEntity
  8
210
  6
CONTINUOUS
 62
     4
100
AcDbLine
 10
497.4825360240164
 20
191.4603453218551
 30
0.0
 11
497.4825360240164
 21
186.1283443218551
 31
0.0
  0
TEXT
  5
5536
330
1A
100
AcDbEntity
  8
210
  6
CONTINUOUS
 62
     4
100
AcDbText
 10
494.3575360240163
 20
161.8770113218552
 30
0.0
 40
5.0
  1
50
 50
90.00000299999932
100
AcDbText
  0
LINE
  5
5537
330
1A
100
AcDbEntity
  8
210
  6
CONTINUOUS
 62
     4
100
AcDbLine
 10
497.4825360240163
 20
191.4603453218551
 30
0.0
 11
497.1492030240162
 21
189.4883183218551
 31
0.0
  0
LINE
  5
5538
330
1A
100
AcDbEntity
  8
210
  6
CONTINUOUS
 62
     4
100
AcDbLine
 10
497.4825360240163
 20
191.4603453218551
 30
0.0
 11
497.8158700240163
 21
189.4883183218551
 31
0.0
  0
LINE
  5
553B
330
1A
100
AcDbEntity
  8
210
  6
CONTINUOUS
 62
     4
100
AcDbLine
 10
477.4825360240164
 20
253.4603453218551
 30
0.0
 11
477.1492030240164
 21
251.4883183218551
 31
0.0
  0
LINE
  5
553C
330
1A
100
AcDbEntity
  8
210
  6
CONTINUOUS
 62
     4
100
AcDbLine
 10
477.4825360240164
 20
253.4603453218551
 30
0.0
 11
477.8158700240164
 21
251.4883183218551
 31
0.0
  0
LINE
  5
5545
330
1A
100
AcDbEntity
  8
210
  6
CONTINUOUS
 62
     4
100
AcDbLine
 10
477.4825360240164
 20
454.0585503218551
 30
0.0
 11
477.4825360240164
 21
424.0585503218551
 31
0.0
  0
LINE
  5
5546
330
1A
100
AcDbEntity
  8
210
  6
CONTINUOUS
 62
     4
100
AcDbLine
 10
497.4825360240164
 20
499.0585503218551
 30
0.0
 11
497.4825360240164
 21
409.0585503218551
 31
0.0
  0
LINE
  5
5547
330
1A
100
AcDbEntity
  8
210
  6
CONTINUOUS
 62
     4
100
AcDbLine
 10
477.4825360240164
 20
424.0585503218551
 30
0.0
 11
477.1492030240164
 21
426.0305773218552
 31
0.0
  0
LINE
  5
5548
330
1A
100
AcDbEntity
  8
210
  6
CONTINUOUS
 62
     4
100
AcDbLine
 10
477.4825360240164
 20
424.0585503218551
 30
0.0
 11
477.8158700240164
 21
426.0305773218552
 31
0.0
  0
LINE
  5
5549
330
1A
100
AcDbEntity
  8
210
  6
CONTINUOUS
 62
     4
100
AcDbLine
 10
497.4825360240164
 20
409.0585503218551
 30
0.0
 11
497.1492030240163
 21
411.0305773218551
 31
0.0
  0
LINE
  5
554A
330
1A
100
AcDbEntity
  8
210
  6
CONTINUOUS
 62
     4
100
AcDbLine
 10
497.4825360240164
 20
409.0585503218551
 30
0.0
 11
497.8158700240165
 21
411.0305773218551
 31
0.0
  0
LINE
  5
554B
330
1A
100
AcDbEntity
  8
210
  6
CONTINUOUS
 62
     4
100
AcDbLine
 10
477.4825360240164
 20
484.0585503218551
 30
0.0
 11
477.4825360240164
 21
454.0585503218551
 31
0.0
  0
TEXT
  5
554C
330
1A
100
AcDbEntity
  8
210
  6
CONTINUOUS
 62
     4
100
AcDbText
 10
494.3575360240164
 20
449.3085503218551
 30
0.0
 40
5.0
  1
90
 50
90.00000299999932
100
AcDbText
  0
LINE
  5
554D
330
1A
100
AcDbEntity
  8
210
  6
CONTINUOUS
 62
     4
100
AcDbLine
 10
477.4825360240164
 20
454.0585503218551
 30
0.0
 11
477.1492030240164
 21
456.0305773218551
 31
0.0
  0
LINE
  5
554E
330
1A
100
AcDbEntity
  8
210
  6
CONTINUOUS
 62
     4
100
AcDbLine
 10
477.4825360240164
 20
454.0585503218551
 30
0.0
 11
477.8158700240164
 21
456.0305773218551
 31
0.0
  0
LINE
  5
554F
330
1A
100
AcDbEntity
  8
210
  6
CONTINUOUS
 62
     4
100
AcDbLine
 10
477.4825360240164
 20
454.0585503218551
 30
0.0
 11
477.1492030240164
 21
452.0865243218552
 31
0.0
  0
LINE
  5
5550
330
1A
100
AcDbEntity
  8
210
  6
CONTINUOUS
 62
     4
100
AcDbLine
 10
477.4825360240164
 20
454.0585503218551
 30
0.0
 11
477.8158700240164
 21
452.0865243218552
 31
0.0
  0
LINE
  5
5551
330
1A
100
AcDbEntity
  8
210
  6
CONTINUOUS
 62
     4
100
AcDbLine
 10
497.4825360240164
 20
499.0585503218551
 30
0.0
 11
497.1492030240163
 21
497.0865243218552
 31
0.0
  0
LINE
  5
5552
330
1A
100
AcDbEntity
  8
210
  6
CONTINUOUS
 62
     4
100
AcDbLine
 10
497.4825360240164
 20
499.0585503218551
 30
0.0
 11
497.8158700240165
 21
497.0865243218552
 31
0.0
  0
LINE
  5
5553
330
1A
100
AcDbEntity
  8
210
  6
CONTINUOUS
 62
     4
100
AcDbLine
 10
477.4825360240164
 20
484.0585503218551
 30
0.0
 11
477.1492030240164
 21
482.0865243218552
 31
0.0
  0
LINE
  5
5554
330
1A
100
AcDbEntity
  8
210
  6
CONTINUOUS
 62
     4
100
AcDbLine
 10
477.4825360240164
 20
484.0585503218551
 30
0.0
 11
477.8158700240164
 21
482.0865243218552
 31
0.0
  0
LINE
  5
5555
330
1A
100
AcDbEntity
  8
225
  6
CENTER
 62
     3
100
AcDbLine
 10
325.4824900240164
 20
336.4603443218552
 30
0.0
 11
325.4824900240164
 21
89.9603593218552
 31
0.0
  0
LINE
  5
5556
330
1A
100
AcDbEntity
  8
170
  6
PHANTOM2
100
AcDbLine
 10
330.4824600240164
 20
158.9603443218551
 30
0.0
 11
330.4824600240164
 21
109.9603593218552
 31
0.0
  0
LINE
  5
5557
330
1A
100
AcDbEntity
  8
225
  6
CENTER
 62
     3
100
AcDbLine
 10
395.4824900240164
 20
176.9603443218551
 30
0.0
 11
395.4824900240164
 21
89.9603593218552
 31
0.0
  0
LINE
  5
5558
330
1A
100
AcDbEntity
  8
225
  6
CENTER
 62
     3
100
AcDbLine
 10
255.4824600240164
 20
176.9603443218551
 30
0.0
 11
255.4824600240164
 21
89.9603593218552
 31
0.0
  0
LINE
  5
5559
330
1A
100
AcDbEntity
  8
170
  6
PHANTOM2
100
AcDbLine
 10
320.4824900240164
 20
158.9603443218551
 30
0.0
 11
320.4824900240164
 21
109.9603593218552
 31
0.0
  0
LINE
  5
555A
330
1A
100
AcDbEntity
  8
170
  6
PHANTOM2
100
AcDbLine
 10
250.4824600240164
 20
158.9603443218551
 30
0.0
 11
250.4824600240164
 21
109.9603593218552
 31
0.0
  0
LINE
  5
555B
330
1A
100
AcDbEntity
  8
170
  6
PHANTOM2
100
AcDbLine
 10
260.4824600240164
 20
158.9603443218551
 30
0.0
 11
260.4824600240164
 21
109.9603593218552
 31
0.0
  0
LINE
  5
555C
330
1A
100
AcDbEntity
  8
170
  6
PHANTOM2
100
AcDbLine
 10
390.4824900240164
 20
158.9603443218551
 30
0.0
 11
390.4824900240164
 21
109.9603593218552
 31
0.0
  0
LINE
  5
555D
330
1A
100
AcDbEntity
  8
170
  6
PHANTOM2
100
AcDbLine
 10
400.4824900240164
 20
158.9603443218551
 30
0.0
 11
400.4824900240164
 21
109.9603593218552
 31
0.0
  0
LINE
  5
557C
330
1A
100
AcDbEntity
  8
225
  6
CENTER
 62
     3
100
AcDbLine
 10
607.3764269830226
 20
229.2513637263539
 30
0.0
 11
915.3764269830226
 21
229.2513637263539
 31
0.0
  0
LINE
  5
557D
330
1A
100
AcDbEntity
  8
170
  6
PHANTOM2
 62
     1
100
AcDbLine
 10
653.3764269830226
 20
184.251332726354
 30
0.0
 11
869.3764269830225
 21
184.251332726354
 31
0.0
  0
LINE
  5
557E
330
1A
100
AcDbEntity
  8
170
  6
PHANTOM2
 62
     1
100
AcDbLine
 10
653.3764269830226
 20
274.2513637263539
 30
0.0
 11
869.3764269830225
 21
274.2513637263539
 31
0.0
  0
LINE
  5
5582
330
1A
100
AcDbEntity
  8
225
  6
CENTER
 62
     3
100
AcDbLine
 10
761.3764269830226
 20
304.2513637263539
 30
0.0
 11
761.3764269830226
 21
156.751378726354
 31
0.0
  0
LINE
  5
5583
330
1A
100
AcDbEntity
  8
170
  6
PHANTOM2
 62
     1
100
AcDbLine
 10
646.3764269830226
 20
191.251332726354
 30
0.0
 11
646.3764269830226
 21
267.2513637263539
 31
0.0
  0
LINE
  5
5584
330
1A
100
AcDbEntity
  8
10
  6
CONTINUOUS
100
AcDbLine
 10
715.3764269830226
 20
294.2513637263539
 30
0.0
 11
715.3764269830226
 21
164.251332726354
 31
0.0
  0
ARC
  5
5587
330
1A
100
AcDbEntity
  8
170
  6
PHANTOM2
 62
     1
100
AcDbCircle
 10
653.3764269830226
 20
191.251332726354
 30
0.0
 40
7.0
100
AcDbArc
 50
180.0000050000005
 51
270.0000009999949
  0
ARC
  5
5588
330
1A
100
AcDbEntity
  8
170
  6
PHANTOM2
 62
     1
100
AcDbCircle
 10
653.3764269830226
 20
267.2513637263539
 30
0.0
 40
7.0
100
AcDbArc
 50
90.0
 51
180.0000029999976
  0
LINE
  5
558E
330
1A
100
AcDbEntity
  8
170
  6
PHANTOM2
 62
     1
100
AcDbLine
 10
876.3764269830225
 20
191.251332726354
 30
0.0
 11
876.3764269830225
 21
267.2513637263539
 31
0.0
  0
LINE
  5
558F
330
1A
100
AcDbEntity
  8
10
  6
CONTINUOUS
100
AcDbLine
 10
807.3764269830226
 20
294.2513637263539
 30
0.0
 11
807.3764269830226
 21
164.251332726354
 31
0.0
  0
ARC
  5
5591
330
1A
100
AcDbEntity
  8
170
  6
PHANTOM2
 62
     1
100
AcDbCircle
 10
869.3764269830225
 20
191.251332726354
 30
0.0
 40
7.0
100
AcDbArc
 50
270.0
 51
0.000008999999603
  0
ARC
  5
5593
330
1A
100
AcDbEntity
  8
170
  6
PHANTOM2
 62
     1
100
AcDbCircle
 10
869.3764269830225
 20
267.2513637263539
 30
0.0
 40
7.0
100
AcDbArc
 50
0.0
 51
90.00000299999769
  0
LINE
  5
5596
330
1A
100
AcDbEntity
  8
170
  6
PHANTOM2
 62
     1
100
AcDbLine
 10
653.3764269830226
 20
499.0585503218551
 30
0.0
 11
869.3764269830225
 21
499.0585503218551
 31
0.0
  0
LINE
  5
5599
330
1A
100
AcDbEntity
  8
170
  6
PHANTOM2
 62
     1
100
AcDbLine
 10
653.3764269830226
 20
409.0584893218554
 30
0.0
 11
869.3764269830225
 21
409.0584893218554
 31
0.0
  0
LINE
  5
559A
330
1A
100
AcDbEntity
  8
225
  6
CENTER
 62
     3
100
AcDbLine
 10
589.3764269830226
 20
454.0585503218551
 30
0.0
 11
933.3764269830226
 21
454.0585503218551
 31
0.0
  0
LINE
  5
559B
330
1A
100
AcDbEntity
  8
210
  6
CONTINUOUS
 62
     4
100
AcDbLine
 10
857.5020379830226
 20
431.5585503218551
 30
0.0
 11
566.3764269830226
 21
431.5585503218551
 31
0.0
  0
LINE
  5
559F
330
1A
100
AcDbEntity
  8
170
  6
CONTINUOUS
100
AcDbLine
 10
666.0431749830227
 20
511.5585503218551
 30
0.0
 11
669.3764269830226
 21
514.0585503218551
 31
0.0
  0
LINE
  5
55A0
330
1A
100
AcDbEntity
  8
170
  6
CONTINUOUS
100
AcDbLine
 10
666.0431749830227
 20
391.5584893218554
 30
0.0
 11
669.3764269830226
 21
394.0584893218554
 31
0.0
  0
TEXT
  5
55A3
330
1A
100
AcDbEntity
  8
210
  6
CONTINUOUS
 62
     4
100
AcDbText
 10
566.1370881913224
 20
449.3725362992163
 30
0.0
 40
5.0
  1
45
 50
90.00000299999932
100
AcDbText
  0
LINE
  5
55A4
330
1A
100
AcDbEntity
  8
170
  6
PHANTOM2
 62
     1
100
AcDbLine
 10
646.3764269830226
 20
416.0584893218554
 30
0.0
 11
646.3764269830226
 21
492.0585503218551
 31
0.0
  0
LINE
  5
55A5
330
1A
100
AcDbEntity
  8
170
  6
CONTINUOUS
100
AcDbLine
 10
629.3764269830226
 20
514.0585503218551
 30
0.0
 11
629.3764269830226
 21
394.0584893218554
 31
0.0
  0
LINE
  5
55A6
330
1A
100
AcDbEntity
  8
170
  6
DASHED
100
AcDbLine
 10
634.3765489830227
 20
517.4961113218553
 30
0.0
 11
634.3765489830227
 21
397.4960503218551
 31
0.0
  0
LINE
  5
55A7
330
1A
100
AcDbEntity
  8
210
  6
CONTINUOUS
 62
     4
100
AcDbLine
 10
569.3764269830226
 20
476.5585503218551
 30
0.0
 11
569.3764269830226
 21
431.5585503218551
 31
0.0
  0
LINE
  5
55A8
330
1A
100
AcDbEntity
  8
210
  6
CONTINUOUS
 62
     4
100
AcDbLine
 10
569.3764269830226
 20
431.5585503218551
 30
0.0
 11
569.7097609830225
 21
433.5305773218554
 31
0.0
  0
LINE
  5
55A9
330
1A
100
AcDbEntity
  8
210
  6
CONTINUOUS
 62
     4
100
AcDbLine
 10
569.3764269830226
 20
431.5585503218551
 30
0.0
 11
569.0430939830226
 21
433.5305773218554
 31
0.0
  0
LINE
  5
55AA
330
1A
100
AcDbEntity
  8
170
  6
CONTINUOUS
100
AcDbLine
 10
632.7098009830226
 20
396.5584893218554
 30
0.0
 11
639.3765489830228
 21
401.5584893218553
 31
0.0
  0
LINE
  5
55AB
330
1A
100
AcDbEntity
  8
170
  6
CONTINUOUS
100
AcDbLine
 10
629.3764269830226
 20
394.0584893218554
 30
0.0
 11
632.7098009830226
 21
396.5584893218554
 31
0.0
  0
LINE
  5
55AC
330
1A
100
AcDbEntity
  8
170
  6
CONTINUOUS
100
AcDbLine
 10
649.3765489830227
 20
394.0584893218554
 30
0.0
 11
659.3765489830227
 21
386.5584893218553
 31
0.0
  0
LINE
  5
55AD
330
1A
100
AcDbEntity
  8
170
  6
CONTINUOUS
100
AcDbLine
 10
639.3765489830228
 20
401.5584893218553
 30
0.0
 11
649.3765489830227
 21
394.0584893218554
 31
0.0
  0
LINE
  5
55AE
330
1A
100
AcDbEntity
  8
170
  6
CONTINUOUS
100
AcDbLine
 10
659.3765489830227
 20
386.5584893218553
 30
0.0
 11
666.0431749830227
 21
391.5584893218554
 31
0.0
  0
ARC
  5
55AF
330
1A
100
AcDbEntity
  8
170
  6
PHANTOM2
 62
     1
100
AcDbCircle
 10
653.3764269830226
 20
416.0584893218554
 30
0.0
 40
7.0
100
AcDbArc
 50
180.0000050000005
 51
270.0000009999949
  0
LINE
  5
55B0
330
1A
100
AcDbEntity
  8
210
  6
CONTINUOUS
 62
     4
100
AcDbLine
 10
643.5021599830227
 20
476.5585503218551
 30
0.0
 11
566.3764269830226
 21
476.5585503218551
 31
0.0
  0
LINE
  5
55B1
330
1A
100
AcDbEntity
  8
210
  6
CONTINUOUS
 62
     4
100
AcDbLine
 10
569.3764269830226
 20
476.5585503218551
 30
0.0
 11
569.7097609830225
 21
474.5865233218553
 31
0.0
  0
LINE
  5
55B2
330
1A
100
AcDbEntity
  8
210
  6
CONTINUOUS
 62
     4
100
AcDbLine
 10
569.3764269830226
 20
476.5585503218551
 30
0.0
 11
569.0430939830226
 21
474.5865233218553
 31
0.0
  0
ARC
  5
55B3
330
1A
100
AcDbEntity
  8
170
  6
PHANTOM2
 62
     1
100
AcDbCircle
 10
653.3764269830226
 20
492.0585503218551
 30
0.0
 40
7.0
100
AcDbArc
 50
90.0
 51
180.0000029999976
  0
CIRCLE
  5
55B4
330
1A
100
AcDbEntity
  8
10
  6
CONTINUOUS
100
AcDbCircle
 10
654.3765489830227
 20
476.5585503218551
 30
0.0
 40
2.458499999999999
  0
CIRCLE
  5
55B5
330
1A
100
AcDbEntity
  8
10
  6
CONTINUOUS
100
AcDbCircle
 10
654.3765489830227
 20
476.5585503218551
 30
0.0
 40
3.0
  0
LINE
  5
55B6
330
1A
100
AcDbEntity
  8
225
  6
CONTINUOUS
 62
     3
100
AcDbLine
 10
654.3765489830227
 20
487.0585503218551
 30
0.0
 11
654.3765489830227
 21
466.0585503218551
 31
0.0
  0
LINE
  5
55B7
330
1A
100
AcDbEntity
  8
225
  6
CONTINUOUS
 62
     3
100
AcDbLine
 10
664.8765489830227
 20
476.5585503218551
 30
0.0
 11
643.8765489830228
 21
476.5585503218551
 31
0.0
  0
LINE
  5
55BA
330
1A
100
AcDbEntity
  8
170
  6
CONTINUOUS
100
AcDbLine
 10
632.7098009830226
 20
516.5585503218551
 30
0.0
 11
639.3765489830228
 21
521.5585503218551
 31
0.0
  0
LINE
  5
55BB
330
1A
100
AcDbEntity
  8
170
  6
CONTINUOUS
100
AcDbLine
 10
629.3764269830226
 20
514.0585503218551
 30
0.0
 11
632.7098009830226
 21
516.5585503218551
 31
0.0
  0
LINE
  5
55BC
330
1A
100
AcDbEntity
  8
170
  6
CONTINUOUS
100
AcDbLine
 10
649.3765489830227
 20
514.0585503218551
 30
0.0
 11
659.3765489830227
 21
506.5585503218551
 31
0.0
  0
LINE
  5
55BD
330
1A
100
AcDbEntity
  8
170
  6
CONTINUOUS
100
AcDbLine
 10
639.3765489830228
 20
521.5585503218551
 30
0.0
 11
649.3765489830227
 21
514.0585503218551
 31
0.0
  0
LINE
  5
55BE
330
1A
100
AcDbEntity
  8
170
  6
CONTINUOUS
100
AcDbLine
 10
659.3765489830227
 20
506.5585503218551
 30
0.0
 11
666.0431749830227
 21
511.5585503218551
 31
0.0
  0
LINE
  5
55C2
330
1A
100
AcDbEntity
  8
225
  6
CENTER
 62
     3
100
AcDbLine
 10
761.3764269830226
 20
522.4063388808311
 30
0.0
 11
761.3764269830226
 21
384.0584893218554
 31
0.0
  0
LINE
  5
55C3
330
1A
100
AcDbEntity
  8
170
  6
CONTINUOUS
100
AcDbLine
 10
669.3764269830226
 20
514.0585503218551
 30
0.0
 11
669.3764269830226
 21
394.0584893218554
 31
0.0
  0
LINE
  5
55D6
330
1A
100
AcDbEntity
  8
170
  6
PHANTOM2
 62
     1
100
AcDbLine
 10
876.3764269830225
 20
416.0584893218554
 30
0.0
 11
876.3764269830225
 21
492.0585503218551
 31
0.0
  0
LINE
  5
55D7
330
1A
100
AcDbEntity
  8
170
  6
CONTINUOUS
100
AcDbLine
 10
853.3764269830227
 20
514.0585503218551
 30
0.0
 11
853.3764269830227
 21
394.0584893218554
 31
0.0
  0
LINE
  5
55D8
330
1A
100
AcDbEntity
  8
170
  6
CONTINUOUS
100
AcDbLine
 10
893.3764269830225
 20
514.0585503218551
 30
0.0
 11
893.3764269830225
 21
394.0584893218554
 31
0.0
  0
LINE
  5
55D9
330
1A
100
AcDbEntity
  8
170
  6
DASHED
100
AcDbLine
 10
888.3764269830226
 20
510.6210503218551
 30
0.0
 11
888.3764269830226
 21
390.6209893218554
 31
0.0
  0
CIRCLE
  5
55DA
330
1A
100
AcDbEntity
  8
10
  6
CONTINUOUS
100
AcDbCircle
 10
868.3764269830225
 20
431.5585503218551
 30
0.0
 40
3.0
  0
LINE
  5
55DB
330
1A
100
AcDbEntity
  8
225
  6
CONTINUOUS
 62
     3
100
AcDbLine
 10
857.8764269830227
 20
431.5585503218551
 30
0.0
 11
878.8764269830226
 21
431.5585503218551
 31
0.0
  0
LINE
  5
55DC
330
1A
100
AcDbEntity
  8
170
  6
CONTINUOUS
100
AcDbLine
 10
863.3764269830226
 20
401.5584893218553
 30
0.0
 11
873.3764269830226
 21
394.0584893218554
 31
0.0
  0
LINE
  5
55DD
330
1A
100
AcDbEntity
  8
170
  6
CONTINUOUS
100
AcDbLine
 10
853.3764269830227
 20
394.0584893218554
 30
0.0
 11
856.7098009830226
 21
396.5584893218554
 31
0.0
  0
LINE
  5
55DE
330
1A
100
AcDbEntity
  8
170
  6
CONTINUOUS
100
AcDbLine
 10
856.7098009830226
 20
396.5584893218554
 30
0.0
 11
863.3764269830226
 21
401.5584893218553
 31
0.0
  0
LINE
  5
55DF
330
1A
100
AcDbEntity
  8
170
  6
CONTINUOUS
100
AcDbLine
 10
873.3764269830226
 20
394.0584893218554
 30
0.0
 11
883.3764269830226
 21
386.5584893218553
 31
0.0
  0
LINE
  5
55E0
330
1A
100
AcDbEntity
  8
170
  6
CONTINUOUS
100
AcDbLine
 10
890.0431749830227
 20
391.5584893218554
 30
0.0
 11
893.3764269830225
 21
394.0584893218554
 31
0.0
  0
LINE
  5
55E1
330
1A
100
AcDbEntity
  8
170
  6
CONTINUOUS
100
AcDbLine
 10
883.3764269830226
 20
386.5584893218553
 30
0.0
 11
890.0431749830227
 21
391.5584893218554
 31
0.0
  0
CIRCLE
  5
55E2
330
1A
100
AcDbEntity
  8
10
  6
CONTINUOUS
100
AcDbCircle
 10
868.3764269830225
 20
431.5585503218551
 30
0.0
 40
2.458499999999999
  0
LINE
  5
55E3
330
1A
100
AcDbEntity
  8
225
  6
CONTINUOUS
 62
     3
100
AcDbLine
 10
868.3764269830225
 20
442.0585503218551
 30
0.0
 11
868.3764269830225
 21
421.0585503218551
 31
0.0
  0
ARC
  5
55E4
330
1A
100
AcDbEntity
  8
170
  6
PHANTOM2
 62
     1
100
AcDbCircle
 10
869.3764269830225
 20
416.0584893218554
 30
0.0
 40
7.0
100
AcDbArc
 50
270.0
 51
0.000008999999603
  0
LINE
  5
55E6
330
1A
100
AcDbEntity
  8
170
  6
CONTINUOUS
100
AcDbLine
 10
863.3764269830226
 20
521.5585503218551
 30
0.0
 11
873.3764269830226
 21
514.0585503218551
 31
0.0
  0
LINE
  5
55EC
330
1A
100
AcDbEntity
  8
170
  6
CONTINUOUS
100
AcDbLine
 10
856.7098009830226
 20
516.5585503218551
 30
0.0
 11
863.3764269830226
 21
521.5585503218551
 31
0.0
  0
LINE
  5
55ED
330
1A
100
AcDbEntity
  8
170
  6
CONTINUOUS
100
AcDbLine
 10
853.3764269830227
 20
514.0585503218551
 30
0.0
 11
856.7098009830226
 21
516.5585503218551
 31
0.0
  0
ARC
  5
55F1
330
1A
100
AcDbEntity
  8
170
  6
PHANTOM2
 62
     1
100
AcDbCircle
 10
869.3764269830225
 20
492.0585503218551
 30
0.0
 40
7.0
100
AcDbArc
 50
0.0
 51
90.00000299999769
  0
LINE
  5
55F3
330
1A
100
AcDbEntity
  8
170
  6
CONTINUOUS
100
AcDbLine
 10
873.3764269830226
 20
514.0585503218551
 30
0.0
 11
883.3764269830226
 21
506.5585503218551
 31
0.0
  0
LINE
  5
55F4
330
1A
100
AcDbEntity
  8
170
  6
CONTINUOUS
100
AcDbLine
 10
883.3764269830226
 20
506.5585503218551
 30
0.0
 11
890.0431749830227
 21
511.5585503218551
 31
0.0
  0
LINE
  5
55F5
330
1A
100
AcDbEntity
  8
170
  6
CONTINUOUS
100
AcDbLine
 10
890.0431749830227
 20
511.5585503218551
 30
0.0
 11
893.3764269830225
 21
514.0585503218551
 31
0.0
  0
HATCH
  5
5930
330
1A
100
AcDbEntity
  8
170
100
AcDbHatch
 10
0.0
 20
0.0
 30
0.0
210
0.0
220
0.0
230
1.0
  2
ANSI31
 70
     0
 71
     0
 91
        8
 92
        7
 72
     1
 73
     1
 93
        7
 10
654.3764269830226
 20
274.2513637263539
 42
0.0
 10
715.3764269830226
 20
274.2513637263539
 42
0.0
 10
715.3764269830226
 20
285.872684014378
 42
0.0
 10
630.255106583927
 20
285.872684014378
 42
0.0
 10
630.2551065839268
 20
229.2513637263538
 42
0.0
 10
647.3764269830224
 20
229.2513637263538
 42
0.0
 10
647.3764269830226
 20
267.2513637263539
 42
-0.4142135623730935
 97
        0
 92
        7
 72
     1
 73
     1
 93
        5
 10
715.3764269830226
 20
229.2513637263538
 42
0.0
 10
715.3764269830228
 20
274.2513637263539
 42
0.0
 10
654.3764269830226
 20
274.2513637263539
 42
0.4142135623730946
 10
647.3764269830226
 20
267.2513637263539
 42
0.0
 10
647.3764269830226
 20
229.2513637263539
 42
0.0
 97
        0
 92
       22
 72
     1
 73
     1
 93
        5
 10
647.3764269830226
 20
229.2513637263539
 42
0.0
 10
647.3764269830226
 20
191.251332726354
 42
0.4142135623730944
 10
654.3764269830226
 20
184.251332726354
 42
0.0
 10
715.3764269830226
 20
184.251332726354
 42
0.0
 10
715.3764269830226
 20
229.2513637263538
 42
0.0
 97
        0
 92
        7
 72
     1
 73
     1
 93
        7
 10
647.3764269830228
 20
229.2513637263538
 42
0.0
 10
630.2551065839268
 20
229.2513637263539
 42
0.0
 10
630.2551065839268
 20
172.6300434383298
 42
0.0
 10
715.3764269830228
 20
172.6300434383298
 42
0.0
 10
715.3764269830228
 20
184.251332726354
 42
0.0
 10
654.3764269830226
 20
184.251332726354
 42
-0.4142135623730944
 10
647.3764269830226
 20
191.251332726354
 42
0.0
 97
        0
 92
       22
 72
     1
 73
     1
 93
        5
 10
807.3764269830226
 20
274.2513637263539
 42
0.0
 10
807.3764269830226
 20
229.2513637263539
 42
0.0
 10
875.3764269830226
 20
229.2513637263539
 42
0.0
 10
875.3764269830226
 20
267.2513637263539
 42
0.4142135623731042
 10
868.3764269830223
 20
274.2513637263539
 42
0.0
 97
        0
 92
        7
 72
     1
 73
     1
 93
        7
 10
875.3764269830226
 20
267.2513637263536
 42
0.0
 10
875.3764269830226
 20
229.2513637263539
 42
0.0
 10
892.4977473821185
 20
229.2513637263539
 42
0.0
 10
892.4977473821185
 20
285.872684014378
 42
0.0
 10
807.3764269830226
 20
285.872684014378
 42
0.0
 10
807.3764269830224
 20
274.2513637263539
 42
0.0
 10
868.3764269830223
 20
274.2513637263539
 42
-0.4142135623731183
 97
        0
 92
        7
 72
     1
 73
     1
 93
        7
 10
875.3764269830226
 20
191.2513327263541
 42
-0.4142135623730956
 10
868.3764269830225
 20
184.251332726354
 42
0.0
 10
807.3764269830226
 20
184.251332726354
 42
0.0
 10
807.3764269830224
 20
172.6300434383298
 42
0.0
 10
892.4977473821185
 20
172.6300434383298
 42
0.0
 10
892.4977473821185
 20
229.2513637263538
 42
0.0
 10
875.3764269830226
 20
229.2513637263538
 42
0.0
 97
        0
 92
        7
 72
     1
 73
     1
 93
        5
 10
875.3764269830226
 20
229.2513637263539
 42
0.0
 10
807.3764269830224
 20
229.2513637263539
 42
0.0
 10
807.3764269830226
 20
184.251332726354
 42
0.0
 10
868.3764269830225
 20
184.251332726354
 42
0.4142135623730931
 10
875.3764269830226
 20
191.251332726354
 42
0.0
 97
        0
 75
     0
 76
     1
 52
0.0
 41
50.0
 77
     0
 78
     1
 53
45.0
 43
-461.5355776896867
 44
75.24867975954681
 45
-4.419417382415921
 46
4.419417382415922
 79
     0
 47
0.6942909516723887
 98
        8
 10
651.5254556561995
 20
277.620683216757
 10
668.2020280407169
 20
244.294717308104
 10
668.2020280407169
 20
213.7459152251724
 10
643.1871694639412
 20
191.5286046194035
 10
829.4089139581956
 20
252.6262087852671
 10
879.4386369718905
 20
272.0663555653147
 10
882.2180676560247
 20
216.5230790508933
 10
862.7620587272303
 20
202.6372599222879
  0
LINE
  5
5933
330
1A
100
AcDbEntity
  8
210
 62
     4
100
AcDbLine
 10
717.5764269830226
 20
323.3236214053415
 30
0.0
 11
805.1764269830227
 21
323.3236214053415
 31
0.0
  0
LINE
  5
5934
330
1A
100
AcDbEntity
  8
210
 62
     4
100
AcDbLine
 10
715.3764269830226
 20
297.5638637263539
 30
0.0
 11
715.3764269830226
 21
325.8236214053415
 31
0.0
  0
INSERT
  5
5935
330
1A
100
AcDbEntity
  8
210
 62
     4
100
AcDbBlockReference
  2
_OPEN30
 10
715.3764269830226
 20
323.3236214053415
 30
0.0
 41
2.200000000000045
 42
2.200000000000045
 43
2.2
 50
180.0
  0
MTEXT
  5
5936
330
1A
100
AcDbEntity
  8
210
 62
     4
100
AcDbMText
 10
761.3764269830226
 20
327.8236214053415
 30
0.0
 40
5.0
 41
0.0
 71
     5
 72
     1
  1
\A1;92
1001
ACAD
1000
MTEXTBEGIN
1070
    73
1070
     1
1070
    44
1040
1.0
1070
    74
1070
     0
1000
MTEXTEND
1000
MTEXTBEGIN
1070
    73
1070
     1
1070
    44
1040
1.0
1070
    74
1070
     0
1000
MTEXTEND
1000
MTEXTBEGIN
1070
    73
1070
     1
1070
    44
1040
1.0
1070
    74
1070
     0
1000
MTEXTEND
  0
TEXT
  5
5937
330
1A
100
AcDbEntity
  8
230
 62
     6
100
AcDbText
 10
739.8994811177336
 20
315.0567305846511
 30
0.0
 40
5.0
  1
パネルカット幅
100
AcDbText
  0
TEXT
  5
5938
330
1A
100
AcDbEntity
  8
230
 62
     6
100
AcDbText
 10
754.0496730449767
 20
307.0142557263539
 30
0.0
 40
5.0
  1
ASL
100
AcDbText
  0
LINE
  5
5939
330
1A
100
AcDbEntity
  8
210
 62
     4
100
AcDbLine
 10
807.3764269830226
 20
297.5638637263539
 30
0.0
 11
807.3764269830226
 21
325.8236214053415
 31
0.0
  0
INSERT
  5
593A
330
1A
100
AcDbEntity
  8
210
 62
     4
100
AcDbBlockReference
  2
_OPEN30
 10
807.3764269830226
 20
323.3236214053415
 30
0.0
 41
2.200000000000045
 42
2.200000000000045
 43
2.2
  0
LINE
  5
593B
330
1A
100
AcDbEntity
  8
230
  6
CONTINUOUS
 62
     6
100
AcDbLine
 10
704.564698517649
 20
132.6077267988398
 30
0.0
 11
822.3319205613952
 21
132.6077267988398
 31
0.0
  0
TEXT
  5
593C
330
1A
100
AcDbEntity
  8
230
 62
     6
100
AcDbText
 10
710.4199437430788
 20
136.4568467988397
 30
0.0
 40
10.0
  1
パネルカット寸法図
100
AcDbText
  0
TEXT
  5
593D
330
1A
100
AcDbEntity
  8
230
 62
     6
100
AcDbText
 10
729.0489865281524
 20
364.1979128590353
 30
0.0
 40
10.0
  1
取付寸法図
100
AcDbText
  0
LINE
  5
593E
330
1A
100
AcDbEntity
  8
230
  6
CONTINUOUS
 62
     6
100
AcDbLine
 10
715.8113226948881
 20
360.3487928590354
 30
0.0
 11
806.9415312711571
 21
360.3487928590354
 31
0.0
  0
LINE
  5
593F
330
1A
100
AcDbEntity
  8
230
  6
CONTINUOUS
 62
     6
100
AcDbLine
 10
878.9002639830224
 20
505.7432263218552
 30
0.0
 11
880.3659569830225
 21
507.1040143218551
 31
0.0
  0
LINE
  5
5940
330
1A
100
AcDbEntity
  8
230
  6
CONTINUOUS
 62
     6
100
AcDbLine
 10
878.9002639830224
 20
505.7432263218552
 30
0.0
 11
879.8372779830224
 21
507.510146321855
 31
0.0
  0
TEXT
  5
5941
330
1A
100
AcDbEntity
  8
230
  6
CONTINUOUS
 62
     6
100
AcDbText
 10
925.7247605970992
 20
555.5482146911178
 30
0.0
 40
5.0
  1
取付アングル
100
AcDbText
  0
LINE
  5
5942
330
1A
100
AcDbEntity
  8
230
  6
CONTINUOUS
 62
     6
100
AcDbLine
 10
915.7245137225523
 20
553.6789308319485
 30
0.0
 11
963.6030689994905
 21
553.6789308319485
 31
0.0
  0
LINE
  5
5943
330
1A
100
AcDbEntity
  8
230
  6
CONTINUOUS
 62
     6
100
AcDbLine
 10
878.9002639830224
 20
505.7432263218552
 30
0.0
 11
915.7245137225523
 21
553.6789308319485
 31
0.0
  0
TEXT
  5
5944
330
1A
100
AcDbEntity
  8
230
  6
CONTINUOUS
 62
     6
100
AcDbText
 10
597.2518632795136
 20
535.2444548609575
 30
0.0
 40
5.0
  1
2-M6
100
AcDbText
  0
LINE
  5
5945
330
1A
100
AcDbEntity
  8
230
  6
CONTINUOUS
 62
     6
100
AcDbLine
 10
624.7988792988853
 20
532.4491889456282
 30
0.0
 11
595.1998662794083
 21
532.4491889456282
 31
0.0
  0
LINE
  5
5946
330
1A
100
AcDbEntity
  8
230
  6
CONTINUOUS
 62
     6
100
AcDbLine
 10
652.6129149830223
 20
479.2175003218551
 30
0.0
 11
624.7988792988853
 21
532.4491889456282
 31
0.0
  0
LINE
  5
594B
330
1A
100
AcDbEntity
  8
230
  6
CONTINUOUS
 62
     6
100
AcDbLine
 10
652.6129149830223
 20
479.2175003218551
 30
0.0
 11
651.9950999830228
 21
481.1196843218551
 31
0.0
  0
LINE
  5
594C
330
1A
100
AcDbEntity
  8
230
  6
CONTINUOUS
 62
     6
100
AcDbLine
 10
652.6129149830223
 20
479.2175003218551
 30
0.0
 11
651.4042299830228
 21
480.8109503218552
 31
0.0
  0
TEXT
  5
594E
330
1A
100
AcDbEntity
  8
230
 62
     6
100
AcDbText
 10
584.5507330876464
 20
449.5794617071172
 30
0.0
 40
5.0
  1
L
100
AcDbText
  0
TEXT
  5
594F
330
1A
100
AcDbEntity
  8
230
 62
     6
100
AcDbText
 10
582.9538137677077
 20
451.5582949203583
 30
0.0
 40
5.0
  1
H
100
AcDbText
  0
TEXT
  5
5951
330
1A
100
AcDbEntity
  8
230
 62
     6
100
AcDbText
 10
194.2904830088155
 20
451.5825736768788
 30
0.0
 40
5.0
  1
H
100
AcDbText
  0
TEXT
  5
5952
330
1A
100
AcDbEntity
  8
230
 62
     6
100
AcDbText
 10
195.9473440088155
 20
450.4393846768789
 30
0.0
 40
5.0
  1
L
100
AcDbText
  0
CIRCLE
  5
5953
330
1A
100
AcDbEntity
  8
10
100
AcDbCircle
 10
218.4824780240164
 20
476.5585643218551
 30
0.0
 40
3.0
  0
LINE
  5
5954
330
1A
100
AcDbEntity
  8
150
  6
HIDDEN2
 62
     7
100
AcDbLine
 10
310.4824900240164
 20
459.3085493218552
 30
0.0
 11
310.4824900240164
 21
448.8085493218552
 31
0.0
  0
CIRCLE
  5
5955
330
1A
100
AcDbEntity
  8
10
100
AcDbCircle
 10
432.4825520240165
 20
431.5585493218552
 30
0.0
 40
3.0
  0
TEXT
  5
5AAF
330
1A
100
AcDbEntity
  8
230
  6
CONTINUOUS
 62
     6
100
AcDbText
 10
156.8127580240164
 20
277.3401483218551
 30
0.0
 40
5.0
  1
差込台取付けねじ
100
AcDbText
  0
LINE
  5
5AB1
330
1A
100
AcDbEntity
  8
230
  6
CONTINUOUS
 62
     6
100
AcDbLine
 10
200.1175370240164
 20
267.0609583218551
 30
0.0
 11
156.8589620240164
 21
267.0609583218551
 31
0.0
  0
TEXT
  5
5AB9
330
1A
100
AcDbEntity
  8
230
  6
CONTINUOUS
 62
     6
100
AcDbText
 10
157.5839447966092
 20
269.7234943218552
 30
0.0
 40
5.0
  1
ナベM6
100
AcDbText
  0
LINE
  5
5B17
330
1A
100
AcDbEntity
  8
230
  6
CONTINUOUS
 62
     6
100
AcDbLine
 10
215.7140180240164
 20
211.6838833218551
 30
0.0
 11
200.1175370240164
 21
267.0609583218551
 31
0.0
  0
LINE
  5
5B1F
330
1A
100
AcDbEntity
  8
230
  6
CONTINUOUS
100
AcDbLine
 10
215.7140180240164
 20
211.6838833218551
 30
0.0
 11
214.8585620240164
 21
213.4916973218551
 31
0.0
  0
LINE
  5
5B20
330
1A
100
AcDbEntity
  8
230
  6
CONTINUOUS
100
AcDbLine
 10
215.7140180240164
 20
211.6838833218551
 30
0.0
 11
215.5002630240164
 21
213.6724273218551
 31
0.0
  0
LWPOLYLINE
  5
5BE0
330
1A
100
AcDbEntity
  8
10
  6
HIDDEN2
100
AcDbPolyline
 90
        4
 70
     1
 43
0.0
 10
215.4824600240164
 20
186.4603443218552
 10
221.4824600240164
 20
186.4603443218552
 10
221.4824600240164
 20
205.4603443218552
 10
215.4824600240164
 20
205.4603443218552
  0
LINE
  5
5BE1
330
1A
100
AcDbEntity
  8
230
  6
CONTINUOUS
 62
     6
100
AcDbLine
 10
219.8320160240164
 20
294.030817407615
 30
0.0
 11
190.3409580240164
 21
294.030817407615
 31
0.0
  0
TEXT
  5
5BE2
330
1A
100
AcDbEntity
  8
230
  6
CONTINUOUS
 62
     6
100
AcDbText
 10
189.8304600240164
 20
295.516810407615
 30
0.0
 40
5.0
  1
標準装備
100
AcDbText
  0
TEXT
  5
5BE3
330
1A
100
AcDbEntity
  8
230
  6
CONTINUOUS
 62
     6
100
AcDbText
 10
189.8568533897487
 20
302.627235407615
 30
0.0
 40
5.0
  1
端子カバー
100
AcDbText
  0
LINE
  5
5BE4
330
1A
100
AcDbEntity
  8
230
  6
CONTINUOUS
 62
     6
100
AcDbLine
 10
245.9824680240164
 20
257.324091407615
 30
0.0
 11
219.8320160240164
 21
294.030817407615
 31
0.0
  0
LINE
  5
5BE5
330
1A
100
AcDbEntity
  8
230
  6
CONTINUOUS
 62
     6
100
AcDbLine
 10
245.9824680240164
 20
257.324091407615
 30
0.0
 11
245.1097240240164
 21
259.123624407615
 31
0.0
  0
LINE
  5
5BE6
330
1A
100
AcDbEntity
  8
230
  6
CONTINUOUS
 62
     6
100
AcDbLine
 10
245.9824680240164
 20
257.324091407615
 30
0.0
 11
244.5667560240164
 21
258.736805407615
 31
0.0
  0
LINE
  5
5BE7
330
1A
100
AcDbEntity
  8
230
  6
CONTINUOUS
 62
     6
100
AcDbLine
 10
455.2739579297615
 20
293.4076095619243
 30
0.0
 11
487.6998242058466
 21
293.4076095619243
 31
0.0
  0
TEXT
  5
5BE8
330
1A
100
AcDbEntity
  8
230
  6
CONTINUOUS
 62
     6
100
AcDbText
 10
458.4036505540399
 20
295.1533374234326
 30
0.0
 40
5.0
  1
端子カバー
100
AcDbText
  0
LINE
  5
5BE9
330
1A
100
AcDbEntity
  8
230
  6
CONTINUOUS
 62
     6
100
AcDbLine
 10
442.9824820240163
 20
272.1181487931654
 30
0.0
 11
455.2739579297615
 21
293.4076095619243
 31
0.0
  0
LINE
  5
5BEA
330
1A
100
AcDbEntity
  8
230
  6
CONTINUOUS
 62
     6
100
AcDbLine
 10
442.9824820240163
 20
272.1181487931654
 30
0.0
 11
443.6798207665648
 21
273.9926409064738
 31
0.0
  0
LINE
  5
5BEB
330
1A
100
AcDbEntity
  8
230
  6
CONTINUOUS
 62
     6
100
AcDbLine
 10
442.9824820240163
 20
272.1181487931654
 30
0.0
 11
444.257171095002
 21
273.6593070968726
 31
0.0
  0
LINE
  5
5BEC
330
1A
100
AcDbEntity
  8
230
  6
CONTINUOUS
 62
     6
100
AcDbLine
 10
395.419677537288
 20
264.7190848212598
 30
0.0
 11
437.4144865973985
 21
337.4562422861885
 31
0.0
  0
LINE
  5
5BED
330
1A
100
AcDbEntity
  8
230
  6
CONTINUOUS
100
AcDbLine
 10
437.4144865973985
 20
337.4562422861885
 30
0.0
 11
492.2410584560219
 21
337.4562422861885
 31
0.0
  0
TEXT
  5
5BEE
330
1A
100
AcDbEntity
  8
230
  6
CONTINUOUS
 62
     6
100
AcDbText
 10
445.4980550816552
 20
345.9612172861885
 30
0.0
 40
5.0
  1
負荷側接続ねじ
100
AcDbText
  0
TEXT
  5
5BEF
330
1A
100
AcDbEntity
  8
230
  6
CONTINUOUS
 62
     6
100
AcDbText
 10
445.1639491790579
 20
339.2801862861885
 30
0.0
 40
5.0
  1
ナベM8
100
AcDbText
  0
LINE
  5
5BF0
330
1A
100
AcDbEntity
  8
230
  6
CONTINUOUS
 62
     6
100
AcDbLine
 10
395.419677537288
 20
264.7190848212598
 30
0.0
 11
396.1170155356319
 21
266.5935771377527
 31
0.0
  0
LINE
  5
5BF1
330
1A
100
AcDbEntity
  8
230
  6
CONTINUOUS
 62
     6
100
AcDbLine
 10
395.419677537288
 20
264.7190848212598
 30
0.0
 11
396.6943656774458
 21
266.2602435776098
 31
0.0
  0
LINE
  5
5BF2
330
1A
100
AcDbEntity
  8
210
  6
CONTINUOUS
 62
     4
100
AcDbLine
 10
497.4825360240163
 20
191.4603413218551
 30
0.0
 11
497.1492030240162
 21
193.432368321855
 31
0.0
  0
LINE
  5
5BF3
330
1A
100
AcDbEntity
  8
210
  6
CONTINUOUS
 62
     4
100
AcDbLine
 10
497.4825360240163
 20
191.4603413218551
 30
0.0
 11
497.8158690240162
 21
193.432368321855
 31
0.0
  0
LINE
  5
5BF4
330
1A
100
AcDbEntity
  8
210
  6
CONTINUOUS
 62
     4
100
AcDbLine
 10
497.4825360240163
 20
316.460356321855
 30
0.0
 11
497.4825360240163
 21
191.4603413218551
 31
0.0
  0
TEXT
  5
5BF5
330
1A
100
AcDbEntity
  8
210
  6
CONTINUOUS
 62
     4
100
AcDbText
 10
494.3575360240163
 20
247.835341321855
 30
0.0
 40
5.0
  1
125
 50
90.00000299999769
100
AcDbText
  0
LINE
  5
5BF6
330
1A
100
AcDbEntity
  8
210
  6
CONTINUOUS
 62
     4
100
AcDbLine
 10
477.4824900240163
 20
316.460356321855
 30
0.0
 11
501.5450360240162
 21
316.460356321855
 31
0.0
  0
LINE
  5
5BF7
330
1A
100
AcDbEntity
  8
210
  6
CONTINUOUS
 62
     4
100
AcDbLine
 10
497.4825360240163
 20
316.460356321855
 30
0.0
 11
497.1492030240162
 21
314.488330321855
 31
0.0
  0
LINE
  5
5BF8
330
1A
100
AcDbEntity
  8
210
  6
CONTINUOUS
 62
     4
100
AcDbLine
 10
497.4825360240163
 20
316.460356321855
 30
0.0
 11
497.8158690240162
 21
314.488330321855
 31
0.0
  0
LINE
  5
5BF9
330
1A
100
AcDbEntity
  8
210
  6
CONTINUOUS
 62
     4
100
AcDbLine
 10
234.4824980240164
 20
69.95036132185521
 30
0.0
 11
416.4824820240164
 21
69.95036132185521
 31
0.0
  0
LINE
  5
5BFA
330
1A
100
AcDbEntity
  8
210
  6
CONTINUOUS
 62
     4
100
AcDbLine
 10
234.4824980240164
 20
141.4603483218552
 30
0.0
 11
234.4824980240164
 21
65.88786132185521
 31
0.0
  0
LINE
  5
5BFB
330
1A
100
AcDbEntity
  8
210
  6
CONTINUOUS
 62
     4
100
AcDbLine
 10
234.4824980240164
 20
69.95036132185521
 30
0.0
 11
236.4545240240163
 21
69.61702732185518
 31
0.0
  0
LINE
  5
5BFC
330
1A
100
AcDbEntity
  8
210
  6
CONTINUOUS
 62
     4
100
AcDbLine
 10
234.4824980240164
 20
69.95036132185521
 30
0.0
 11
236.4545240240163
 21
70.28369432185513
 31
0.0
  0
TEXT
  5
5BFD
330
1A
100
AcDbEntity
  8
210
  6
CONTINUOUS
 62
     4
100
AcDbText
 10
319.7741490240163
 20
73.07536132185521
 30
0.0
 40
5.0
  1
182
100
AcDbText
  0
LINE
  5
5BFE
330
1A
100
AcDbEntity
  8
210
  6
CONTINUOUS
 62
     4
100
AcDbLine
 10
416.4824820240164
 20
141.4603483218552
 30
0.0
 11
416.4824820240164
 21
65.88786132185521
 31
0.0
  0
LINE
  5
5BFF
330
1A
100
AcDbEntity
  8
210
  6
CONTINUOUS
 62
     4
100
AcDbLine
 10
416.4824820240164
 20
69.95036132185521
 30
0.0
 11
414.5104560240164
 21
69.61702732185518
 31
0.0
  0
LINE
  5
5C00
330
1A
100
AcDbEntity
  8
210
  6
CONTINUOUS
 62
     4
100
AcDbLine
 10
416.4824820240164
 20
69.95036132185521
 30
0.0
 11
414.5104560240164
 21
70.28369432185513
 31
0.0
  0
LINE
  5
5C01
330
1A
100
AcDbEntity
  8
210
  6
CONTINUOUS
 62
     4
100
AcDbLine
 10
330.4824820240164
 20
113.9603633218551
 30
0.0
 11
341.7101533392881
 21
113.9603633218551
 31
0.0
  0
LINE
  5
5C02
330
1A
100
AcDbEntity
  8
210
  6
CONTINUOUS
 62
     4
100
AcDbLine
 10
325.4824820240163
 20
93.96035132185511
 30
0.0
 11
395.4824820240164
 21
93.96035132185511
 31
0.0
  0
TEXT
  5
5C03
330
1A
100
AcDbEntity
  8
230
  6
CONTINUOUS
 62
     6
100
AcDbText
 10
331.8119644977944
 20
106.4439833218551
 30
0.0
 40
5.0
  1
適用ブスバー厚さ
100
AcDbText
  0
TEXT
  5
5C04
330
1A
100
AcDbEntity
  8
230
  6
CONTINUOUS
 62
     6
100
AcDbText
 10
336.5536025739738
 20
86.73875232185514
 30
0.0
 40
5.0
  1
ブスバーピッチ
100
AcDbText
  0
TEXT
  5
5C05
330
1A
100
AcDbEntity
  8
210
  6
CONTINUOUS
 62
     4
100
AcDbText
 10
332.4184663392881
 20
117.0853633218551
 30
0.0
 40
5.0
  1
10
100
AcDbText
  0
LINE
  5
5C06
330
1A
100
AcDbEntity
  8
210
  6
CONTINUOUS
 62
     4
100
AcDbLine
 10
255.4824980240164
 20
93.96035132185511
 30
0.0
 11
325.4824820240163
 21
93.96035132185511
 31
0.0
  0
TEXT
  5
5C07
330
1A
100
AcDbEntity
  8
230
  6
CONTINUOUS
 62
     6
100
AcDbText
 10
266.4236614296684
 20
86.73875232185514
 30
0.0
 40
5.0
  1
ブスバーピッチ
100
AcDbText
  0
LINE
  5
5C08
330
1A
100
AcDbEntity
  8
210
  6
CONTINUOUS
 62
     4
100
AcDbLine
 10
255.4824980240164
 20
93.96035132185511
 30
0.0
 11
257.4545240240163
 21
93.62701832185519
 31
0.0
  0
LINE
  5
5C09
330
1A
100
AcDbEntity
  8
210
  6
CONTINUOUS
 62
     4
100
AcDbLine
 10
255.4824980240164
 20
93.96035132185511
 30
0.0
 11
257.4545240240163
 21
94.29368532185515
 31
0.0
  0
TEXT
  5
5C0A
330
1A
100
AcDbEntity
  8
210
  6
CONTINUOUS
 62
     4
100
AcDbText
 10
286.0241640240163
 20
97.08535132185511
 30
0.0
 40
5.0
  1
70
100
AcDbText
  0
LINE
  5
5C0B
330
1A
100
AcDbEntity
  8
210
  6
CONTINUOUS
 62
     4
100
AcDbLine
 10
325.4824820240163
 20
93.96035132185511
 30
0.0
 11
323.5104560240163
 21
93.62701832185519
 31
0.0
  0
LINE
  5
5C0C
330
1A
100
AcDbEntity
  8
210
  6
CONTINUOUS
 62
     4
100
AcDbLine
 10
325.4824820240163
 20
93.96035132185511
 30
0.0
 11
327.4545090240163
 21
93.62701832185519
 31
0.0
  0
LINE
  5
5C0D
330
1A
100
AcDbEntity
  8
210
  6
CONTINUOUS
 62
     4
100
AcDbLine
 10
320.4824820240164
 20
113.9603633218551
 30
0.0
 11
330.4824820240164
 21
113.9603633218551
 31
0.0
  0
LINE
  5
5C0E
330
1A
100
AcDbEntity
  8
210
  6
CONTINUOUS
 62
     4
100
AcDbLine
 10
320.4824820240164
 20
113.9603633218551
 30
0.0
 11
318.5104560240163
 21
113.6270303218551
 31
0.0
  0
LINE
  5
5C0F
330
1A
100
AcDbEntity
  8
210
  6
CONTINUOUS
 62
     4
100
AcDbLine
 10
320.4824820240164
 20
113.9603633218551
 30
0.0
 11
318.5104560240163
 21
114.2936963218551
 31
0.0
  0
LINE
  5
5C10
330
1A
100
AcDbEntity
  8
210
  6
CONTINUOUS
 62
     4
100
AcDbLine
 10
320.4824820240164
 20
113.9603633218551
 30
0.0
 11
315.1504820240164
 21
113.9603633218551
 31
0.0
  0
LINE
  5
5C11
330
1A
100
AcDbEntity
  8
210
  6
CONTINUOUS
 62
     4
100
AcDbLine
 10
330.4824820240164
 20
113.9603633218551
 30
0.0
 11
332.4545090240163
 21
113.6270303218551
 31
0.0
  0
LINE
  5
5C12
330
1A
100
AcDbEntity
  8
210
  6
CONTINUOUS
 62
     4
100
AcDbLine
 10
330.4824820240164
 20
113.9603633218551
 30
0.0
 11
332.4545090240163
 21
114.2936963218551
 31
0.0
  0
LINE
  5
5C13
330
1A
100
AcDbEntity
  8
210
  6
CONTINUOUS
 62
     4
100
AcDbLine
 10
325.4824820240163
 20
93.96035132185511
 30
0.0
 11
323.5104560240163
 21
94.29368532185515
 31
0.0
  0
LINE
  5
5C14
330
1A
100
AcDbEntity
  8
210
  6
CONTINUOUS
 62
     4
100
AcDbLine
 10
325.4824820240163
 20
93.96035132185511
 30
0.0
 11
327.4545090240163
 21
94.29368532185515
 31
0.0
  0
TEXT
  5
5C15
330
1A
100
AcDbEntity
  8
210
  6
CONTINUOUS
 62
     4
100
AcDbText
 10
356.0241490240163
 20
97.08535132185511
 30
0.0
 40
5.0
  1
70
100
AcDbText
  0
LINE
  5
5C16
330
1A
100
AcDbEntity
  8
210
  6
CONTINUOUS
 62
     4
100
AcDbLine
 10
395.4824820240164
 20
93.96035132185511
 30
0.0
 11
393.5104560240164
 21
93.62701832185519
 31
0.0
  0
LINE
  5
5C17
330
1A
100
AcDbEntity
  8
210
  6
CONTINUOUS
 62
     4
100
AcDbLine
 10
395.4824820240164
 20
93.96035132185511
 30
0.0
 11
393.5104560240164
 21
94.29368532185515
 31
0.0
  0
LWPOLYLINE
  5
5C18
330
1A
100
AcDbEntity
  8
10
  6
HIDDEN2
100
AcDbPolyline
 90
        4
 70
     1
 43
0.0
 10
429.4825520240165
 20
186.4603443218552
 10
435.4825520240165
 20
186.4603443218552
 10
435.4825520240165
 20
205.4603443218552
 10
429.4825520240165
 20
205.4603443218552
  0
LINE
  5
5C19
330
1A
100
AcDbEntity
  8
150
  6
CONTINUOUS
 62
     7
100
AcDbLine
 10
265.1824720240164
 20
308.4603443218552
 30
0.0
 11
261.9824600240164
 21
308.4603443218552
 31
0.0
  0
LINE
  5
5C1A
330
1A
100
AcDbEntity
  8
150
100
AcDbLine
 10
245.9824600240164
 20
232.4603443218552
 30
0.0
 11
245.9824600240164
 21
229.4603443218552
 31
0.0
  0
LINE
  5
5C1B
330
1A
100
AcDbEntity
  8
0
  6
CONTINUOUS
 62
     2
100
AcDbLine
 10
402.9824900240164
 20
229.4603443218552
 30
0.0
 11
404.4824900240164
 21
229.4603443218552
 31
0.0
  0
LINE
  5
5C1D
330
1A
100
AcDbEntity
  8
0
  6
CONTINUOUS
 62
     2
100
AcDbLine
 10
350.4824900240164
 20
315.4603443218552
 30
0.0
 11
375.4824900240164
 21
315.4603443218552
 31
0.0
  0
LINE
  5
5C1E
330
1A
100
AcDbEntity
  8
150
  6
CONTINUOUS
 62
     7
100
AcDbLine
 10
350.4824900240164
 20
315.4603443218552
 30
0.0
 11
300.4824900240164
 21
315.4603443218552
 31
0.0
  0
TEXT
  5
5C29
330
1A
100
AcDbEntity
  8
230
 62
     6
100
AcDbText
 10
787.1943171357821
 20
82.26440655627447
 30
0.0
 40
10.0
  1
XDI2H
100
AcDbText
  0
LWPOLYLINE
  5
5C2A
330
1A
100
AcDbEntity
  8
230
 62
     6
100
AcDbPolyline
 90
        4
 70
     1
 43
0.0
 10
773.9566533025176
 20
78.41528655627462
 10
863.4396579557337
 20
78.41528655627462
 10
863.4396579557337
 20
95.69660478710501
 10
773.9566533025176
 20
95.69660478710501
  0
LINE
  5
5C63
330
1A
100
AcDbEntity
  8
150
  6
CONTINUOUS
 62
     7
100
AcDbLine
 10
259.9824600240164
 20
308.8603383218551
 30
0.0
 11
254.9824600240164
 21
308.8603383218551
 31
0.0
  0
ENDSEC
  0
SECTION
  2
OBJECTS
  0
DICTIONARY
  5
C
330
0
100
AcDbDictionary
  3
ACAD_GROUP
350
D
  3
ACAD_LAYOUT
350
1B83
  3
ACAD_MLINESTYLE
350
E
  3
ACAD_PLOTSETTINGS
350
1B84
  3
ACAD_PLOTSTYLENAME
350
1B81
  3
ACDBHEADERROUNDTRIPXREC
350
5CBB
  3
ACDBVARIABLEDICTIONARY
350
E7A
  0
DICTIONARY
  5
1BF7
330
1A
100
AcDbDictionary
280
     1
  3
ACAD_LAYOUTSELFREF
360
5CDD
  0
DICTIONARY
  5
1BF5
330
17
100
AcDbDictionary
280
     1
  3
ACAD_LAYOUTSELFREF
360
5CDC
  0
DICTIONARY
  5
D
102
{ACAD_REACTORS
330
C
102
}
330
C
100
AcDbDictionary
  0
DICTIONARY
  5
1B83
102
{ACAD_REACTORS
330
C
102
}
330
C
100
AcDbDictionary
  0
DICTIONARY
  5
E
102
{ACAD_REACTORS
330
C
102
}
330
C
100
AcDbDictionary
  3
STANDARD
350
13
  0
DICTIONARY
  5
1B84
102
{ACAD_REACTORS
330
C
102
}
330
C
100
AcDbDictionary
  0
ACDBDICTIONARYWDFLT
  5
1B81
102
{ACAD_REACTORS
330
C
102
}
330
C
100
AcDbDictionary
281
     1
  3
Normal
350
1B82
100
AcDbDictionaryWithDefault
340
1B82
  0
DICTIONARY
  5
5CBB
102
{ACAD_REACTORS
330
C
102
}
330
C
100
AcDbDictionary
  3
CEPSNTYPE
350
5CC5
  3
DIMSTYLEDATA
350
5CC9
  3
FINGERPRINTGUID
350
5CC6
  3
HYPERLINKBASE
350
5CBE
  3
INSUNITS
350
5CC4
  3
LAYOUTDICT
350
5CC0
  3
LWETCUNION
350
5CC3
  3
PLOTSETDICT
350
5CC1
  3
PLOTSTYLNAMDICT
350
5CC2
  3
PSVPSCALE
350
5CC8
  3
PUCSBASE
350
5CCC
  3
PUCSORGBACK
350
5CD2
  3
PUCSORGBOTTOM
350
5CCE
  3
PUCSORGFRONT
350
5CD1
  3
PUCSORGLEFT
350
5CCF
  3
PUCSORGRIGHT
350
5CD0
  3
PUCSORGTOP
350
5CCD
  3
PUCSORTHOREF
350
5CCA
  3
PUCSORTHOVIEW
350
5CCB
  3
STYLESHEET
350
5CBF
  3
TSTACKALIGN
350
5CBC
  3
TSTACKSIZE
350
5CBD
  3
UCSBASE
350
5CD5
  3
UCSORGBACK
350
5CDB
  3
UCSORGBOTTOM
350
5CD7
  3
UCSORGFRONT
350
5CDA
  3
UCSORGLEFT
350
5CD8
  3
UCSORGRIGHT
350
5CD9
  3
UCSORGTOP
350
5CD6
  3
UCSORTHOREF
350
5CD3
  3
UCSORTHOVIEW
350
5CD4
  3
VERSIONGUID
350
5CC7
  0
DICTIONARY
  5
E7A
102
{ACAD_REACTORS
330
C
102
}
330
C
100
AcDbDictionary
  3
SORTENTS
350
E7B
  0
XRECORD
  5
5CDD
102
{ACAD_REACTORS
330
1BF7
102
}
330
1BF7
100
AcDbXrecord
340
1A
  0
XRECORD
  5
5CDC
102
{ACAD_REACTORS
330
1BF5
102
}
330
1BF5
100
AcDbXrecord
340
17
  0
MLINESTYLE
  5
13
102
{ACAD_REACTORS
330
E
102
}
330
E
100
AcDbMlineStyle
  2
STANDARD
 70
     0
  3

 62
     0
 51
90.0
 52
90.0
 71
     2
 49
0.5
 62
   256
  6
BYLAYER
 49
-0.5
 62
   256
  6
BYLAYER
  0
ACDBPLACEHOLDER
  5
1B82
102
{ACAD_REACTORS
330
1B81
102
}
330
1B81
100
AcDbPlaceHolder
280
     0
  0
XRECORD
  5
5CC5
102
{ACAD_REACTORS
330
5CBB
102
}
330
5CBB
100
AcDbXrecord
 90
        0
  0
XRECORD
  5
5CC9
102
{ACAD_REACTORS
330
5CBB
102
}
330
5CBB
100
AcDbXrecord
1000
DSTYLE
1002
{
1070
   341
340
3A8D
1070
   342
340
3A8D
1002
}
  0
XRECORD
  5
5CC6
102
{ACAD_REACTORS
330
5CBB
102
}
330
5CBB
100
AcDbXrecord
  1
{D592FCE0-8350-11D5-ACAE-009099148E29}
  0
XRECORD
  5
5CBE
102
{ACAD_REACTORS
330
5CBB
102
}
330
5CBB
100
AcDbXrecord
  1

  0
XRECORD
  5
5CC4
102
{ACAD_REACTORS
330
5CBB
102
}
330
5CBB
100
AcDbXrecord
 90
        0
  0
XRECORD
  5
5CC0
102
{ACAD_REACTORS
330
5CBB
102
}
330
5CBB
100
AcDbXrecord
340
1B83
  0
XRECORD
  5
5CC3
102
{ACAD_REACTORS
330
5CBB
102
}
330
5CBB
100
AcDbXrecord
 90
    10781
  0
XRECORD
  5
5CC1
102
{ACAD_REACTORS
330
5CBB
102
}
330
5CBB
100
AcDbXrecord
340
1B84
  0
XRECORD
  5
5CC2
102
{ACAD_REACTORS
330
5CBB
102
}
330
5CBB
100
AcDbXrecord
340
1B81
  0
XRECORD
  5
5CC8
102
{ACAD_REACTORS
330
5CBB
102
}
330
5CBB
100
AcDbXrecord
 40
0.0
  0
XRECORD
  5
5CCC
102
{ACAD_REACTORS
330
5CBB
102
}
330
5CBB
100
AcDbXrecord
340
0
  0
XRECORD
  5
5CD2
102
{ACAD_REACTORS
330
5CBB
102
}
330
5CBB
100
AcDbXrecord
 10
0.0
 20
0.0
 30
0.0
  0
XRECORD
  5
5CCE
102
{ACAD_REACTORS
330
5CBB
102
}
330
5CBB
100
AcDbXrecord
 10
0.0
 20
0.0
 30
0.0
  0
XRECORD
  5
5CD1
102
{ACAD_REACTORS
330
5CBB
102
}
330
5CBB
100
AcDbXrecord
 10
0.0
 20
0.0
 30
0.0
  0
XRECORD
  5
5CCF
102
{ACAD_REACTORS
330
5CBB
102
}
330
5CBB
100
AcDbXrecord
 10
0.0
 20
0.0
 30
0.0
  0
XRECORD
  5
5CD0
102
{ACAD_REACTORS
330
5CBB
102
}
330
5CBB
100
AcDbXrecord
 10
0.0
 20
0.0
 30
0.0
  0
XRECORD
  5
5CCD
102
{ACAD_REACTORS
330
5CBB
102
}
330
5CBB
100
AcDbXrecord
 10
0.0
 20
0.0
 30
0.0
  0
XRECORD
  5
5CCA
102
{ACAD_REACTORS
330
5CBB
102
}
330
5CBB
100
AcDbXrecord
340
0
  0
XRECORD
  5
5CCB
102
{ACAD_REACTORS
330
5CBB
102
}
330
5CBB
100
AcDbXrecord
 70
     0
  0
XRECORD
  5
5CBF
102
{ACAD_REACTORS
330
5CBB
102
}
330
5CBB
100
AcDbXrecord
  1
機械図面設定（みずいろ細線）.ctb
  0
XRECORD
  5
5CBC
102
{ACAD_REACTORS
330
5CBB
102
}
330
5CBB
100
AcDbXrecord
 90
        1
  0
XRECORD
  5
5CBD
102
{ACAD_REACTORS
330
5CBB
102
}
330
5CBB
100
AcDbXrecord
 90
       70
  0
XRECORD
  5
5CD5
102
{ACAD_REACTORS
330
5CBB
102
}
330
5CBB
100
AcDbXrecord
340
0
  0
XRECORD
  5
5CDB
102
{ACAD_REACTORS
330
5CBB
102
}
330
5CBB
100
AcDbXrecord
 10
0.0
 20
0.0
 30
0.0
  0
XRECORD
  5
5CD7
102
{ACAD_REACTORS
330
5CBB
102
}
330
5CBB
100
AcDbXrecord
 10
0.0
 20
0.0
 30
0.0
  0
XRECORD
  5
5CDA
102
{ACAD_REACTORS
330
5CBB
102
}
330
5CBB
100
AcDbXrecord
 10
0.0
 20
0.0
 30
0.0
  0
XRECORD
  5
5CD8
102
{ACAD_REACTORS
330
5CBB
102
}
330
5CBB
100
AcDbXrecord
 10
0.0
 20
0.0
 30
0.0
  0
XRECORD
  5
5CD9
102
{ACAD_REACTORS
330
5CBB
102
}
330
5CBB
100
AcDbXrecord
 10
0.0
 20
0.0
 30
0.0
  0
XRECORD
  5
5CD6
102
{ACAD_REACTORS
330
5CBB
102
}
330
5CBB
100
AcDbXrecord
 10
0.0
 20
0.0
 30
0.0
  0
XRECORD
  5
5CD3
102
{ACAD_REACTORS
330
5CBB
102
}
330
5CBB
100
AcDbXrecord
340
0
  0
XRECORD
  5
5CD4
102
{ACAD_REACTORS
330
5CBB
102
}
330
5CBB
100
AcDbXrecord
 70
     0
  0
XRECORD
  5
5CC7
102
{ACAD_REACTORS
330
5CBB
102
}
330
5CBB
100
AcDbXrecord
  1
{8C8829FF-97E0-11D5-A38A-00B0D0356B67}
  0
DICTIONARYVAR
  5
E7B
102
{ACAD_REACTORS
330
E7A
102
}
330
E7A
100
DictionaryVariables
280
     0
  1
96
  0
ENDSEC
  0
EOF
